ISO-10303-21;
HEADER;
FILE_DESCRIPTION (( 'STEP AP203' ),
    '1' );
FILE_NAME ('SleeveBearing.STEP',
    '2012-04-06T17:48:58',
    ( '' ),
    ( '' ),
    'SwSTEP 2.0',
    'SolidWorks 2010',
    '' );
FILE_SCHEMA (( 'CONFIG_CONTROL_DESIGN' ));
ENDSEC;

DATA;
#1 = VERTEX_POINT ( 'NONE', #130 ) ;
#2 = VERTEX_POINT ( 'NONE', #3 ) ;
#3 = CARTESIAN_POINT ( 'NONE',  ( 0.0000000000000000000, 3.000000000000000000, -9.000000000000000000 ) ) ;
#4 = CARTESIAN_POINT ( 'NONE',  ( 1.469576158976823600E-015, 0.0000000000000000000, 11.99999999999999600 ) ) ;
#5 = CARTESIAN_POINT ( 'NONE',  ( 0.0000000000000000000, 3.000000000000000000, -11.99999999999999600 ) ) ;
#6 = DIRECTION ( 'NONE',  ( 0.0000000000000000000, 1.000000000000000000, 0.0000000000000000000 ) ) ;
#7 = DIRECTION ( 'NONE',  ( 0.0000000000000000000, -0.0000000000000000000, 1.000000000000000000 ) ) ;
#8 = CARTESIAN_POINT ( 'NONE',  ( 7.347880794884120700E-016, 11.00000000000000000, -6.000000000000000900 ) ) ;
#9 = CARTESIAN_POINT ( 'NONE',  ( 7.347880794884120700E-016, 0.0000000000000000000, -6.000000000000000900 ) ) ;
#10 = CARTESIAN_POINT ( 'NONE',  ( 0.0000000000000000000, 11.00000000000000000, 6.000000000000000900 ) ) ;
#11 = CARTESIAN_POINT ( 'NONE',  ( 1.102182119232617700E-015, 11.00000000000000000, 9.000000000000000000 ) ) ;
#12 = CARTESIAN_POINT ( 'NONE',  ( 0.0000000000000000000, 0.0000000000000000000, 6.000000000000000900 ) ) ;
#13 = CARTESIAN_POINT ( 'NONE',  ( 0.0000000000000000000, 11.00000000000000000, -9.000000000000000000 ) ) ;
#14 = CARTESIAN_POINT ( 'NONE',  ( 1.102182119232617700E-015, 3.000000000000000000, 9.000000000000000000 ) ) ;
#15 = DIRECTION ( 'NONE',  ( -0.0000000000000000000, -1.000000000000000000, -0.0000000000000000000 ) ) ;
#16 = CARTESIAN_POINT ( 'NONE',  ( 0.0000000000000000000, 11.00000000000000000, 0.0000000000000000000 ) ) ;
#17 = DIRECTION ( 'NONE',  ( 0.0000000000000000000, 1.000000000000000000, 0.0000000000000000000 ) ) ;
#18 = DIRECTION ( 'NONE',  ( 0.0000000000000000000, 0.0000000000000000000, 1.000000000000000000 ) ) ;
#19 = CARTESIAN_POINT ( 'NONE',  ( 0.0000000000000000000, 0.0000000000000000000, 0.0000000000000000000 ) ) ;
#20 = DIRECTION ( 'NONE',  ( 0.0000000000000000000, 1.000000000000000000, 0.0000000000000000000 ) ) ;
#21 = DIRECTION ( 'NONE',  ( 0.0000000000000000000, 0.0000000000000000000, 1.000000000000000000 ) ) ;
#22 = CARTESIAN_POINT ( 'NONE',  ( 0.0000000000000000000, 3.000000000000000000, 0.0000000000000000000 ) ) ;
#23 = DIRECTION ( 'NONE',  ( 0.0000000000000000000, 1.000000000000000000, 0.0000000000000000000 ) ) ;
#24 = DIRECTION ( 'NONE',  ( 0.0000000000000000000, 0.0000000000000000000, 1.000000000000000000 ) ) ;
#25 = CARTESIAN_POINT ( 'NONE',  ( 0.0000000000000000000, 11.00000000000000000, 0.0000000000000000000 ) ) ;
#26 = DIRECTION ( 'NONE',  ( 0.0000000000000000000, 1.000000000000000000, 0.0000000000000000000 ) ) ;
#27 = DIRECTION ( 'NONE',  ( 0.0000000000000000000, 0.0000000000000000000, 1.000000000000000000 ) ) ;
#28 = CARTESIAN_POINT ( 'NONE',  ( 0.0000000000000000000, 3.000000000000000000, 0.0000000000000000000 ) ) ;
#29 = DIRECTION ( 'NONE',  ( 0.0000000000000000000, 1.000000000000000000, 0.0000000000000000000 ) ) ;
#30 = DIRECTION ( 'NONE',  ( 0.0000000000000000000, 0.0000000000000000000, 1.000000000000000000 ) ) ;
#31 = CARTESIAN_POINT ( 'NONE',  ( 0.0000000000000000000, 0.0000000000000000000, 0.0000000000000000000 ) ) ;
#32 = DIRECTION ( 'NONE',  ( 0.0000000000000000000, 1.000000000000000000, 0.0000000000000000000 ) ) ;
#33 = DIRECTION ( 'NONE',  ( 0.0000000000000000000, 0.0000000000000000000, 1.000000000000000000 ) ) ;
#34 = CARTESIAN_POINT ( 'NONE',  ( 0.0000000000000000000, 11.00000000000000000, -9.000000000000000000 ) ) ;
#35 = CARTESIAN_POINT ( 'NONE',  ( 1.102182119232617700E-015, 11.00000000000000000, 9.000000000000000000 ) ) ;
#36 = DIRECTION ( 'NONE',  ( -0.0000000000000000000, -1.000000000000000000, -0.0000000000000000000 ) ) ;
#37 = CARTESIAN_POINT ( 'NONE',  ( 0.0000000000000000000, 11.00000000000000000, 0.0000000000000000000 ) ) ;
#38 = DIRECTION ( 'NONE',  ( 0.0000000000000000000, 1.000000000000000000, 0.0000000000000000000 ) ) ;
#39 = DIRECTION ( 'NONE',  ( 0.0000000000000000000, 0.0000000000000000000, 1.000000000000000000 ) ) ;
#40 = CARTESIAN_POINT ( 'NONE',  ( 1.469576158976823600E-015, 3.000000000000000000, 11.99999999999999600 ) ) ;
#41 = DIRECTION ( 'NONE',  ( -0.0000000000000000000, -1.000000000000000000, -0.0000000000000000000 ) ) ;
#42 = CARTESIAN_POINT ( 'NONE',  ( 0.0000000000000000000, 3.000000000000000000, -11.99999999999999600 ) ) ;
#43 = DIRECTION ( 'NONE',  ( -0.0000000000000000000, -1.000000000000000000, -0.0000000000000000000 ) ) ;
#44 = CARTESIAN_POINT ( 'NONE',  ( 0.0000000000000000000, 11.00000000000000000, 0.0000000000000000000 ) ) ;
#45 = CARTESIAN_POINT ( 'NONE',  ( 0.0000000000000000000, 0.0000000000000000000, 0.0000000000000000000 ) ) ;
#46 = CARTESIAN_POINT ( 'NONE',  ( 0.0000000000000000000, 3.000000000000000000, 0.0000000000000000000 ) ) ;
#47 = DIRECTION ( 'NONE',  ( 0.0000000000000000000, 1.000000000000000000, 0.0000000000000000000 ) ) ;
#48 = DIRECTION ( 'NONE',  ( 0.0000000000000000000, 0.0000000000000000000, 1.000000000000000000 ) ) ;
#49 = CARTESIAN_POINT ( 'NONE',  ( 0.0000000000000000000, 0.0000000000000000000, 0.0000000000000000000 ) ) ;
#50 = DIRECTION ( 'NONE',  ( 0.0000000000000000000, 1.000000000000000000, 0.0000000000000000000 ) ) ;
#51 = DIRECTION ( 'NONE',  ( 0.0000000000000000000, 0.0000000000000000000, 1.000000000000000000 ) ) ;
#52 = DIRECTION ( 'NONE',  ( 0.0000000000000000000, 0.0000000000000000000, -1.000000000000000000 ) ) ;
#53 = DIRECTION ( 'NONE',  ( -0.0000000000000000000, -1.000000000000000000, -0.0000000000000000000 ) ) ;
#54 = DIRECTION ( 'NONE',  ( 0.0000000000000000000, 1.000000000000000000, 0.0000000000000000000 ) ) ;
#55 = DIRECTION ( 'NONE',  ( 0.0000000000000000000, 0.0000000000000000000, 1.000000000000000000 ) ) ;
#56 = CARTESIAN_POINT ( 'NONE',  ( 0.0000000000000000000, 3.000000000000000000, 0.0000000000000000000 ) ) ;
#57 = DIRECTION ( 'NONE',  ( 0.0000000000000000000, 0.0000000000000000000, -1.000000000000000000 ) ) ;
#58 = DIRECTION ( 'NONE',  ( -0.0000000000000000000, -1.000000000000000000, -0.0000000000000000000 ) ) ;
#59 = CARTESIAN_POINT ( 'NONE',  ( 0.0000000000000000000, 3.000000000000000000, 0.0000000000000000000 ) ) ;
#60 = DIRECTION ( 'NONE',  ( -0.0000000000000000000, 1.000000000000000000, -0.0000000000000000000 ) ) ;
#61 = CARTESIAN_POINT ( 'NONE',  ( 0.0000000000000000000, 0.0000000000000000000, 0.0000000000000000000 ) ) ;
#62 = DIRECTION ( 'NONE',  ( 0.0000000000000000000, 0.0000000000000000000, -1.000000000000000000 ) ) ;
#63 = DIRECTION ( 'NONE',  ( 0.0000000000000000000, 0.0000000000000000000, 1.000000000000000000 ) ) ;
#64 = DIRECTION ( 'NONE',  ( -0.0000000000000000000, -1.000000000000000000, -0.0000000000000000000 ) ) ;
#65 = CARTESIAN_POINT ( 'NONE',  ( 0.0000000000000000000, 11.00000000000000000, 0.0000000000000000000 ) ) ;
#66 = CARTESIAN_POINT ( 'NONE',  ( 0.0000000000000000000, 3.000000000000000000, 0.0000000000000000000 ) ) ;
#67 = DIRECTION ( 'NONE',  ( 0.0000000000000000000, 0.0000000000000000000, 1.000000000000000000 ) ) ;
#68 = DIRECTION ( 'NONE',  ( 0.0000000000000000000, 1.000000000000000000, 0.0000000000000000000 ) ) ;
#69 = DIRECTION ( 'NONE',  ( 0.0000000000000000000, 0.0000000000000000000, 1.000000000000000000 ) ) ;
#70 = CARTESIAN_POINT ( 'NONE',  ( 0.0000000000000000000, 0.0000000000000000000, 6.000000000000000900 ) ) ;
#71 = DIRECTION ( 'NONE',  ( -0.0000000000000000000, 1.000000000000000000, -0.0000000000000000000 ) ) ;
#72 = CARTESIAN_POINT ( 'NONE',  ( 7.347880794884120700E-016, 0.0000000000000000000, -6.000000000000000900 ) ) ;
#73 = DIRECTION ( 'NONE',  ( -0.0000000000000000000, 1.000000000000000000, -0.0000000000000000000 ) ) ;
#74 = CARTESIAN_POINT ( 'NONE',  ( 0.0000000000000000000, 0.0000000000000000000, 0.0000000000000000000 ) ) ;
#75 = CARTESIAN_POINT ( 'NONE',  ( 0.0000000000000000000, 0.0000000000000000000, 0.0000000000000000000 ) ) ;
#76 = DIRECTION ( 'NONE',  ( 0.0000000000000000000, 1.000000000000000000, 0.0000000000000000000 ) ) ;
#77 = DIRECTION ( 'NONE',  ( 0.0000000000000000000, 0.0000000000000000000, 1.000000000000000000 ) ) ;
#78 = PLANE ( 'NONE',  #212 ) ;
#79 = DIRECTION ( 'NONE',  ( -0.0000000000000000000, 1.000000000000000000, -0.0000000000000000000 ) ) ;
#80 = DIRECTION ( 'NONE',  ( 0.0000000000000000000, 1.000000000000000000, 0.0000000000000000000 ) ) ;
#81 = DIRECTION ( 'NONE',  ( 0.0000000000000000000, -0.0000000000000000000, 1.000000000000000000 ) ) ;
#82 =( LENGTH_UNIT ( ) NAMED_UNIT ( * ) SI_UNIT ( .MILLI., .METRE. ) );
#83 = CARTESIAN_POINT ( 'NONE',  ( 0.0000000000000000000, 11.00000000000000000, 0.0000000000000000000 ) ) ;
#84 = PLANE ( 'NONE',  #234 ) ;
#85 = CARTESIAN_POINT ( 'NONE',  ( 0.0000000000000000000, 11.00000000000000000, 0.0000000000000000000 ) ) ;
#86 = DIRECTION ( 'NONE',  ( 0.0000000000000000000, 1.000000000000000000, 0.0000000000000000000 ) ) ;
#87 = DIRECTION ( 'NONE',  ( 0.0000000000000000000, -0.0000000000000000000, 1.000000000000000000 ) ) ;
#88 = DIRECTION ( 'NONE',  ( -0.0000000000000000000, -1.000000000000000000, -0.0000000000000000000 ) ) ;
#89 = DIRECTION ( 'NONE',  ( 0.0000000000000000000, 0.0000000000000000000, -1.000000000000000000 ) ) ;
#90 =( NAMED_UNIT ( * ) PLANE_ANGLE_UNIT ( ) SI_UNIT ( $, .RADIAN. ) );
#91 =( NAMED_UNIT ( * ) SI_UNIT ( $, .STERADIAN. ) SOLID_ANGLE_UNIT ( ) );
#92 = CARTESIAN_POINT ( 'NONE',  ( 0.0000000000000000000, 0.0000000000000000000, 0.0000000000000000000 ) ) ;
#93 = DIRECTION ( 'NONE',  ( 0.0000000000000000000, 0.0000000000000000000, 1.000000000000000000 ) ) ;
#94 = DIRECTION ( 'NONE',  ( 1.000000000000000000, 0.0000000000000000000, 0.0000000000000000000 ) ) ;
#95 = APPLICATION_CONTEXT ( 'configuration controlled 3d designs of mechanical parts and assemblies' ) ;
#96 = APPLICATION_PROTOCOL_DEFINITION ( 'international standard', 'config_control_design', 1994, #95 ) ;
#97 = MECHANICAL_CONTEXT ( 'NONE', #95, 'mechanical' ) ;
#98 = PERSON_AND_ORGANIZATION_ROLE ( 'design_owner' ) ;
#99 = APPLICATION_CONTEXT ( 'configuration controlled 3d designs of mechanical parts and assemblies' ) ;
#100 = APPLICATION_PROTOCOL_DEFINITION ( 'international standard', 'config_control_design', 1994, #99 ) ;
#101 = APPROVAL_STATUS ( 'not_yet_approved' ) ;
#102 = APPROVAL_ROLE ( '' ) ;
#103 = PERSON_AND_ORGANIZATION_ROLE ( 'creator' ) ;
#104 = DATE_TIME_ROLE ( 'creation_date' ) ;
#105 = APPROVAL_STATUS ( 'not_yet_approved' ) ;
#106 = APPROVAL_ROLE ( '' ) ;
#107 = PERSON_AND_ORGANIZATION_ROLE ( 'creator' ) ;
#108 = PERSON_AND_ORGANIZATION_ROLE ( 'design_supplier' ) ;
#109 = SECURITY_CLASSIFICATION_LEVEL ( 'unclassified' ) ;
#110 = PERSON_AND_ORGANIZATION_ROLE ( 'classification_officer' ) ;
#111 = DATE_TIME_ROLE ( 'classification_date' ) ;
#112 = APPROVAL_STATUS ( 'not_yet_approved' ) ;
#113 = APPROVAL_ROLE ( '' ) ;
#114 = ADVANCED_FACE ( 'NONE', ( #274, #276 ), #127, .T. ) ;
#115 = VERTEX_POINT ( 'NONE', #4 ) ;
#116 = VERTEX_POINT ( 'NONE', #5 ) ;
#117 = VERTEX_POINT ( 'NONE', #9 ) ;
#118 = VERTEX_POINT ( 'NONE', #133 ) ;
#119 = ADVANCED_BREP_SHAPE_REPRESENTATION ( 'SleeveBearing', ( #120, #211 ), #186 ) ;
#120 = MANIFOLD_SOLID_BREP ( 'Cut-Extrude1', #273 ) ;
#121 = UNCERTAINTY_MEASURE_WITH_UNIT (LENGTH_MEASURE( 1.000000000000000100E-005 ), #82, 'distance_accuracy_value', 'NONE');
#122 = PERSON ( 'UNSPECIFIED', 'UNSPECIFIED', 'UNSPECIFIED', ('UNSPECIFIED'), ('UNSPECIFIED'), ('UNSPECIFIED') ) ;
#123 = PRODUCT ( 'SleeveBearing', 'SleeveBearing', '', ( #97 ) ) ;
#124 = VERTEX_POINT ( 'NONE', #10 ) ;
#125 = CARTESIAN_POINT ( 'NONE',  ( 0.0000000000000000000, 3.000000000000000000, 0.0000000000000000000 ) ) ;
#126 = VERTEX_POINT ( 'NONE', #11 ) ;
#127 = PLANE ( 'NONE',  #198 ) ;
#128 = VERTEX_POINT ( 'NONE', #8 ) ;
#129 = VERTEX_POINT ( 'NONE', #12 ) ;
#130 = CARTESIAN_POINT ( 'NONE',  ( 0.0000000000000000000, 0.0000000000000000000, -11.99999999999999600 ) ) ;
#131 = VERTEX_POINT ( 'NONE', #13 ) ;
#132 = VERTEX_POINT ( 'NONE', #14 ) ;
#133 = CARTESIAN_POINT ( 'NONE',  ( 1.469576158976823600E-015, 3.000000000000000000, 11.99999999999999600 ) ) ;
#134 = DATE_AND_TIME ( #168, #167 ) ;
#135 = APPROVAL_DATE_TIME ( #134, #151 ) ;
#136 = PERSON_AND_ORGANIZATION ( #122, #170 ) ;
#137 = PERSON_AND_ORGANIZATION ( #122, #170 ) ;
#138 = PERSON_AND_ORGANIZATION ( #122, #170 ) ;
#139 = COORDINATED_UNIVERSAL_TIME_OFFSET ( 5, 0, .BEHIND. ) ;
#140 = LOCAL_TIME ( 13, 48, 58.00000000000000000, #139 ) ;
#141 = CALENDAR_DATE ( 2012, 6, 4 ) ;
#142 = DATE_AND_TIME ( #141, #140 ) ;
#143 = PERSON_AND_ORGANIZATION ( #122, #170 ) ;
#144 = EDGE_CURVE ( 'NONE', #124, #128, #327, .T. ) ;
#145 = AXIS2_PLACEMENT_3D ( 'NONE', #59, #58, #57 ) ;
#146 = EDGE_CURVE ( 'NONE', #117, #129, #237, .T. ) ;
#147 = AXIS2_PLACEMENT_3D ( 'NONE', #19, #20, #21 ) ;
#148 = AXIS2_PLACEMENT_3D ( 'NONE', #16, #17, #18 ) ;
#149 = EDGE_CURVE ( 'NONE', #118, #116, #238, .T. ) ;
#150 = EDGE_CURVE ( 'NONE', #128, #124, #239, .T. ) ;
#151 = APPROVAL ( #105, 'UNSPECIFIED' ) ;
#152 = CC_DESIGN_APPROVAL ( #151, ( #185 ) ) ;
#153 = CC_DESIGN_PERSON_AND_ORGANIZATION_ASSIGNMENT ( #136, #107, ( #185 ) ) ;
#154 = CC_DESIGN_PERSON_AND_ORGANIZATION_ASSIGNMENT ( #137, #108, ( #185 ) ) ;
#155 = SECURITY_CLASSIFICATION ( '', '', #109 ) ;
#156 = CC_DESIGN_PERSON_AND_ORGANIZATION_ASSIGNMENT ( #138, #110, ( #155 ) ) ;
#157 = CC_DESIGN_DATE_AND_TIME_ASSIGNMENT ( #142, #111, ( #155 ) ) ;
#158 = APPROVAL ( #112, 'UNSPECIFIED' ) ;
#159 = PERSON_AND_ORGANIZATION ( #122, #170 ) ;
#160 = COORDINATED_UNIVERSAL_TIME_OFFSET ( 5, 0, .BEHIND. ) ;
#161 = LOCAL_TIME ( 13, 48, 58.00000000000000000, #160 ) ;
#162 = CALENDAR_DATE ( 2012, 6, 4 ) ;
#163 = DATE_AND_TIME ( #162, #161 ) ;
#164 = PERSON_AND_ORGANIZATION ( #122, #170 ) ;
#165 = APPROVAL_PERSON_ORGANIZATION ( #164, #151, #106 ) ;
#166 = COORDINATED_UNIVERSAL_TIME_OFFSET ( 5, 0, .BEHIND. ) ;
#167 = LOCAL_TIME ( 13, 48, 58.00000000000000000, #166 ) ;
#168 = CALENDAR_DATE ( 2012, 6, 4 ) ;
#169 = SHAPE_DEFINITION_REPRESENTATION ( #257, #119 ) ;
#170 = ORGANIZATION ( 'UNSPECIFIED', 'UNSPECIFIED', '' ) ;
#171 = PERSON_AND_ORGANIZATION ( #122, #170 ) ;
#172 = PERSON_AND_ORGANIZATION ( #122, #170 ) ;
#173 = APPROVAL_PERSON_ORGANIZATION ( #172, #181, #102 ) ;
#174 = COORDINATED_UNIVERSAL_TIME_OFFSET ( 5, 0, .BEHIND. ) ;
#175 = LOCAL_TIME ( 13, 48, 58.00000000000000000, #174 ) ;
#176 = CALENDAR_DATE ( 2012, 6, 4 ) ;
#177 = DATE_AND_TIME ( #176, #175 ) ;
#178 = APPROVAL_DATE_TIME ( #177, #181 ) ;
#179 = CC_DESIGN_PERSON_AND_ORGANIZATION_ASSIGNMENT ( #171, #98, ( #123 ) ) ;
#180 = PRODUCT_DEFINITION ( 'UNKNOWN', '', #185, #256 ) ;
#181 = APPROVAL ( #101, 'UNSPECIFIED' ) ;
#182 = CC_DESIGN_APPROVAL ( #181, ( #180 ) ) ;
#183 = CC_DESIGN_PERSON_AND_ORGANIZATION_ASSIGNMENT ( #159, #103, ( #180 ) ) ;
#184 = CC_DESIGN_DATE_AND_TIME_ASSIGNMENT ( #163, #104, ( #180 ) ) ;
#185 = PRODUCT_DEFINITION_FORMATION_WITH_SPECIFIED_SOURCE ( 'ANY', '', #123, .NOT_KNOWN. ) ;
#186 =( GEOMETRIC_REPRESENTATION_CONTEXT ( 3 ) GLOBAL_UNCERTAINTY_ASSIGNED_CONTEXT ( ( #121 ) ) GLOBAL_UNIT_ASSIGNED_CONTEXT ( ( #82, #90, #91 ) ) REPRESENTATION_CONTEXT ( 'NONE', 'WORKASPACE' ) );
#187 = CIRCLE ( 'NONE', #236, 11.99999999999999600 ) ;
#188 = CYLINDRICAL_SURFACE ( 'NONE', #230, 9.000000000000000000 ) ;
#189 = FACE_OUTER_BOUND ( 'NONE', #300, .T. ) ;
#190 = CYLINDRICAL_SURFACE ( 'NONE', #213, 6.000000000000000900 ) ;
#191 = FACE_BOUND ( 'NONE', #299, .T. ) ;
#192 = FACE_OUTER_BOUND ( 'NONE', #328, .T. ) ;
#193 = EDGE_CURVE ( 'NONE', #2, #132, #240, .T. ) ;
#194 = EDGE_CURVE ( 'NONE', #129, #117, #242, .T. ) ;
#195 = AXIS2_PLACEMENT_3D ( 'NONE', #25, #26, #27 ) ;
#196 = AXIS2_PLACEMENT_3D ( 'NONE', #28, #29, #30 ) ;
#197 = AXIS2_PLACEMENT_3D ( 'NONE', #56, #53, #52 ) ;
#198 = AXIS2_PLACEMENT_3D ( 'NONE', #125, #6, #7 ) ;
#199 = AXIS2_PLACEMENT_3D ( 'NONE', #31, #32, #33 ) ;
#200 = AXIS2_PLACEMENT_3D ( 'NONE', #22, #23, #24 ) ;
#201 = VECTOR ( 'NONE', #71, 1000.000000000000000 ) ;
#202 = CYLINDRICAL_SURFACE ( 'NONE', #210, 9.000000000000000000 ) ;
#203 = LINE ( 'NONE', #70, #201 ) ;
#204 = FACE_OUTER_BOUND ( 'NONE', #305, .T. ) ;
#205 = FACE_BOUND ( 'NONE', #308, .T. ) ;
#206 = CIRCLE ( 'NONE', #235, 9.000000000000000000 ) ;
#207 = LINE ( 'NONE', #72, #208 ) ;
#208 = VECTOR ( 'NONE', #73, 1000.000000000000000 ) ;
#209 = AXIS2_PLACEMENT_3D ( 'NONE', #49, #60, #63 ) ;
#210 = AXIS2_PLACEMENT_3D ( 'NONE', #65, #64, #62 ) ;
#211 = AXIS2_PLACEMENT_3D ( 'NONE', #92, #93, #94 ) ;
#212 = AXIS2_PLACEMENT_3D ( 'NONE', #75, #80, #81 ) ;
#213 = AXIS2_PLACEMENT_3D ( 'NONE', #74, #79, #67 ) ;
#214 = CYLINDRICAL_SURFACE ( 'NONE', #209, 6.000000000000000900 ) ;
#215 = CIRCLE ( 'NONE', #231, 11.99999999999999600 ) ;
#216 = FACE_OUTER_BOUND ( 'NONE', #301, .T. ) ;
#217 = CIRCLE ( 'NONE', #232, 9.000000000000000000 ) ;
#218 = CIRCLE ( 'NONE', #233, 11.99999999999999600 ) ;
#219 = FACE_OUTER_BOUND ( 'NONE', #304, .T. ) ;
#220 = FACE_OUTER_BOUND ( 'NONE', #307, .T. ) ;
#221 = LINE ( 'NONE', #40, #227 ) ;
#222 = LINE ( 'NONE', #34, #224 ) ;
#223 = CIRCLE ( 'NONE', #229, 9.000000000000000000 ) ;
#224 = VECTOR ( 'NONE', #41, 1000.000000000000000 ) ;
#225 = LINE ( 'NONE', #42, #226 ) ;
#226 = VECTOR ( 'NONE', #43, 1000.000000000000000 ) ;
#227 = VECTOR ( 'NONE', #15, 1000.000000000000000 ) ;
#228 = CYLINDRICAL_SURFACE ( 'NONE', #197, 11.99999999999999600 ) ;
#229 = AXIS2_PLACEMENT_3D ( 'NONE', #37, #38, #39 ) ;
#230 = AXIS2_PLACEMENT_3D ( 'NONE', #85, #88, #89 ) ;
#231 = AXIS2_PLACEMENT_3D ( 'NONE', #45, #47, #48 ) ;
#232 = AXIS2_PLACEMENT_3D ( 'NONE', #44, #50, #51 ) ;
#233 = AXIS2_PLACEMENT_3D ( 'NONE', #46, #54, #55 ) ;
#234 = AXIS2_PLACEMENT_3D ( 'NONE', #83, #86, #87 ) ;
#235 = AXIS2_PLACEMENT_3D ( 'NONE', #66, #68, #69 ) ;
#236 = AXIS2_PLACEMENT_3D ( 'NONE', #61, #76, #77 ) ;
#237 = CIRCLE ( 'NONE', #147, 6.000000000000000900 ) ;
#238 = CIRCLE ( 'NONE', #200, 11.99999999999999600 ) ;
#239 = CIRCLE ( 'NONE', #195, 6.000000000000000900 ) ;
#240 = CIRCLE ( 'NONE', #196, 9.000000000000000000 ) ;
#241 = FACE_OUTER_BOUND ( 'NONE', #303, .T. ) ;
#242 = CIRCLE ( 'NONE', #199, 6.000000000000000900 ) ;
#243 = EDGE_CURVE ( 'NONE', #126, #132, #278, .T. ) ;
#244 = EDGE_CURVE ( 'NONE', #126, #131, #223, .T. ) ;
#245 = EDGE_CURVE ( 'NONE', #131, #2, #222, .T. ) ;
#246 = EDGE_CURVE ( 'NONE', #116, #1, #225, .T. ) ;
#247 = EDGE_CURVE ( 'NONE', #118, #115, #221, .T. ) ;
#248 = EDGE_CURVE ( 'NONE', #1, #115, #215, .T. ) ;
#249 = EDGE_CURVE ( 'NONE', #131, #126, #217, .T. ) ;
#250 = EDGE_CURVE ( 'NONE', #116, #118, #218, .T. ) ;
#251 = DATE_AND_TIME ( #293, #292 ) ;
#252 = APPROVAL_DATE_TIME ( #251, #158 ) ;
#253 = CC_DESIGN_APPROVAL ( #158, ( #155 ) ) ;
#254 = CC_DESIGN_SECURITY_CLASSIFICATION ( #155, ( #185 ) ) ;
#255 = PRODUCT_RELATED_PRODUCT_CATEGORY ( 'detail', '', ( #123 ) ) ;
#256 = DESIGN_CONTEXT ( 'detailed design', #99, 'design' ) ;
#257 = PRODUCT_DEFINITION_SHAPE ( 'NONE', 'NONE',  #180 ) ;
#258 = ADVANCED_FACE ( 'NONE', ( #275 ), #228, .T. ) ;
#259 = ADVANCED_FACE ( 'NONE', ( #216 ), #277, .T. ) ;
#260 = ORIENTED_EDGE ( 'NONE', *, *, #144, .T. ) ;
#261 = ORIENTED_EDGE ( 'NONE', *, *, #244, .T. ) ;
#262 = ORIENTED_EDGE ( 'NONE', *, *, #280, .F. ) ;
#263 = ORIENTED_EDGE ( 'NONE', *, *, #150, .F. ) ;
#264 = ORIENTED_EDGE ( 'NONE', *, *, #144, .F. ) ;
#265 = ORIENTED_EDGE ( 'NONE', *, *, #279, .T. ) ;
#266 = ORIENTED_EDGE ( 'NONE', *, *, #249, .T. ) ;
#267 = ORIENTED_EDGE ( 'NONE', *, *, #194, .F. ) ;
#268 = ADVANCED_FACE ( 'NONE', ( #220 ), #214, .F. ) ;
#269 = ADVANCED_FACE ( 'NONE', ( #241 ), #202, .T. ) ;
#270 = EDGE_CURVE ( 'NONE', #132, #2, #206, .T. ) ;
#271 = EDGE_LOOP ( 'NONE', ( #312, #311 ) ) ;
#272 = VECTOR ( 'NONE', #36, 1000.000000000000000 ) ;
#273 = CLOSED_SHELL ( 'NONE', ( #268, #329, #258, #114, #259, #282, #269, #284, #283 ) ) ;
#274 = FACE_OUTER_BOUND ( 'NONE', #306, .T. ) ;
#275 = FACE_OUTER_BOUND ( 'NONE', #302, .T. ) ;
#276 = FACE_BOUND ( 'NONE', #271, .T. ) ;
#277 = CYLINDRICAL_SURFACE ( 'NONE', #145, 11.99999999999999600 ) ;
#278 = LINE ( 'NONE', #35, #272 ) ;
#279 = EDGE_CURVE ( 'NONE', #129, #124, #203, .T. ) ;
#280 = EDGE_CURVE ( 'NONE', #117, #128, #207, .T. ) ;
#281 = EDGE_CURVE ( 'NONE', #115, #1, #187, .T. ) ;
#282 = ADVANCED_FACE ( 'NONE', ( #205, #219 ), #78, .F. ) ;
#283 = ADVANCED_FACE ( 'NONE', ( #189 ), #190, .F. ) ;
#284 = ADVANCED_FACE ( 'NONE', ( #191, #192 ), #84, .T. ) ;
#285 = ORIENTED_EDGE ( 'NONE', *, *, #281, .F. ) ;
#286 = ORIENTED_EDGE ( 'NONE', *, *, #243, .F. ) ;
#287 = ORIENTED_EDGE ( 'NONE', *, *, #245, .T. ) ;
#288 = ORIENTED_EDGE ( 'NONE', *, *, #193, .T. ) ;
#289 = ORIENTED_EDGE ( 'NONE', *, *, #249, .F. ) ;
#290 = APPROVAL_PERSON_ORGANIZATION ( #143, #158, #113 ) ;
#291 = COORDINATED_UNIVERSAL_TIME_OFFSET ( 5, 0, .BEHIND. ) ;
#292 = LOCAL_TIME ( 13, 48, 58.00000000000000000, #291 ) ;
#293 = CALENDAR_DATE ( 2012, 6, 4 ) ;
#294 = ORIENTED_EDGE ( 'NONE', *, *, #248, .T. ) ;
#295 = ORIENTED_EDGE ( 'NONE', *, *, #248, .F. ) ;
#296 = ORIENTED_EDGE ( 'NONE', *, *, #246, .T. ) ;
#297 = ORIENTED_EDGE ( 'NONE', *, *, #146, .T. ) ;
#298 = ORIENTED_EDGE ( 'NONE', *, *, #194, .T. ) ;
#299 = EDGE_LOOP ( 'NONE', ( #264, #263 ) ) ;
#300 = EDGE_LOOP ( 'NONE', ( #262, #267, #265, #260 ) ) ;
#301 = EDGE_LOOP ( 'NONE', ( #310, #309, #296, #294 ) ) ;
#302 = EDGE_LOOP ( 'NONE', ( #318, #317, #316, #315 ) ) ;
#303 = EDGE_LOOP ( 'NONE', ( #286, #289, #287, #288 ) ) ;
#304 = EDGE_LOOP ( 'NONE', ( #295, #285 ) ) ;
#305 = EDGE_LOOP ( 'NONE', ( #326, #321, #320, #319 ) ) ;
#306 = EDGE_LOOP ( 'NONE', ( #314, #313 ) ) ;
#307 = EDGE_LOOP ( 'NONE', ( #322, #325, #323, #324 ) ) ;
#308 = EDGE_LOOP ( 'NONE', ( #298, #297 ) ) ;
#309 = ORIENTED_EDGE ( 'NONE', *, *, #250, .F. ) ;
#310 = ORIENTED_EDGE ( 'NONE', *, *, #247, .F. ) ;
#311 = ORIENTED_EDGE ( 'NONE', *, *, #270, .F. ) ;
#312 = ORIENTED_EDGE ( 'NONE', *, *, #193, .F. ) ;
#313 = ORIENTED_EDGE ( 'NONE', *, *, #149, .T. ) ;
#314 = ORIENTED_EDGE ( 'NONE', *, *, #250, .T. ) ;
#315 = ORIENTED_EDGE ( 'NONE', *, *, #246, .F. ) ;
#316 = ORIENTED_EDGE ( 'NONE', *, *, #281, .T. ) ;
#317 = ORIENTED_EDGE ( 'NONE', *, *, #247, .T. ) ;
#318 = ORIENTED_EDGE ( 'NONE', *, *, #149, .F. ) ;
#319 = ORIENTED_EDGE ( 'NONE', *, *, #245, .F. ) ;
#320 = ORIENTED_EDGE ( 'NONE', *, *, #270, .T. ) ;
#321 = ORIENTED_EDGE ( 'NONE', *, *, #243, .T. ) ;
#322 = ORIENTED_EDGE ( 'NONE', *, *, #146, .F. ) ;
#323 = ORIENTED_EDGE ( 'NONE', *, *, #150, .T. ) ;
#324 = ORIENTED_EDGE ( 'NONE', *, *, #279, .F. ) ;
#325 = ORIENTED_EDGE ( 'NONE', *, *, #280, .T. ) ;
#326 = ORIENTED_EDGE ( 'NONE', *, *, #244, .F. ) ;
#327 = CIRCLE ( 'NONE', #148, 6.000000000000000900 ) ;
#328 = EDGE_LOOP ( 'NONE', ( #266, #261 ) ) ;
#329 = ADVANCED_FACE ( 'NONE', ( #204 ), #188, .T. ) ;
ENDSEC;
END-ISO-10303-21;
