  0
SECTION
  2
HEADER
  9
$ACADVER
  1
AC1009
  9
$INSBASE
 10
0.0
 20
0.0
 30
0.0
  9
$EXTMIN
 10
0.0
 20
0.0
 30
0.0
  9
$EXTMAX
 10
0.0
 20
0.0
 30
0.0
  0
ENDSEC
  0
SECTION
  2
TABLES
  0
TABLE
  2
VPORT
 70
0
  0
ENDTAB
  0
TABLE
  2
LTYPE
 70
1
  0
LTYPE
  2
CONTINUOUS
 70
0
  3
Solid line
 72
65
 73
0
 40
0.0
  0
ENDTAB
  0
TABLE
  2
LAYER
 70
1
  0
LAYER
  2
0
 70
64
 62
7
  6
continuous
  0
ENDTAB
  0
TABLE
  2
STYLE
 70
1
  0
STYLE
  2
STANDARD
 70
0
 40
0
 41
1.0
 50
0.0
 71
0
 42
1
 3
ARIAL.TTF
 4

  0
ENDTAB
  0
TABLE
  2
VIEW
 70
0
  0
ENDTAB
  0
ENDSEC
  0
SECTION
  2
BLOCKS
  0
BLOCK
  8
0
  2
PAD
 70
0
 10
0.0
 20
0.0
 30
0.0
  3
PAD
  0
LINE
  8
0
 62
0
 10
-323.92738
 20
491.187534
 30
0.0
 11
-323.928111726
 21
627.715582
 31
0.0
  0
LINE
  8
0
 62
0
 10
-323.928111726
 20
627.715582
 30
0.0
 11
-400.867076726
 21
757.850010381
 31
0.0
  0
LINE
  8
0
 62
0
 10
-400.867076726
 20
757.850010381
 30
0.0
 11
-352.801402726
 21
757.850010381
 31
0.0
  0
LINE
  8
0
 62
0
 10
-352.801402726
 20
757.850010381
 30
0.0
 11
-352.801402726
 21
754.713291381
 31
0.0
  0
LINE
  8
0
 62
0
 10
-352.801402726
 20
754.713291381
 30
0.0
 11
-301.979730358
 21
754.713291381
 31
0.0
  0
LINE
  8
0
 62
0
 10
-301.979730358
 20
754.713291381
 30
0.0
 11
-301.979730358
 21
770.591709381
 31
0.0
  0
LINE
  8
0
 62
0
 10
-301.979730358
 20
770.591709381
 30
0.0
 11
-33.462430094
 21
770.591709381
 31
0.0
  0
LINE
  8
0
 62
0
 10
-33.462430094
 20
770.591709381
 30
0.0
 11
-33.462430094
 21
754.715366381
 31
0.0
  0
LINE
  8
0
 62
0
 10
-33.462430094
 20
754.715366381
 30
0.0
 11
-27.0614127258
 21
754.695835381
 31
0.0
  0
LINE
  8
0
 62
0
 10
-27.0614127258
 20
754.695835381
 30
0.0
 11
-27.0614127258
 21
757.884678381
 31
0.0
  0
LINE
  8
0
 62
0
 10
-27.0614127258
 20
757.884678381
 30
0.0
 11
14.2115362742
 21
757.884678381
 31
0.0
  0
LINE
  8
0
 62
0
 10
14.2115362742
 20
757.884678381
 30
0.0
 11
14.2115362742
 21
754.712437381
 31
0.0
  0
LINE
  8
0
 62
0
 10
14.2115362742
 20
754.712437381
 30
0.0
 11
20.4875883787
 21
754.712437381
 31
0.0
  0
LINE
  8
0
 62
0
 10
20.4875883787
 20
754.712437381
 30
0.0
 11
20.4875883787
 21
770.553623381
 31
0.0
  0
LINE
  8
0
 62
0
 10
20.4875883787
 20
770.553623381
 30
0.0
 11
289.004888642
 21
770.553623381
 31
0.0
  0
LINE
  8
0
 62
0
 10
289.004888642
 20
770.553623381
 30
0.0
 11
289.004888642
 21
754.697910381
 31
0.0
  0
LINE
  8
0
 62
0
 10
289.004888642
 20
754.697910381
 30
0.0
 11
339.964222274
 21
754.697910381
 31
0.0
  0
LINE
  8
0
 62
0
 10
339.964222274
 20
754.697910381
 30
0.0
 11
339.964222274
 21
757.901768381
 31
0.0
  0
LINE
  8
0
 62
0
 10
339.964222274
 20
757.901768381
 30
0.0
 11
387.854603274
 21
757.901768381
 31
0.0
  0
LINE
  8
0
 62
0
 10
387.854603274
 20
757.901768381
 30
0.0
 11
311.07262
 21
627.719151381
 31
0.0
  0
LINE
  8
0
 62
0
 10
311.07262
 20
627.719151381
 30
0.0
 11
311.07262
 21
491.197300381
 31
0.0
  0
LINE
  8
0
 62
0
 10
311.07262
 20
491.197300381
 30
0.0
 11
-323.92738
 21
491.187534
 31
0.0
  0
CIRCLE
  8
0
 62
0
 10
209.47262
 20
719.787534
 30
0.0
 40
12.7
  0
CIRCLE
  8
0
 62
0
 10
209.47262
 20
643.587534
 30
0.0
 40
12.7
  0
CIRCLE
  8
0
 62
0
 10
209.47262
 20
542.589984
 30
0.0
 40
12.7
  0
CIRCLE
  8
0
 62
0
 10
-222.327379726
 20
719.787534381
 30
0.0
 40
12.7
  0
CIRCLE
  8
0
 62
0
 10
-222.327379726
 20
643.587534381
 30
0.0
 40
12.7
  0
CIRCLE
  8
0
 62
0
 10
-222.327379726
 20
541.987534381
 30
0.0
 40
12.7
  0
LINE
  8
0
 62
0
 10
154.960208
 20
689.569507
 30
0.0
 11
183.642598
 21
689.569507
 31
0.0
  0
LINE
  8
0
 62
0
 10
183.642598
 20
689.569507
 30
0.0
 11
183.642598
 21
673.685291
 31
0.0
  0
LINE
  8
0
 62
0
 10
183.642598
 20
673.685291
 30
0.0
 11
154.960208
 21
673.685291
 31
0.0
  0
LINE
  8
0
 62
0
 10
154.960208
 20
673.685291
 30
0.0
 11
154.960208
 21
689.569507
 31
0.0
  0
LINE
  8
0
 62
0
 10
-183.897919612
 20
689.557177734
 30
0.0
 11
-155.321745823
 21
689.557177734
 31
0.0
  0
LINE
  8
0
 62
0
 10
-155.321745823
 20
689.557177734
 30
0.0
 11
-155.321745823
 21
673.682666016
 31
0.0
  0
LINE
  8
0
 62
0
 10
-155.321745823
 20
673.682666016
 30
0.0
 11
-183.897919612
 21
673.682666016
 31
0.0
  0
LINE
  8
0
 62
0
 10
-183.897919612
 20
673.682666016
 30
0.0
 11
-183.897919612
 21
689.557177734
 31
0.0
  0
ENDBLK
  0
ENDSEC
  0
SECTION
  2
ENTITIES
  0
INSERT
  2
PAD
  8
0
 62
0
 10
0.0
 20
0.0
 30
0.0
  0
ENDSEC
  0
EOF
