ISO-10303-21;
HEADER;
FILE_DESCRIPTION (( 'STEP AP203' ),
    '1' );
FILE_NAME ('Blade.STEP',
    '2012-05-23T22:35:24',
    ( '' ),
    ( '' ),
    'SwSTEP 2.0',
    'SolidWorks 2010',
    '' );
FILE_SCHEMA (( 'CONFIG_CONTROL_DESIGN' ));
ENDSEC;

DATA;
#1 = PRODUCT_RELATED_PRODUCT_CATEGORY ( 'detail', '', ( #246 ) ) ;
#2 = CC_DESIGN_SECURITY_CLASSIFICATION ( #143, ( #138 ) ) ;
#3 = CARTESIAN_POINT ( 'NONE',  ( 177.8000000000000400, 2.177422008883994600E-014, 3.000000000000000000 ) ) ;
#4 = CARTESIAN_POINT ( 'NONE',  ( 15.89999999999999700, 1.947188410644291400E-015, 0.0000000000000000000 ) ) ;
#5 = DIRECTION ( 'NONE',  ( 1.000000000000000000, 0.0000000000000000000, 0.0000000000000000000 ) ) ;
#6 = PLANE ( 'NONE',  #115 ) ;
#7 = DIRECTION ( 'NONE',  ( -0.0000000000000000000, -0.0000000000000000000, -1.000000000000000000 ) ) ;
#8 = CARTESIAN_POINT ( 'NONE',  ( -177.8000000000000400, 0.0000000000000000000, 3.000000000000000000 ) ) ;
#9 = VERTEX_POINT ( 'NONE', #29 ) ;
#10 = CARTESIAN_POINT ( 'NONE',  ( 177.8000000000000400, 2.177422008883994600E-014, 0.0000000000000000000 ) ) ;
#11 = VERTEX_POINT ( 'NONE', #4 ) ;
#12 = CARTESIAN_POINT ( 'NONE',  ( -177.8000000000000400, 0.0000000000000000000, 3.000000000000000000 ) ) ;
#13 = DIRECTION ( 'NONE',  ( 0.0000000000000000000, 0.0000000000000000000, 1.000000000000000000 ) ) ;
#14 = DIRECTION ( 'NONE',  ( 0.0000000000000000000, 0.0000000000000000000, 1.000000000000000000 ) ) ;
#15 = CARTESIAN_POINT ( 'NONE',  ( -15.89999999999999700, 0.0000000000000000000, 0.0000000000000000000 ) ) ;
#16 = CARTESIAN_POINT ( 'NONE',  ( 0.0000000000000000000, 0.0000000000000000000, 0.0000000000000000000 ) ) ;
#17 = CARTESIAN_POINT ( 'NONE',  ( -15.89999999999999700, 0.0000000000000000000, 3.000000000000000000 ) ) ;
#18 = DIRECTION ( 'NONE',  ( -1.000000000000000000, 0.0000000000000000000, 0.0000000000000000000 ) ) ;
#19 = VERTEX_POINT ( 'NONE', #15 ) ;
#20 = DIRECTION ( 'NONE',  ( 0.0000000000000000000, 0.0000000000000000000, 1.000000000000000000 ) ) ;
#21 = CARTESIAN_POINT ( 'NONE',  ( 0.0000000000000000000, 0.0000000000000000000, 3.000000000000000000 ) ) ;
#22 = DIRECTION ( 'NONE',  ( -0.0000000000000000000, -0.0000000000000000000, -1.000000000000000000 ) ) ;
#23 = CARTESIAN_POINT ( 'NONE',  ( 0.0000000000000000000, 0.0000000000000000000, 3.000000000000000000 ) ) ;
#24 = DIRECTION ( 'NONE',  ( 0.0000000000000000000, 0.0000000000000000000, 1.000000000000000000 ) ) ;
#25 = CARTESIAN_POINT ( 'NONE',  ( 0.0000000000000000000, 0.0000000000000000000, 0.0000000000000000000 ) ) ;
#26 = CARTESIAN_POINT ( 'NONE',  ( -177.8000000000000400, 0.0000000000000000000, 0.0000000000000000000 ) ) ;
#27 = VERTEX_POINT ( 'NONE', #10 ) ;
#28 = DIRECTION ( 'NONE',  ( -1.000000000000000000, 0.0000000000000000000, 0.0000000000000000000 ) ) ;
#29 = CARTESIAN_POINT ( 'NONE',  ( 177.8000000000000400, 2.177422008883994600E-014, 3.000000000000000000 ) ) ;
#30 = DIRECTION ( 'NONE',  ( 1.000000000000000000, 0.0000000000000000000, 0.0000000000000000000 ) ) ;
#31 = VERTEX_POINT ( 'NONE', #26 ) ;
#32 = DIRECTION ( 'NONE',  ( 1.000000000000000000, 0.0000000000000000000, 0.0000000000000000000 ) ) ;
#33 = CARTESIAN_POINT ( 'NONE',  ( 0.0000000000000000000, 0.0000000000000000000, 3.000000000000000000 ) ) ;
#34 = DIRECTION ( 'NONE',  ( 1.000000000000000000, 0.0000000000000000000, 0.0000000000000000000 ) ) ;
#35 = DIRECTION ( 'NONE',  ( -0.0000000000000000000, -0.0000000000000000000, -1.000000000000000000 ) ) ;
#36 = CARTESIAN_POINT ( 'NONE',  ( 0.0000000000000000000, 0.0000000000000000000, 0.0000000000000000000 ) ) ;
#37 = DIRECTION ( 'NONE',  ( 1.000000000000000000, 0.0000000000000000000, 0.0000000000000000000 ) ) ;
#38 = CARTESIAN_POINT ( 'NONE',  ( 15.89999999999999700, 1.947188410644291400E-015, 3.000000000000000000 ) ) ;
#39 = DIRECTION ( 'NONE',  ( 0.0000000000000000000, 0.0000000000000000000, 1.000000000000000000 ) ) ;
#40 = CARTESIAN_POINT ( 'NONE',  ( 0.0000000000000000000, 0.0000000000000000000, 3.000000000000000000 ) ) ;
#41 = CARTESIAN_POINT ( 'NONE',  ( 0.0000000000000000000, 0.0000000000000000000, 3.000000000000000000 ) ) ;
#42 = CARTESIAN_POINT ( 'NONE',  ( 15.89999999999999700, 1.947188410644291400E-015, 3.000000000000000000 ) ) ;
#43 = DIRECTION ( 'NONE',  ( 0.0000000000000000000, 0.0000000000000000000, 1.000000000000000000 ) ) ;
#44 = CARTESIAN_POINT ( 'NONE',  ( 0.0000000000000000000, 0.0000000000000000000, 3.000000000000000000 ) ) ;
#45 = CARTESIAN_POINT ( 'NONE',  ( 0.0000000000000000000, 0.0000000000000000000, 3.000000000000000000 ) ) ;
#46 = CARTESIAN_POINT ( 'NONE',  ( 0.0000000000000000000, 0.0000000000000000000, 0.0000000000000000000 ) ) ;
#47 = VERTEX_POINT ( 'NONE', #12 ) ;
#48 =( LENGTH_UNIT ( ) NAMED_UNIT ( * ) SI_UNIT ( .MILLI., .METRE. ) );
#49 = CARTESIAN_POINT ( 'NONE',  ( 0.0000000000000000000, 0.0000000000000000000, 3.000000000000000000 ) ) ;
#50 = DIRECTION ( 'NONE',  ( -0.0000000000000000000, -0.0000000000000000000, -1.000000000000000000 ) ) ;
#51 = DIRECTION ( 'NONE',  ( 1.000000000000000000, 0.0000000000000000000, 0.0000000000000000000 ) ) ;
#52 = VERTEX_POINT ( 'NONE', #17 ) ;
#53 = CARTESIAN_POINT ( 'NONE',  ( 0.0000000000000000000, 0.0000000000000000000, 0.0000000000000000000 ) ) ;
#54 = DIRECTION ( 'NONE',  ( 0.0000000000000000000, 0.0000000000000000000, 1.000000000000000000 ) ) ;
#55 = VERTEX_POINT ( 'NONE', #42 ) ;
#56 = DIRECTION ( 'NONE',  ( -0.0000000000000000000, -0.0000000000000000000, -1.000000000000000000 ) ) ;
#57 = CARTESIAN_POINT ( 'NONE',  ( 0.0000000000000000000, 0.0000000000000000000, 3.000000000000000000 ) ) ;
#58 = DIRECTION ( 'NONE',  ( -0.0000000000000000000, -0.0000000000000000000, -1.000000000000000000 ) ) ;
#59 = CARTESIAN_POINT ( 'NONE',  ( -15.89999999999999700, 0.0000000000000000000, 3.000000000000000000 ) ) ;
#60 = DIRECTION ( 'NONE',  ( 0.0000000000000000000, 0.0000000000000000000, 1.000000000000000000 ) ) ;
#61 = DIRECTION ( 'NONE',  ( -0.0000000000000000000, -0.0000000000000000000, -1.000000000000000000 ) ) ;
#62 = DIRECTION ( 'NONE',  ( -1.000000000000000000, 0.0000000000000000000, 0.0000000000000000000 ) ) ;
#63 = DIRECTION ( 'NONE',  ( -0.0000000000000000000, -0.0000000000000000000, -1.000000000000000000 ) ) ;
#64 = DIRECTION ( 'NONE',  ( 0.0000000000000000000, 0.0000000000000000000, 1.000000000000000000 ) ) ;
#65 = DIRECTION ( 'NONE',  ( 1.000000000000000000, 0.0000000000000000000, 0.0000000000000000000 ) ) ;
#66 = DIRECTION ( 'NONE',  ( 1.000000000000000000, 0.0000000000000000000, -0.0000000000000000000 ) ) ;
#67 = PLANE ( 'NONE',  #121 ) ;
#68 = DIRECTION ( 'NONE',  ( -1.000000000000000000, 0.0000000000000000000, 0.0000000000000000000 ) ) ;
#69 = DIRECTION ( 'NONE',  ( 1.000000000000000000, 0.0000000000000000000, -0.0000000000000000000 ) ) ;
#70 = DIRECTION ( 'NONE',  ( 1.000000000000000000, 0.0000000000000000000, 0.0000000000000000000 ) ) ;
#71 = APPROVAL_ROLE ( '' ) ;
#72 = APPLICATION_PROTOCOL_DEFINITION ( 'international standard', 'config_control_design', 1994, #75 ) ;
#73 = PERSON_AND_ORGANIZATION_ROLE ( 'classification_officer' ) ;
#74 =( NAMED_UNIT ( * ) PLANE_ANGLE_UNIT ( ) SI_UNIT ( $, .RADIAN. ) );
#75 = APPLICATION_CONTEXT ( 'configuration controlled 3d designs of mechanical parts and assemblies' ) ;
#76 = DATE_TIME_ROLE ( 'classification_date' ) ;
#77 = PERSON_AND_ORGANIZATION_ROLE ( 'creator' ) ;
#78 = DIRECTION ( 'NONE',  ( 0.0000000000000000000, 0.0000000000000000000, 1.000000000000000000 ) ) ;
#79 = PERSON_AND_ORGANIZATION_ROLE ( 'design_owner' ) ;
#80 = PERSON_AND_ORGANIZATION_ROLE ( 'creator' ) ;
#81 =( NAMED_UNIT ( * ) SI_UNIT ( $, .STERADIAN. ) SOLID_ANGLE_UNIT ( ) );
#82 = APPROVAL_ROLE ( '' ) ;
#83 = APPROVAL_ROLE ( '' ) ;
#84 = SECURITY_CLASSIFICATION_LEVEL ( 'unclassified' ) ;
#85 = APPROVAL_STATUS ( 'not_yet_approved' ) ;
#86 = MECHANICAL_CONTEXT ( 'NONE', #75, 'mechanical' ) ;
#87 = APPROVAL_STATUS ( 'not_yet_approved' ) ;
#88 = APPLICATION_PROTOCOL_DEFINITION ( 'international standard', 'config_control_design', 1994, #92 ) ;
#89 = DATE_TIME_ROLE ( 'creation_date' ) ;
#90 = DIRECTION ( 'NONE',  ( 0.0000000000000000000, 0.0000000000000000000, 1.000000000000000000 ) ) ;
#91 = CARTESIAN_POINT ( 'NONE',  ( 0.0000000000000000000, 0.0000000000000000000, 0.0000000000000000000 ) ) ;
#92 = APPLICATION_CONTEXT ( 'configuration controlled 3d designs of mechanical parts and assemblies' ) ;
#93 = APPROVAL_STATUS ( 'not_yet_approved' ) ;
#94 = DIRECTION ( 'NONE',  ( 1.000000000000000000, 0.0000000000000000000, 0.0000000000000000000 ) ) ;
#95 = PERSON_AND_ORGANIZATION_ROLE ( 'design_supplier' ) ;
#96 = ADVANCED_FACE ( 'NONE', ( #237 ), #243, .T. ) ;
#97 = ADVANCED_FACE ( 'NONE', ( #244 ), #234, .F. ) ;
#98 = ADVANCED_FACE ( 'NONE', ( #170, #240 ), #67, .T. ) ;
#99 = APPROVAL_DATE_TIME ( #205, #146 ) ;
#100 = DESIGN_CONTEXT ( 'detailed design', #92, 'design' ) ;
#101 = PRODUCT_DEFINITION_SHAPE ( 'NONE', 'NONE',  #133 ) ;
#102 = ADVANCED_FACE ( 'NONE', ( #236, #169 ), #6, .F. ) ;
#103 = ADVANCED_FACE ( 'NONE', ( #172 ), #225, .F. ) ;
#104 = ADVANCED_FACE ( 'NONE', ( #242 ), #175, .T. ) ;
#105 = AXIS2_PLACEMENT_3D ( 'NONE', #44, #13, #32 ) ;
#106 = EDGE_CURVE ( 'NONE', #55, #11, #176, .T. ) ;
#107 = EDGE_CURVE ( 'NONE', #52, #55, #178, .T. ) ;
#108 = EDGE_CURVE ( 'NONE', #52, #19, #196, .T. ) ;
#109 = EDGE_CURVE ( 'NONE', #31, #27, #179, .T. ) ;
#110 = EDGE_CURVE ( 'NONE', #55, #52, #180, .T. ) ;
#111 = EDGE_CURVE ( 'NONE', #19, #11, #181, .T. ) ;
#112 = EDGE_CURVE ( 'NONE', #9, #47, #182, .T. ) ;
#113 = AXIS2_PLACEMENT_3D ( 'NONE', #21, #35, #18 ) ;
#114 = EDGE_CURVE ( 'NONE', #11, #19, #183, .T. ) ;
#115 = AXIS2_PLACEMENT_3D ( 'NONE', #46, #24, #69 ) ;
#116 = EDGE_CURVE ( 'NONE', #27, #31, #187, .T. ) ;
#117 = EDGE_CURVE ( 'NONE', #47, #31, #185, .T. ) ;
#118 = AXIS2_PLACEMENT_3D ( 'NONE', #49, #39, #30 ) ;
#119 = EDGE_CURVE ( 'NONE', #9, #27, #186, .T. ) ;
#120 = EDGE_CURVE ( 'NONE', #47, #9, #189, .T. ) ;
#121 = AXIS2_PLACEMENT_3D ( 'NONE', #45, #54, #66 ) ;
#122 = AXIS2_PLACEMENT_3D ( 'NONE', #33, #58, #62 ) ;
#123 = AXIS2_PLACEMENT_3D ( 'NONE', #57, #20, #5 ) ;
#124 = AXIS2_PLACEMENT_3D ( 'NONE', #25, #60, #34 ) ;
#125 = AXIS2_PLACEMENT_3D ( 'NONE', #23, #61, #28 ) ;
#126 = AXIS2_PLACEMENT_3D ( 'NONE', #41, #56, #68 ) ;
#127 = AXIS2_PLACEMENT_3D ( 'NONE', #36, #64, #51 ) ;
#128 = AXIS2_PLACEMENT_3D ( 'NONE', #53, #14, #65 ) ;
#129 = AXIS2_PLACEMENT_3D ( 'NONE', #40, #90, #70 ) ;
#130 = AXIS2_PLACEMENT_3D ( 'NONE', #16, #43, #37 ) ;
#131 = AXIS2_PLACEMENT_3D ( 'NONE', #91, #78, #94 ) ;
#132 = CC_DESIGN_PERSON_AND_ORGANIZATION_ASSIGNMENT ( #220, #79, ( #246 ) ) ;
#133 = PRODUCT_DEFINITION ( 'UNKNOWN', '', #138, #100 ) ;
#134 = APPROVAL ( #85, 'UNSPECIFIED' ) ;
#135 = CC_DESIGN_APPROVAL ( #134, ( #133 ) ) ;
#136 = CC_DESIGN_PERSON_AND_ORGANIZATION_ASSIGNMENT ( #213, #77, ( #133 ) ) ;
#137 = CC_DESIGN_DATE_AND_TIME_ASSIGNMENT ( #208, #89, ( #133 ) ) ;
#138 = PRODUCT_DEFINITION_FORMATION_WITH_SPECIFIED_SOURCE ( 'ANY', '', #246, .NOT_KNOWN. ) ;
#139 = APPROVAL ( #87, 'UNSPECIFIED' ) ;
#140 = CC_DESIGN_APPROVAL ( #139, ( #138 ) ) ;
#141 = CC_DESIGN_PERSON_AND_ORGANIZATION_ASSIGNMENT ( #238, #80, ( #138 ) ) ;
#142 = CC_DESIGN_PERSON_AND_ORGANIZATION_ASSIGNMENT ( #224, #95, ( #138 ) ) ;
#143 = SECURITY_CLASSIFICATION ( '', '', #84 ) ;
#144 = CC_DESIGN_PERSON_AND_ORGANIZATION_ASSIGNMENT ( #193, #73, ( #143 ) ) ;
#145 = CC_DESIGN_DATE_AND_TIME_ASSIGNMENT ( #190, #76, ( #143 ) ) ;
#146 = APPROVAL ( #93, 'UNSPECIFIED' ) ;
#147 = CC_DESIGN_APPROVAL ( #146, ( #143 ) ) ;
#148 = ORIENTED_EDGE ( 'NONE', *, *, #112, .T. ) ;
#149 = ORIENTED_EDGE ( 'NONE', *, *, #114, .T. ) ;
#150 = ORIENTED_EDGE ( 'NONE', *, *, #107, .F. ) ;
#151 = ORIENTED_EDGE ( 'NONE', *, *, #111, .T. ) ;
#152 = EDGE_LOOP ( 'NONE', ( #167, #192, #241, #229 ) ) ;
#153 = ORIENTED_EDGE ( 'NONE', *, *, #106, .T. ) ;
#154 = ORIENTED_EDGE ( 'NONE', *, *, #120, .T. ) ;
#155 = ORIENTED_EDGE ( 'NONE', *, *, #119, .T. ) ;
#156 = ORIENTED_EDGE ( 'NONE', *, *, #107, .T. ) ;
#157 = EDGE_LOOP ( 'NONE', ( #156, #153, #204, #239 ) ) ;
#158 = EDGE_LOOP ( 'NONE', ( #226, #202, #191, #203 ) ) ;
#159 = ORIENTED_EDGE ( 'NONE', *, *, #117, .F. ) ;
#160 = ORIENTED_EDGE ( 'NONE', *, *, #109, .F. ) ;
#161 = EDGE_LOOP ( 'NONE', ( #151, #149 ) ) ;
#162 = ORIENTED_EDGE ( 'NONE', *, *, #110, .F. ) ;
#163 = EDGE_LOOP ( 'NONE', ( #154, #148 ) ) ;
#164 = ORIENTED_EDGE ( 'NONE', *, *, #116, .F. ) ;
#165 = EDGE_LOOP ( 'NONE', ( #150, #162 ) ) ;
#166 = EDGE_LOOP ( 'NONE', ( #227, #155, #228, #159 ) ) ;
#167 = ORIENTED_EDGE ( 'NONE', *, *, #119, .F. ) ;
#168 = EDGE_LOOP ( 'NONE', ( #160, #164 ) ) ;
#169 = FACE_BOUND ( 'NONE', #161, .T. ) ;
#170 = FACE_OUTER_BOUND ( 'NONE', #163, .T. ) ;
#171 = VECTOR ( 'NONE', #22, 1000.000000000000000 ) ;
#172 = FACE_OUTER_BOUND ( 'NONE', #157, .T. ) ;
#173 = COORDINATED_UNIVERSAL_TIME_OFFSET ( 6, 0, .BEHIND. ) ;
#174 = VECTOR ( 'NONE', #63, 1000.000000000000000 ) ;
#175 = CYLINDRICAL_SURFACE ( 'NONE', #126, 177.8000000000000400 ) ;
#176 = LINE ( 'NONE', #38, #177 ) ;
#177 = VECTOR ( 'NONE', #50, 1000.000000000000000 ) ;
#178 = CIRCLE ( 'NONE', #123, 15.89999999999999700 ) ;
#179 = CIRCLE ( 'NONE', #124, 177.8000000000000400 ) ;
#180 = CIRCLE ( 'NONE', #105, 15.89999999999999700 ) ;
#181 = CIRCLE ( 'NONE', #127, 15.89999999999999700 ) ;
#182 = CIRCLE ( 'NONE', #118, 177.8000000000000400 ) ;
#183 = CIRCLE ( 'NONE', #128, 15.89999999999999700 ) ;
#184 = APPROVAL_DATE_TIME ( #230, #139 ) ;
#185 = LINE ( 'NONE', #8, #174 ) ;
#186 = LINE ( 'NONE', #3, #188 ) ;
#187 = CIRCLE ( 'NONE', #130, 177.8000000000000400 ) ;
#188 = VECTOR ( 'NONE', #7, 1000.000000000000000 ) ;
#189 = CIRCLE ( 'NONE', #129, 177.8000000000000400 ) ;
#190 = DATE_AND_TIME ( #194, #195 ) ;
#191 = ORIENTED_EDGE ( 'NONE', *, *, #108, .T. ) ;
#192 = ORIENTED_EDGE ( 'NONE', *, *, #120, .F. ) ;
#193 = PERSON_AND_ORGANIZATION ( #245, #221 ) ;
#194 = CALENDAR_DATE ( 2012, 23, 5 ) ;
#195 = LOCAL_TIME ( 17, 35, 24.00000000000000000, #173 ) ;
#196 = LINE ( 'NONE', #59, #171 ) ;
#197 = COORDINATED_UNIVERSAL_TIME_OFFSET ( 6, 0, .BEHIND. ) ;
#198 = APPROVAL_PERSON_ORGANIZATION ( #199, #146, #71 ) ;
#199 = PERSON_AND_ORGANIZATION ( #245, #221 ) ;
#200 = LOCAL_TIME ( 17, 35, 24.00000000000000000, #197 ) ;
#201 = CALENDAR_DATE ( 2012, 23, 5 ) ;
#202 = ORIENTED_EDGE ( 'NONE', *, *, #110, .T. ) ;
#203 = ORIENTED_EDGE ( 'NONE', *, *, #114, .F. ) ;
#204 = ORIENTED_EDGE ( 'NONE', *, *, #111, .F. ) ;
#205 = DATE_AND_TIME ( #201, #200 ) ;
#206 = APPROVAL_PERSON_ORGANIZATION ( #207, #139, #83 ) ;
#207 = PERSON_AND_ORGANIZATION ( #245, #221 ) ;
#208 = DATE_AND_TIME ( #209, #211 ) ;
#209 = CALENDAR_DATE ( 2012, 23, 5 ) ;
#210 = COORDINATED_UNIVERSAL_TIME_OFFSET ( 6, 0, .BEHIND. ) ;
#211 = LOCAL_TIME ( 17, 35, 24.00000000000000000, #210 ) ;
#212 = APPROVAL_DATE_TIME ( #215, #134 ) ;
#213 = PERSON_AND_ORGANIZATION ( #245, #221 ) ;
#214 = CALENDAR_DATE ( 2012, 23, 5 ) ;
#215 = DATE_AND_TIME ( #214, #216 ) ;
#216 = LOCAL_TIME ( 17, 35, 24.00000000000000000, #217 ) ;
#217 = COORDINATED_UNIVERSAL_TIME_OFFSET ( 6, 0, .BEHIND. ) ;
#218 = APPROVAL_PERSON_ORGANIZATION ( #219, #134, #82 ) ;
#219 = PERSON_AND_ORGANIZATION ( #245, #221 ) ;
#220 = PERSON_AND_ORGANIZATION ( #245, #221 ) ;
#221 = ORGANIZATION ( 'UNSPECIFIED', 'UNSPECIFIED', '' ) ;
#222 = SHAPE_DEFINITION_REPRESENTATION ( #101, #248 ) ;
#223 =( GEOMETRIC_REPRESENTATION_CONTEXT ( 3 ) GLOBAL_UNCERTAINTY_ASSIGNED_CONTEXT ( ( #249 ) ) GLOBAL_UNIT_ASSIGNED_CONTEXT ( ( #48, #74, #81 ) ) REPRESENTATION_CONTEXT ( 'NONE', 'WORKASPACE' ) );
#224 = PERSON_AND_ORGANIZATION ( #245, #221 ) ;
#225 = CYLINDRICAL_SURFACE ( 'NONE', #125, 15.89999999999999700 ) ;
#226 = ORIENTED_EDGE ( 'NONE', *, *, #106, .F. ) ;
#227 = ORIENTED_EDGE ( 'NONE', *, *, #112, .F. ) ;
#228 = ORIENTED_EDGE ( 'NONE', *, *, #116, .T. ) ;
#229 = ORIENTED_EDGE ( 'NONE', *, *, #109, .T. ) ;
#230 = DATE_AND_TIME ( #231, #232 ) ;
#231 = CALENDAR_DATE ( 2012, 23, 5 ) ;
#232 = LOCAL_TIME ( 17, 35, 24.00000000000000000, #233 ) ;
#233 = COORDINATED_UNIVERSAL_TIME_OFFSET ( 6, 0, .BEHIND. ) ;
#234 = CYLINDRICAL_SURFACE ( 'NONE', #122, 15.89999999999999700 ) ;
#235 = CLOSED_SHELL ( 'NONE', ( #103, #104, #98, #102, #96, #97 ) ) ;
#236 = FACE_OUTER_BOUND ( 'NONE', #168, .T. ) ;
#237 = FACE_OUTER_BOUND ( 'NONE', #152, .T. ) ;
#238 = PERSON_AND_ORGANIZATION ( #245, #221 ) ;
#239 = ORIENTED_EDGE ( 'NONE', *, *, #108, .F. ) ;
#240 = FACE_BOUND ( 'NONE', #165, .T. ) ;
#241 = ORIENTED_EDGE ( 'NONE', *, *, #117, .T. ) ;
#242 = FACE_OUTER_BOUND ( 'NONE', #166, .T. ) ;
#243 = CYLINDRICAL_SURFACE ( 'NONE', #113, 177.8000000000000400 ) ;
#244 = FACE_OUTER_BOUND ( 'NONE', #158, .T. ) ;
#245 = PERSON ( 'UNSPECIFIED', 'UNSPECIFIED', 'UNSPECIFIED', ('UNSPECIFIED'), ('UNSPECIFIED'), ('UNSPECIFIED') ) ;
#246 = PRODUCT ( 'Blade', 'Blade', '', ( #86 ) ) ;
#247 = MANIFOLD_SOLID_BREP ( 'Boss-Extrude1', #235 ) ;
#248 = ADVANCED_BREP_SHAPE_REPRESENTATION ( 'Blade', ( #247, #131 ), #223 ) ;
#249 = UNCERTAINTY_MEASURE_WITH_UNIT (LENGTH_MEASURE( 1.000000000000000100E-005 ), #48, 'distance_accuracy_value', 'NONE');
ENDSEC;
END-ISO-10303-21;
