 0
SECTION
 2
ENTITIES
  0
POLYLINE
 8
Layer0
 66
     1
70
    8
 10
0.0
 20
 0.0
 30
0.0
  0
VERTEX
  8
MY3DLAYER
10
33.8761766018857
20
0.723860090526591
30
-72.0050833647138
 70
     32
  0
VERTEX
  8
MY3DLAYER
10
33.5721326220043
20
-0.410847490126089
30
-72.0050833647138
 70
     32
  0
VERTEX
  8
MY3DLAYER
10
32.9847647570141
20
-1.42819847502244
30
-72.0050833647138
 70
     32
  0
VERTEX
  8
MY3DLAYER
10
32.1541011562428
20
-2.25886207579376
30
-72.0050833647139
 70
     32
  0
VERTEX
  8
MY3DLAYER
10
31.1367501713465
20
-2.846229940784
30
-72.0050833647138
 70
     32
  0
VERTEX
  8
MY3DLAYER
10
30.0020425906938
20
-3.15027392066537
30
-72.0050833647138
 70
     32
  0
VERTEX
  8
MY3DLAYER
10
28.8273068607133
20
-3.15027392066537
30
-72.0050833647138
 70
     32
  0
VERTEX
  8
MY3DLAYER
10
27.6925992800607
20
-2.84622994078403
30
-72.0050833647138
 70
     32
  0
VERTEX
  8
MY3DLAYER
10
26.6752482951643
20
-2.25886207579381
30
-72.0050833647138
 70
     32
  0
VERTEX
  8
MY3DLAYER
10
25.844584694393
20
-1.4281984750225
30
-72.0050833647138
 70
     32
  0
VERTEX
  8
MY3DLAYER
10
25.2572168294027
20
-0.410847490126165
30
-72.0050833647138
 70
     32
  0
VERTEX
  8
MY3DLAYER
10
24.9531728495214
20
0.723860090526506
30
-72.0050833647138
 70
     32
  0
VERTEX
  8
MY3DLAYER
10
24.9531728495214
20
1.89859582050697
30
-72.0050833647139
 70
     32
  0
VERTEX
  8
MY3DLAYER
10
25.2572168294027
20
3.03330340115964
30
-72.0050833647139
 70
     32
  0
VERTEX
  8
MY3DLAYER
10
25.8445846943929
20
4.05065438605599
30
-72.0050833647138
 70
     32
  0
VERTEX
  8
MY3DLAYER
10
26.6752482951642
20
4.88131798682732
30
-72.0050833647138
 70
     32
  0
VERTEX
  8
MY3DLAYER
10
27.6925992800606
20
5.46868585181756
30
-72.0050833647138
 70
     32
  0
VERTEX
  8
MY3DLAYER
10
28.8273068607132
20
5.77272983169892
30
-72.0050833647138
 70
     32
  0
VERTEX
  8
MY3DLAYER
10
30.0020425906937
20
5.77272983169893
30
-72.0050833647138
 70
     32
  0
VERTEX
  8
MY3DLAYER
10
31.1367501713464
20
5.46868585181759
30
-72.0050833647138
 70
     32
  0
VERTEX
  8
MY3DLAYER
10
32.1541011562427
20
4.88131798682736
30
-72.0050833647138
 70
     32
  0
VERTEX
  8
MY3DLAYER
10
32.984764757014
20
4.05065438605606
30
-72.0050833647138
 70
     32
  0
VERTEX
  8
MY3DLAYER
10
33.5721326220043
20
3.03330340115972
30
-72.0050833647139
 70
     32
  0
VERTEX
  8
MY3DLAYER
10
33.8761766018857
20
1.89859582050705
30
-72.0050833647138
 70
     32
  0
VERTEX
  8
MY3DLAYER
10
33.8761766018857
20
0.723860090526591
30
-72.0050833647138
 70
     32
  0
SEQEND
  0
POLYLINE
 8
Layer0
 66
     1
70
    8
 10
0.0
 20
 0.0
 30
0.0
  0
VERTEX
  8
MY3DLAYER
10
29.5778324659786
20
0.071921878799512
30
-72.0050833647138
 70
     32
  0
VERTEX
  8
MY3DLAYER
10
29.8930290161599
20
0.156378539877674
30
-72.0050833647138
 70
     32
  0
VERTEX
  8
MY3DLAYER
10
30.1756265119644
20
0.319536280152742
30
-72.0050833647138
 70
     32
  0
VERTEX
  8
MY3DLAYER
10
30.4063664010676
20
0.550276169255885
30
-72.0050833647138
 70
     32
  0
VERTEX
  8
MY3DLAYER
10
30.5695241413426
20
0.832873665060425
30
-72.0050833647139
 70
     32
  0
VERTEX
  8
MY3DLAYER
10
30.6539808024208
20
1.14807021524172
30
-72.0050833647138
 70
     32
  0
VERTEX
  8
MY3DLAYER
10
30.6539808024208
20
1.47438569579185
30
-72.0050833647138
 70
     32
  0
VERTEX
  8
MY3DLAYER
10
30.5695241413426
20
1.78958224597315
30
-72.0050833647138
 70
     32
  0
VERTEX
  8
MY3DLAYER
10
30.4063664010676
20
2.07217974177769
30
-72.0050833647138
 70
     32
  0
VERTEX
  8
MY3DLAYER
10
30.1756265119644
20
2.30291963088083
30
-72.0050833647138
 70
     32
  0
VERTEX
  8
MY3DLAYER
10
29.8930290161599
20
2.46607737115589
30
-72.0050833647138
 70
     32
  0
VERTEX
  8
MY3DLAYER
10
29.5778324659786
20
2.55053403223404
30
-72.0050833647138
 70
     32
  0
VERTEX
  8
MY3DLAYER
10
29.2515169854285
20
2.55053403223404
30
-72.0050833647138
 70
     32
  0
VERTEX
  8
MY3DLAYER
10
28.9363204352471
20
2.46607737115588
30
-72.0050833647138
 70
     32
  0
VERTEX
  8
MY3DLAYER
10
28.6537229394426
20
2.30291963088082
30
-72.0050833647138
 70
     32
  0
VERTEX
  8
MY3DLAYER
10
28.4229830503395
20
2.07217974177767
30
-72.0050833647139
 70
     32
  0
VERTEX
  8
MY3DLAYER
10
28.2598253100644
20
1.78958224597314
30
-72.0050833647138
 70
     32
  0
VERTEX
  8
MY3DLAYER
10
28.1753686489863
20
1.47438569579184
30
-72.0050833647138
 70
     32
  0
VERTEX
  8
MY3DLAYER
10
28.1753686489863
20
1.14807021524171
30
-72.0050833647138
 70
     32
  0
VERTEX
  8
MY3DLAYER
10
28.2598253100644
20
0.832873665060412
30
-72.0050833647138
 70
     32
  0
VERTEX
  8
MY3DLAYER
10
28.4229830503395
20
0.550276169255872
30
-72.0050833647138
 70
     32
  0
VERTEX
  8
MY3DLAYER
10
28.6537229394426
20
0.319536280152728
30
-72.0050833647138
 70
     32
  0
VERTEX
  8
MY3DLAYER
10
28.9363204352472
20
0.156378539877672
30
-72.0050833647139
 70
     32
  0
VERTEX
  8
MY3DLAYER
10
29.2515169854285
20
0.0719218787995151
30
-72.0050833647138
 70
     32
  0
VERTEX
  8
MY3DLAYER
10
29.5778324659786
20
0.071921878799512
30
-72.0050833647138
 70
     32
  0
SEQEND
  0
POLYLINE
 8
Layer0
 66
     1
70
    8
 10
0.0
 20
 0.0
 30
0.0
  0
VERTEX
  8
MY3DLAYER
10
26.4120662450418
20
2.17994911070329
30
-72.0050833647138
 70
     32
  0
VERTEX
  8
MY3DLAYER
10
26.5091233869553
20
2.19272692584489
30
-72.0050833647138
 70
     32
  0
VERTEX
  8
MY3DLAYER
10
26.5995662450418
20
2.23018958428413
30
-72.0050833647138
 70
     32
  0
VERTEX
  8
MY3DLAYER
10
26.6772312879868
20
2.28978406775833
30
-72.0050833647138
 70
     32
  0
VERTEX
  8
MY3DLAYER
10
26.736825771461
20
2.36744911070329
30
-72.0050833647138
 70
     32
  0
VERTEX
  8
MY3DLAYER
10
26.7742884299002
20
2.45789196878985
30
-72.0050833647138
 70
     32
  0
VERTEX
  8
MY3DLAYER
10
26.7870662450418
20
2.55494911070329
30
-72.0050833647138
 70
     32
  0
VERTEX
  8
MY3DLAYER
10
26.7742884299002
20
2.65200625261674
30
-72.0050833647138
 70
     32
  0
VERTEX
  8
MY3DLAYER
10
26.736825771461
20
2.74244911070329
30
-72.0050833647138
 70
     32
  0
VERTEX
  8
MY3DLAYER
10
26.6772312879868
20
2.82011415364825
30
-72.0050833647138
 70
     32
  0
VERTEX
  8
MY3DLAYER
10
26.5995662450418
20
2.87970863712246
30
-72.0050833647138
 70
     32
  0
VERTEX
  8
MY3DLAYER
10
26.5091233869553
20
2.91717129556169
30
-72.0050833647138
 70
     32
  0
VERTEX
  8
MY3DLAYER
10
26.4120662450418
20
2.92994911070329
30
-72.0050833647138
 70
     32
  0
VERTEX
  8
MY3DLAYER
10
26.3150091031284
20
2.91717129556169
30
-72.0050833647138
 70
     32
  0
VERTEX
  8
MY3DLAYER
10
26.2245662450418
20
2.87970863712246
30
-72.0050833647138
 70
     32
  0
VERTEX
  8
MY3DLAYER
10
26.1469012020969
20
2.82011415364824
30
-72.0050833647138
 70
     32
  0
VERTEX
  8
MY3DLAYER
10
26.0873067186226
20
2.74244911070329
30
-72.0050833647138
 70
     32
  0
VERTEX
  8
MY3DLAYER
10
26.0498440601834
20
2.65200625261674
30
-72.0050833647138
 70
     32
  0
VERTEX
  8
MY3DLAYER
10
26.0370662450418
20
2.55494911070329
30
-72.0050833647138
 70
     32
  0
VERTEX
  8
MY3DLAYER
10
26.0498440601834
20
2.45789196878985
30
-72.0050833647138
 70
     32
  0
VERTEX
  8
MY3DLAYER
10
26.0873067186227
20
2.36744911070329
30
-72.0050833647138
 70
     32
  0
VERTEX
  8
MY3DLAYER
10
26.1469012020969
20
2.28978406775834
30
-72.0050833647139
 70
     32
  0
VERTEX
  8
MY3DLAYER
10
26.2245662450418
20
2.23018958428413
30
-72.0050833647138
 70
     32
  0
VERTEX
  8
MY3DLAYER
10
26.3150091031284
20
2.19272692584489
30
-72.0050833647138
 70
     32
  0
VERTEX
  8
MY3DLAYER
10
26.4120662450418
20
2.17994911070329
30
-72.0050833647138
 70
     32
  0
SEQEND
  0
POLYLINE
 8
Layer0
 66
     1
70
    8
 10
0.0
 20
 0.0
 30
0.0
  0
VERTEX
  8
MY3DLAYER
10
28.1709535705169
20
3.93883643617845
30
-72.0050833647138
 70
     32
  0
VERTEX
  8
MY3DLAYER
10
28.2680107124304
20
3.95161425132005
30
-72.0050833647138
 70
     32
  0
VERTEX
  8
MY3DLAYER
10
28.3584535705169
20
3.98907690975929
30
-72.0050833647138
 70
     32
  0
VERTEX
  8
MY3DLAYER
10
28.4361186134619
20
4.0486713932335
30
-72.0050833647138
 70
     32
  0
VERTEX
  8
MY3DLAYER
10
28.4957130969361
20
4.12633643617845
30
-72.0050833647138
 70
     32
  0
VERTEX
  8
MY3DLAYER
10
28.5331757553753
20
4.21677929426501
30
-72.0050833647138
 70
     32
  0
VERTEX
  8
MY3DLAYER
10
28.5459535705169
20
4.31383643617845
30
-72.0050833647138
 70
     32
  0
VERTEX
  8
MY3DLAYER
10
28.5331757553753
20
4.4108935780919
30
-72.0050833647138
 70
     32
  0
VERTEX
  8
MY3DLAYER
10
28.4957130969361
20
4.50133643617845
30
-72.0050833647138
 70
     32
  0
VERTEX
  8
MY3DLAYER
10
28.4361186134619
20
4.57900147912341
30
-72.0050833647138
 70
     32
  0
VERTEX
  8
MY3DLAYER
10
28.3584535705169
20
4.63859596259762
30
-72.0050833647138
 70
     32
  0
VERTEX
  8
MY3DLAYER
10
28.2680107124304
20
4.67605862103685
30
-72.0050833647138
 70
     32
  0
VERTEX
  8
MY3DLAYER
10
28.1709535705169
20
4.68883643617846
30
-72.0050833647138
 70
     32
  0
VERTEX
  8
MY3DLAYER
10
28.0738964286035
20
4.67605862103686
30
-72.0050833647138
 70
     32
  0
VERTEX
  8
MY3DLAYER
10
27.9834535705169
20
4.63859596259762
30
-72.0050833647138
 70
     32
  0
VERTEX
  8
MY3DLAYER
10
27.905788527572
20
4.57900147912341
30
-72.0050833647138
 70
     32
  0
VERTEX
  8
MY3DLAYER
10
27.8461940440978
20
4.50133643617845
30
-72.0050833647138
 70
     32
  0
VERTEX
  8
MY3DLAYER
10
27.8087313856586
20
4.4108935780919
30
-72.0050833647138
 70
     32
  0
VERTEX
  8
MY3DLAYER
10
27.7959535705169
20
4.31383643617845
30
-72.0050833647138
 70
     32
  0
VERTEX
  8
MY3DLAYER
10
27.8087313856586
20
4.21677929426501
30
-72.0050833647138
 70
     32
  0
VERTEX
  8
MY3DLAYER
10
27.8461940440977
20
4.12633643617845
30
-72.0050833647138
 70
     32
  0
VERTEX
  8
MY3DLAYER
10
27.905788527572
20
4.0486713932335
30
-72.0050833647138
 70
     32
  0
VERTEX
  8
MY3DLAYER
10
27.9834535705169
20
3.98907690975929
30
-72.0050833647138
 70
     32
  0
VERTEX
  8
MY3DLAYER
10
28.0738964286035
20
3.95161425132005
30
-72.0050833647138
 70
     32
  0
VERTEX
  8
MY3DLAYER
10
28.1709535705169
20
3.93883643617845
30
-72.0050833647138
 70
     32
  0
SEQEND
  0
POLYLINE
 8
Layer0
 66
     1
70
    8
 10
0.0
 20
 0.0
 30
0.0
  0
VERTEX
  8
MY3DLAYER
10
31.0206180657484
20
4.21677929426503
30
-72.0050833647138
 70
     32
  0
VERTEX
  8
MY3DLAYER
10
31.03339588089
20
4.31383643617848
30
-72.0050833647138
 70
     32
  0
VERTEX
  8
MY3DLAYER
10
31.0206180657484
20
4.41089357809192
30
-72.0050833647138
 70
     32
  0
VERTEX
  8
MY3DLAYER
10
30.9831554073092
20
4.50133643617848
30
-72.0050833647138
 70
     32
  0
VERTEX
  8
MY3DLAYER
10
30.923560923835
20
4.57900147912343
30
-72.0050833647138
 70
     32
  0
VERTEX
  8
MY3DLAYER
10
30.84589588089
20
4.63859596259764
30
-72.0050833647138
 70
     32
  0
VERTEX
  8
MY3DLAYER
10
30.7554530228035
20
4.67605862103688
30
-72.0050833647138
 70
     32
  0
VERTEX
  8
MY3DLAYER
10
30.65839588089
20
4.68883643617848
30
-72.0050833647138
 70
     32
  0
VERTEX
  8
MY3DLAYER
10
30.5613387389766
20
4.67605862103687
30
-72.0050833647138
 70
     32
  0
VERTEX
  8
MY3DLAYER
10
30.47089588089
20
4.63859596259764
30
-72.0050833647138
 70
     32
  0
VERTEX
  8
MY3DLAYER
10
30.3932308379451
20
4.57900147912343
30
-72.0050833647138
 70
     32
  0
VERTEX
  8
MY3DLAYER
10
30.3336363544709
20
4.50133643617847
30
-72.0050833647138
 70
     32
  0
VERTEX
  8
MY3DLAYER
10
30.2961736960316
20
4.41089357809192
30
-72.0050833647138
 70
     32
  0
VERTEX
  8
MY3DLAYER
10
30.28339588089
20
4.31383643617847
30
-72.0050833647138
 70
     32
  0
VERTEX
  8
MY3DLAYER
10
30.2961736960316
20
4.21677929426503
30
-72.0050833647138
 70
     32
  0
VERTEX
  8
MY3DLAYER
10
30.3336363544708
20
4.12633643617847
30
-72.0050833647138
 70
     32
  0
VERTEX
  8
MY3DLAYER
10
30.3932308379451
20
4.04867139323352
30
-72.0050833647138
 70
     32
  0
VERTEX
  8
MY3DLAYER
10
30.47089588089
20
3.98907690975931
30
-72.0050833647138
 70
     32
  0
VERTEX
  8
MY3DLAYER
10
30.5613387389766
20
3.95161425132007
30
-72.0050833647138
 70
     32
  0
VERTEX
  8
MY3DLAYER
10
30.65839588089
20
3.93883643617847
30
-72.0050833647138
 70
     32
  0
VERTEX
  8
MY3DLAYER
10
30.7554530228035
20
3.95161425132007
30
-72.0050833647138
 70
     32
  0
VERTEX
  8
MY3DLAYER
10
30.84589588089
20
3.98907690975931
30
-72.0050833647138
 70
     32
  0
VERTEX
  8
MY3DLAYER
10
30.923560923835
20
4.04867139323352
30
-72.0050833647138
 70
     32
  0
VERTEX
  8
MY3DLAYER
10
30.9831554073092
20
4.12633643617848
30
-72.0050833647138
 70
     32
  0
VERTEX
  8
MY3DLAYER
10
31.0206180657484
20
4.21677929426503
30
-72.0050833647138
 70
     32
  0
SEQEND
  0
POLYLINE
 8
Layer0
 66
     1
70
    8
 10
0.0
 20
 0.0
 30
0.0
  0
VERTEX
  8
MY3DLAYER
10
32.7795053912236
20
2.4578919687899
30
-72.0050833647138
 70
     32
  0
VERTEX
  8
MY3DLAYER
10
32.7922832063652
20
2.55494911070335
30
-72.0050833647138
 70
     32
  0
VERTEX
  8
MY3DLAYER
10
32.7795053912236
20
2.65200625261679
30
-72.0050833647138
 70
     32
  0
VERTEX
  8
MY3DLAYER
10
32.7420427327844
20
2.74244911070335
30
-72.0050833647138
 70
     32
  0
VERTEX
  8
MY3DLAYER
10
32.6824482493101
20
2.8201141536483
30
-72.0050833647138
 70
     32
  0
VERTEX
  8
MY3DLAYER
10
32.6047832063652
20
2.87970863712251
30
-72.0050833647138
 70
     32
  0
VERTEX
  8
MY3DLAYER
10
32.5143403482786
20
2.91717129556175
30
-72.0050833647138
 70
     32
  0
VERTEX
  8
MY3DLAYER
10
32.4172832063652
20
2.92994911070335
30
-72.0050833647138
 70
     32
  0
VERTEX
  8
MY3DLAYER
10
32.3202260644517
20
2.91717129556175
30
-72.0050833647138
 70
     32
  0
VERTEX
  8
MY3DLAYER
10
32.2297832063652
20
2.87970863712251
30
-72.0050833647138
 70
     32
  0
VERTEX
  8
MY3DLAYER
10
32.1521181634202
20
2.82011415364831
30
-72.0050833647138
 70
     32
  0
VERTEX
  8
MY3DLAYER
10
32.092523679946
20
2.74244911070335
30
-72.0050833647138
 70
     32
  0
VERTEX
  8
MY3DLAYER
10
32.0550610215068
20
2.6520062526168
30
-72.0050833647138
 70
     32
  0
VERTEX
  8
MY3DLAYER
10
32.0422832063652
20
2.55494911070335
30
-72.0050833647138
 70
     32
  0
VERTEX
  8
MY3DLAYER
10
32.0550610215068
20
2.4578919687899
30
-72.0050833647138
 70
     32
  0
VERTEX
  8
MY3DLAYER
10
32.092523679946
20
2.36744911070335
30
-72.0050833647138
 70
     32
  0
VERTEX
  8
MY3DLAYER
10
32.1521181634202
20
2.28978406775839
30
-72.0050833647138
 70
     32
  0
VERTEX
  8
MY3DLAYER
10
32.2297832063652
20
2.23018958428418
30
-72.0050833647138
 70
     32
  0
VERTEX
  8
MY3DLAYER
10
32.3202260644517
20
2.19272692584495
30
-72.0050833647138
 70
     32
  0
VERTEX
  8
MY3DLAYER
10
32.4172832063651
20
2.17994911070335
30
-72.0050833647138
 70
     32
  0
VERTEX
  8
MY3DLAYER
10
32.5143403482786
20
2.19272692584495
30
-72.0050833647138
 70
     32
  0
VERTEX
  8
MY3DLAYER
10
32.6047832063652
20
2.23018958428418
30
-72.0050833647138
 70
     32
  0
VERTEX
  8
MY3DLAYER
10
32.6824482493101
20
2.28978406775839
30
-72.0050833647138
 70
     32
  0
VERTEX
  8
MY3DLAYER
10
32.7420427327844
20
2.36744911070335
30
-72.0050833647138
 70
     32
  0
VERTEX
  8
MY3DLAYER
10
32.7795053912236
20
2.4578919687899
30
-72.0050833647138
 70
     32
  0
SEQEND
  0
POLYLINE
 8
Layer0
 66
     1
70
    8
 10
0.0
 20
 0.0
 30
0.0
  0
VERTEX
  8
MY3DLAYER
10
32.0550610215068
20
-0.0295503415831795
30
-72.0050833647138
 70
     32
  0
VERTEX
  8
MY3DLAYER
10
32.092523679946
20
-0.119993199669739
30
-72.0050833647138
 70
     32
  0
VERTEX
  8
MY3DLAYER
10
32.1521181634202
20
-0.197658242614689
30
-72.0050833647138
 70
     32
  0
VERTEX
  8
MY3DLAYER
10
32.2297832063652
20
-0.257252726088898
30
-72.0050833647138
 70
     32
  0
VERTEX
  8
MY3DLAYER
10
32.3202260644517
20
-0.294715384528135
30
-72.0050833647138
 70
     32
  0
VERTEX
  8
MY3DLAYER
10
32.4172832063652
20
-0.307493199669734
30
-72.0050833647138
 70
     32
  0
VERTEX
  8
MY3DLAYER
10
32.5143403482787
20
-0.294715384528133
30
-72.0050833647138
 70
     32
  0
VERTEX
  8
MY3DLAYER
10
32.6047832063652
20
-0.257252726088898
30
-72.0050833647138
 70
     32
  0
VERTEX
  8
MY3DLAYER
10
32.6824482493101
20
-0.197658242614692
30
-72.0050833647138
 70
     32
  0
VERTEX
  8
MY3DLAYER
10
32.7420427327844
20
-0.119993199669737
30
-72.0050833647138
 70
     32
  0
VERTEX
  8
MY3DLAYER
10
32.7795053912236
20
-0.0295503415831777
30
-72.0050833647138
 70
     32
  0
VERTEX
  8
MY3DLAYER
10
32.7922832063652
20
0.0675068003302632
30
-72.0050833647138
 70
     32
  0
VERTEX
  8
MY3DLAYER
10
32.7795053912236
20
0.164563942243712
30
-72.0050833647138
 70
     32
  0
VERTEX
  8
MY3DLAYER
10
32.7420427327844
20
0.255006800330263
30
-72.0050833647138
 70
     32
  0
VERTEX
  8
MY3DLAYER
10
32.6824482493101
20
0.332671843275219
30
-72.0050833647138
 70
     32
  0
VERTEX
  8
MY3DLAYER
10
32.6047832063652
20
0.392266326749431
30
-72.0050833647138
 70
     32
  0
VERTEX
  8
MY3DLAYER
10
32.5143403482786
20
0.429728985188668
30
-72.0050833647138
 70
     32
  0
VERTEX
  8
MY3DLAYER
10
32.4172832063652
20
0.442506800330266
30
-72.0050833647138
 70
     32
  0
VERTEX
  8
MY3DLAYER
10
32.3202260644517
20
0.429728985188666
30
-72.0050833647138
 70
     32
  0
VERTEX
  8
MY3DLAYER
10
32.2297832063652
20
0.392266326749431
30
-72.0050833647138
 70
     32
  0
VERTEX
  8
MY3DLAYER
10
32.1521181634202
20
0.332671843275222
30
-72.0050833647138
 70
     32
  0
VERTEX
  8
MY3DLAYER
10
32.092523679946
20
0.255006800330261
30
-72.0050833647138
 70
     32
  0
VERTEX
  8
MY3DLAYER
10
32.0550610215068
20
0.164563942243712
30
-72.0050833647138
 70
     32
  0
VERTEX
  8
MY3DLAYER
10
32.0422832063652
20
0.0675068003302615
30
-72.0050833647138
 70
     32
  0
VERTEX
  8
MY3DLAYER
10
32.0550610215068
20
-0.0295503415831795
30
-72.0050833647138
 70
     32
  0
SEQEND
  0
POLYLINE
 8
Layer0
 66
     1
70
    8
 10
0.0
 20
 0.0
 30
0.0
  0
VERTEX
  8
MY3DLAYER
10
30.84589588089
20
-1.36662099872573
30
-72.0050833647138
 70
     32
  0
VERTEX
  8
MY3DLAYER
10
30.7554530228035
20
-1.3291583402865
30
-72.0050833647138
 70
     32
  0
VERTEX
  8
MY3DLAYER
10
30.6583958808901
20
-1.31638052514489
30
-72.0050833647138
 70
     32
  0
VERTEX
  8
MY3DLAYER
10
30.5613387389766
20
-1.32915834028649
30
-72.0050833647138
 70
     32
  0
VERTEX
  8
MY3DLAYER
10
30.47089588089
20
-1.36662099872573
30
-72.0050833647138
 70
     32
  0
VERTEX
  8
MY3DLAYER
10
30.3932308379451
20
-1.42621548219994
30
-72.0050833647138
 70
     32
  0
VERTEX
  8
MY3DLAYER
10
30.3336363544709
20
-1.50388052514489
30
-72.0050833647138
 70
     32
  0
VERTEX
  8
MY3DLAYER
10
30.2961736960317
20
-1.59432338323145
30
-72.0050833647138
 70
     32
  0
VERTEX
  8
MY3DLAYER
10
30.2833958808901
20
-1.69138052514489
30
-72.0050833647138
 70
     32
  0
VERTEX
  8
MY3DLAYER
10
30.2961736960316
20
-1.78843766705834
30
-72.0050833647138
 70
     32
  0
VERTEX
  8
MY3DLAYER
10
30.3336363544709
20
-1.87888052514489
30
-72.0050833647138
 70
     32
  0
VERTEX
  8
MY3DLAYER
10
30.3932308379451
20
-1.95654556808985
30
-72.0050833647138
 70
     32
  0
VERTEX
  8
MY3DLAYER
10
30.4708958808901
20
-2.01614005156406
30
-72.0050833647138
 70
     32
  0
VERTEX
  8
MY3DLAYER
10
30.5613387389766
20
-2.0536027100033
30
-72.0050833647138
 70
     32
  0
VERTEX
  8
MY3DLAYER
10
30.6583958808901
20
-2.0663805251449
30
-72.0050833647138
 70
     32
  0
VERTEX
  8
MY3DLAYER
10
30.7554530228035
20
-2.0536027100033
30
-72.0050833647138
 70
     32
  0
VERTEX
  8
MY3DLAYER
10
30.8458958808901
20
-2.01614005156406
30
-72.0050833647138
 70
     32
  0
VERTEX
  8
MY3DLAYER
10
30.923560923835
20
-1.95654556808985
30
-72.0050833647138
 70
     32
  0
VERTEX
  8
MY3DLAYER
10
30.9831554073092
20
-1.87888052514489
30
-72.0050833647138
 70
     32
  0
VERTEX
  8
MY3DLAYER
10
31.0206180657484
20
-1.78843766705834
30
-72.0050833647138
 70
     32
  0
VERTEX
  8
MY3DLAYER
10
31.0333958808901
20
-1.6913805251449
30
-72.0050833647138
 70
     32
  0
VERTEX
  8
MY3DLAYER
10
31.0206180657485
20
-1.59432338323145
30
-72.0050833647138
 70
     32
  0
VERTEX
  8
MY3DLAYER
10
30.9831554073092
20
-1.50388052514489
30
-72.0050833647138
 70
     32
  0
VERTEX
  8
MY3DLAYER
10
30.923560923835
20
-1.42621548219994
30
-72.0050833647138
 70
     32
  0
VERTEX
  8
MY3DLAYER
10
30.84589588089
20
-1.36662099872573
30
-72.0050833647138
 70
     32
  0
SEQEND
  0
POLYLINE
 8
Layer0
 66
     1
70
    8
 10
0.0
 20
 0.0
 30
0.0
  0
VERTEX
  8
MY3DLAYER
10
28.4957130969362
20
-1.87888052514492
30
-72.0050833647138
 70
     32
  0
VERTEX
  8
MY3DLAYER
10
28.5331757553754
20
-1.78843766705836
30
-72.0050833647138
 70
     32
  0
VERTEX
  8
MY3DLAYER
10
28.545953570517
20
-1.69138052514492
30
-72.0050833647138
 70
     32
  0
VERTEX
  8
MY3DLAYER
10
28.5331757553754
20
-1.59432338323147
30
-72.0050833647138
 70
     32
  0
VERTEX
  8
MY3DLAYER
10
28.4957130969362
20
-1.50388052514492
30
-72.0050833647138
 70
     32
  0
VERTEX
  8
MY3DLAYER
10
28.4361186134619
20
-1.42621548219996
30
-72.0050833647138
 70
     32
  0
VERTEX
  8
MY3DLAYER
10
28.3584535705169
20
-1.36662099872575
30
-72.0050833647138
 70
     32
  0
VERTEX
  8
MY3DLAYER
10
28.2680107124304
20
-1.32915834028652
30
-72.0050833647138
 70
     32
  0
VERTEX
  8
MY3DLAYER
10
28.170953570517
20
-1.31638052514492
30
-72.0050833647138
 70
     32
  0
VERTEX
  8
MY3DLAYER
10
28.0738964286036
20
-1.32915834028652
30
-72.0050833647138
 70
     32
  0
VERTEX
  8
MY3DLAYER
10
27.9834535705169
20
-1.36662099872576
30
-72.0050833647138
 70
     32
  0
VERTEX
  8
MY3DLAYER
10
27.905788527572
20
-1.42621548219996
30
-72.0050833647138
 70
     32
  0
VERTEX
  8
MY3DLAYER
10
27.8461940440978
20
-1.50388052514492
30
-72.0050833647138
 70
     32
  0
VERTEX
  8
MY3DLAYER
10
27.8087313856586
20
-1.59432338323147
30
-72.0050833647138
 70
     32
  0
VERTEX
  8
MY3DLAYER
10
27.795953570517
20
-1.69138052514492
30
-72.0050833647138
 70
     32
  0
VERTEX
  8
MY3DLAYER
10
27.8087313856586
20
-1.78843766705836
30
-72.0050833647138
 70
     32
  0
VERTEX
  8
MY3DLAYER
10
27.8461940440978
20
-1.87888052514492
30
-72.0050833647138
 70
     32
  0
VERTEX
  8
MY3DLAYER
10
27.905788527572
20
-1.95654556808987
30
-72.0050833647138
 70
     32
  0
VERTEX
  8
MY3DLAYER
10
27.983453570517
20
-2.01614005156409
30
-72.0050833647138
 70
     32
  0
VERTEX
  8
MY3DLAYER
10
28.0738964286035
20
-2.05360271000332
30
-72.0050833647138
 70
     32
  0
VERTEX
  8
MY3DLAYER
10
28.170953570517
20
-2.06638052514492
30
-72.0050833647138
 70
     32
  0
VERTEX
  8
MY3DLAYER
10
28.2680107124304
20
-2.05360271000332
30
-72.0050833647138
 70
     32
  0
VERTEX
  8
MY3DLAYER
10
28.358453570517
20
-2.01614005156408
30
-72.0050833647138
 70
     32
  0
VERTEX
  8
MY3DLAYER
10
28.436118613462
20
-1.95654556808987
30
-72.0050833647138
 70
     32
  0
VERTEX
  8
MY3DLAYER
10
28.4957130969362
20
-1.87888052514492
30
-72.0050833647138
 70
     32
  0
SEQEND
  0
POLYLINE
 8
Layer0
 66
     1
70
    8
 10
0.0
 20
 0.0
 30
0.0
  0
VERTEX
  8
MY3DLAYER
10
26.0873067186227
20
-0.119993199669791
30
-72.0050833647138
 70
     32
  0
VERTEX
  8
MY3DLAYER
10
26.1469012020968
20
-0.197658242614746
30
-72.0050833647138
 70
     32
  0
VERTEX
  8
MY3DLAYER
10
26.2245662450418
20
-0.257252726088955
30
-72.0050833647138
 70
     32
  0
VERTEX
  8
MY3DLAYER
10
26.3150091031284
20
-0.29471538452819
30
-72.0050833647138
 70
     32
  0
VERTEX
  8
MY3DLAYER
10
26.4120662450418
20
-0.307493199669792
30
-72.0050833647138
 70
     32
  0
VERTEX
  8
MY3DLAYER
10
26.5091233869553
20
-0.294715384528193
30
-72.0050833647138
 70
     32
  0
VERTEX
  8
MY3DLAYER
10
26.5995662450418
20
-0.257252726088955
30
-72.0050833647138
 70
     32
  0
VERTEX
  8
MY3DLAYER
10
26.6772312879867
20
-0.197658242614746
30
-72.0050833647138
 70
     32
  0
VERTEX
  8
MY3DLAYER
10
26.736825771461
20
-0.119993199669792
30
-72.0050833647138
 70
     32
  0
VERTEX
  8
MY3DLAYER
10
26.7742884299002
20
-0.0295503415832363
30
-72.0050833647138
 70
     32
  0
VERTEX
  8
MY3DLAYER
10
26.7870662450418
20
0.0675068003302077
30
-72.0050833647138
 70
     32
  0
VERTEX
  8
MY3DLAYER
10
26.7742884299002
20
0.164563942243652
30
-72.0050833647138
 70
     32
  0
VERTEX
  8
MY3DLAYER
10
26.736825771461
20
0.255006800330208
30
-72.0050833647138
 70
     32
  0
VERTEX
  8
MY3DLAYER
10
26.6772312879867
20
0.332671843275163
30
-72.0050833647138
 70
     32
  0
VERTEX
  8
MY3DLAYER
10
26.5995662450418
20
0.392266326749374
30
-72.0050833647138
 70
     32
  0
VERTEX
  8
MY3DLAYER
10
26.5091233869552
20
0.429728985188608
30
-72.0050833647138
 70
     32
  0
VERTEX
  8
MY3DLAYER
10
26.4120662450418
20
0.442506800330208
30
-72.0050833647138
 70
     32
  0
VERTEX
  8
MY3DLAYER
10
26.3150091031284
20
0.429728985188611
30
-72.0050833647138
 70
     32
  0
VERTEX
  8
MY3DLAYER
10
26.2245662450418
20
0.392266326749374
30
-72.0050833647138
 70
     32
  0
VERTEX
  8
MY3DLAYER
10
26.1469012020968
20
0.332671843275162
30
-72.0050833647138
 70
     32
  0
VERTEX
  8
MY3DLAYER
10
26.0873067186227
20
0.25500680033021
30
-72.0050833647138
 70
     32
  0
VERTEX
  8
MY3DLAYER
10
26.0498440601834
20
0.164563942243652
30
-72.0050833647138
 70
     32
  0
VERTEX
  8
MY3DLAYER
10
26.0370662450418
20
0.0675068003302095
30
-72.0050833647138
 70
     32
  0
VERTEX
  8
MY3DLAYER
10
26.0498440601834
20
-0.0295503415832394
30
-72.0050833647138
 70
     32
  0
VERTEX
  8
MY3DLAYER
10
26.0873067186227
20
-0.119993199669791
30
-72.0050833647138
 70
     32
  0
SEQEND
 0
ENDSEC
 0
EOF
