999
dxflib 2.2.0.0
  0
SECTION
  2
HEADER
  9
$ACADVER
  1
AC1015
  9
$HANDSEED
  5
FFFF
  9
$SPLINESEGS
 70
8
  9
$DIMEXE
 40
0.05
  9
$DIMLUNIT
 70
2
  9
$GRIDMODE
 70
1
  9
$INSUNITS
 70
1
  9
$DIMADEC
 70
2
  9
$DIMASZ
 40
1.0
  9
$DIMGAP
 40
0.3
  9
$DIMTXT
 40
0.5
  9
$GRIDUNIT
 10
0.0
 20
0.0
  9
$DIMEXO
 40
0.01
  9
$LUPREC
 70
2
  9
$DIMAUNIT
 70
0
  9
$AUPREC
 70
2
  9
$PLIMMIN
 10
0.0
 20
0.0
  9
$LUNITS
 70
2
  9
$PLIMMAX
 10
8.2677165354330722
 20
11.6929133858267722
  9
$DIMSTYLE
  2
Standard
  9
$AUNITS
 70
0
  0
ENDSEC
  0
SECTION
  2
TABLES
  0
TABLE
  2
VPORT
  5
8
100
AcDbSymbolTable
 70
1
  0
VPORT
  5
30
100
AcDbSymbolTableRecord
100
AcDbViewportTableRecord
  2
*Active
 70
0
 10
0.0
 20
0.0
 11
1.0
 21
1.0
 12
286.3055555555554861
 22
148.5
 13
0.0
 23
0.0
 14
10.0
 24
10.0
 15
10.0
 25
10.0
 16
0.0
 26
0.0
 36
1.0
 17
0.0
 27
0.0
 37
0.0
 40
297.0
 41
1.92798353909465
 42
50.0
 43
0.0
 44
0.0
 50
0.0
 51
0.0
 71
0
 72
100
 73
1
 74
3
 75
1
 76
1
 77
0
 78
0
281
0
 65
1
110
0.0
120
0.0
130
0.0
111
1.0
121
0.0
131
0.0
112
0.0
122
1.0
132
0.0
 79
0
146
0.0
  0
ENDTAB
  0
TABLE
  2
LTYPE
  5
5
100
AcDbSymbolTable
 70
21
  0
LTYPE
  5
14
100
AcDbSymbolTableRecord
100
AcDbLinetypeTableRecord
  2
ByBlock
 70
0
  3

 72
65
 73
0
 40
0.0
  0
LTYPE
  5
15
100
AcDbSymbolTableRecord
100
AcDbLinetypeTableRecord
  2
ByLayer
 70
0
  3

 72
65
 73
0
 40
0.0
  0
LTYPE
  5
16
100
AcDbSymbolTableRecord
100
AcDbLinetypeTableRecord
  2
CONTINUOUS
 70
0
  3
Solid line
 72
65
 73
0
 40
0.0
  0
LTYPE
  5
31
100
AcDbSymbolTableRecord
100
AcDbLinetypeTableRecord
  2
DOT
 70
0
  3
Dot . . . . . . . . . . . . . . . . . . . . . .
 72
65
 73
2
 40
6.3499999999999996
 49
0.0
 74
0
 49
-6.3499999999999996
 74
0
  0
LTYPE
  5
32
100
AcDbSymbolTableRecord
100
AcDbLinetypeTableRecord
  2
DOT2
 70
0
  3
Dot (.5x) .....................................
 72
65
 73
2
 40
3.1749999999999998
 49
0.0
 74
0
 49
-3.1749999999999998
 74
0
  0
LTYPE
  5
33
100
AcDbSymbolTableRecord
100
AcDbLinetypeTableRecord
  2
DOTX2
 70
0
  3
Dot (2x) .  .  .  .  .  .  .  .  .  .  .  .  .
 72
65
 73
2
 40
12.6999999999999993
 49
0.0
 74
0
 49
-12.6999999999999993
 74
0
  0
LTYPE
  5
34
100
AcDbSymbolTableRecord
100
AcDbLinetypeTableRecord
  2
DASHED
 70
0
  3
Dashed __ __ __ __ __ __ __ __ __ __ __ __ __ _
 72
65
 73
2
 40
19.0500000000000007
 49
12.6999999999999993
 74
0
 49
-6.3499999999999996
 74
0
  0
LTYPE
  5
35
100
AcDbSymbolTableRecord
100
AcDbLinetypeTableRecord
  2
DASHED2
 70
0
  3
Dashed (.5x) _ _ _ _ _ _ _ _ _ _ _ _ _ _ _ _ _
 72
65
 73
2
 40
9.5250000000000004
 49
6.3499999999999996
 74
0
 49
-3.1749999999999998
 74
0
  0
LTYPE
  5
36
100
AcDbSymbolTableRecord
100
AcDbLinetypeTableRecord
  2
DASHEDX2
 70
0
  3
Dashed (2x) ____  ____  ____  ____  ____  ___
 72
65
 73
2
 40
38.1000000000000014
 49
25.3999999999999986
 74
0
 49
-12.6999999999999993
 74
0
  0
LTYPE
  5
37
100
AcDbSymbolTableRecord
100
AcDbLinetypeTableRecord
  2
DASHDOT
 70
0
  3
Dash dot __ . __ . __ . __ . __ . __ . __ . __
 72
65
 73
4
 40
25.3999999999999986
 49
12.6999999999999993
 74
0
 49
-6.3499999999999996
 74
0
 49
0.0
 74
0
 49
-6.3499999999999996
 74
0
  0
LTYPE
  5
38
100
AcDbSymbolTableRecord
100
AcDbLinetypeTableRecord
  2
DASHDOT2
 70
0
  3
Dash dot (.5x) _._._._._._._._._._._._._._._.
 72
65
 73
4
 40
12.6999999999999993
 49
6.3499999999999996
 74
0
 49
-3.1749999999999998
 74
0
 49
0.0
 74
0
 49
-3.1749999999999998
 74
0
  0
LTYPE
  5
39
100
AcDbSymbolTableRecord
100
AcDbLinetypeTableRecord
  2
DASHDOTX2
 70
0
  3
Dash dot (2x) ____  .  ____  .  ____  .  ___
 72
65
 73
4
 40
50.7999999999999972
 49
25.3999999999999986
 74
0
 49
-12.6999999999999993
 74
0
 49
0.0
 74
0
 49
-12.6999999999999993
 74
0
  0
LTYPE
  5
3A
100
AcDbSymbolTableRecord
100
AcDbLinetypeTableRecord
  2
DIVIDE
 70
0
  3
Divide ____ . . ____ . . ____ . . ____ . . ____
 72
65
 73
6
 40
31.75
 49
12.6999999999999993
 74
0
 49
-6.3499999999999996
 74
0
 49
0.0
 74
0
 49
-6.3499999999999996
 74
0
 49
0.0
 74
0
 49
-6.3499999999999996
 74
0
  0
LTYPE
  5
3B
100
AcDbSymbolTableRecord
100
AcDbLinetypeTableRecord
  2
DIVIDE2
 70
0
  3
Divide (.5x) __..__..__..__..__..__..__..__.._
 72
65
 73
6
 40
15.875
 49
6.3499999999999996
 74
0
 49
-3.1749999999999998
 74
0
 49
0.0
 74
0
 49
-3.1749999999999998
 74
0
 49
0.0
 74
0
 49
-3.1749999999999998
 74
0
  0
LTYPE
  5
3C
100
AcDbSymbolTableRecord
100
AcDbLinetypeTableRecord
  2
DIVIDEX2
 70
0
  3
Divide (2x) ________  .  .  ________  .  .  _
 72
65
 73
6
 40
63.5
 49
25.3999999999999986
 74
0
 49
-12.6999999999999993
 74
0
 49
0.0
 74
0
 49
-12.6999999999999993
 74
0
 49
0.0
 74
0
 49
-12.6999999999999993
 74
0
  0
LTYPE
  5
3D
100
AcDbSymbolTableRecord
100
AcDbLinetypeTableRecord
  2
CENTER
 70
0
  3
Center ____ _ ____ _ ____ _ ____ _ ____ _ ____
 72
65
 73
4
 40
50.7999999999999972
 49
31.75
 74
0
 49
-6.3499999999999996
 74
0
 49
6.3499999999999996
 74
0
 49
-6.3499999999999996
 74
0
  0
LTYPE
  5
3E
100
AcDbSymbolTableRecord
100
AcDbLinetypeTableRecord
  2
CENTER2
 70
0
  3
Center (.5x) ___ _ ___ _ ___ _ ___ _ ___ _ ___
 72
65
 73
4
 40
28.5749999999999993
 49
19.0500000000000007
 74
0
 49
-3.1749999999999998
 74
0
 49
3.1749999999999998
 74
0
 49
-3.1749999999999998
 74
0
  0
LTYPE
  5
3F
100
AcDbSymbolTableRecord
100
AcDbLinetypeTableRecord
  2
CENTERX2
 70
0
  3
Center (2x) ________  __  ________  __  _____
 72
65
 73
4
 40
101.5999999999999943
 49
63.5
 74
0
 49
-12.6999999999999993
 74
0
 49
12.6999999999999993
 74
0
 49
-12.6999999999999993
 74
0
  0
LTYPE
  5
40
100
AcDbSymbolTableRecord
100
AcDbLinetypeTableRecord
  2
BORDER
 70
0
  3
Border __ __ . __ __ . __ __ . __ __ . __ __ .
 72
65
 73
6
 40
44.4500000000000028
 49
12.6999999999999993
 74
0
 49
-6.3499999999999996
 74
0
 49
12.6999999999999993
 74
0
 49
-6.3499999999999996
 74
0
 49
0.0
 74
0
 49
-6.3499999999999996
 74
0
  0
LTYPE
  5
41
100
AcDbSymbolTableRecord
100
AcDbLinetypeTableRecord
  2
BORDER2
 70
0
  3
Border (.5x) __.__.__.__.__.__.__.__.__.__.__.
 72
65
 73
6
 40
22.2250000000000014
 49
6.3499999999999996
 74
0
 49
-3.1749999999999998
 74
0
 49
6.3499999999999996
 74
0
 49
-3.1749999999999998
 74
0
 49
0.0
 74
0
 49
-3.1749999999999998
 74
0
  0
LTYPE
  5
42
100
AcDbSymbolTableRecord
100
AcDbLinetypeTableRecord
  2
BORDERX2
 70
0
  3
Border (2x) ____  ____  .  ____  ____  .  ___
 72
65
 73
6
 40
88.9000000000000057
 49
25.3999999999999986
 74
0
 49
-12.6999999999999993
 74
0
 49
25.3999999999999986
 74
0
 49
-12.6999999999999993
 74
0
 49
0.0
 74
0
 49
-12.6999999999999993
 74
0
  0
ENDTAB
  0
TABLE
  2
LAYER
  5
2
100
AcDbSymbolTable
 70
4
  0
LAYER
  5
10
100
AcDbSymbolTableRecord
100
AcDbLayerTableRecord
  2
0
 70
0
 62
7
  6
CONTINUOUS
370
0
390
F
  0
LAYER
  5
43
100
AcDbSymbolTableRecord
100
AcDbLayerTableRecord
  2
faces
 70
0
 62
1
  6
CONTINUOUS
370
0
390
F
  0
LAYER
  5
44
100
AcDbSymbolTableRecord
100
AcDbLayerTableRecord
  2
dims verify
 70
0
 62
7
  6
CONTINUOUS
370
0
390
F
  0
LAYER
  5
45
100
AcDbSymbolTableRecord
100
AcDbLayerTableRecord
  2
front cuts
 70
0
 62
7
  6
CONTINUOUS
370
0
390
F
  0
ENDTAB
  0
TABLE
  2
STYLE
  5
3
100
AcDbSymbolTable
 70
1
  0
STYLE
  5
11
100
AcDbSymbolTableRecord
100
AcDbTextStyleTableRecord
  2
Standard
 70
0
 40
0.0
 41
0.75
 50
0.0
 71
0
 42
2.5
  3
txt
  4

  0
ENDTAB
  0
TABLE
  2
VIEW
  5
6
100
AcDbSymbolTable
 70
0
  0
ENDTAB
  0
TABLE
  2
UCS
  5
7
100
AcDbSymbolTable
 70
0
  0
ENDTAB
  0
TABLE
  2
APPID
  5
9
100
AcDbSymbolTable
 70
1
  0
APPID
  5
12
100
AcDbSymbolTableRecord
100
AcDbRegAppTableRecord
  2
ACAD
 70
0
  0
ENDTAB
  0
TABLE
  2
DIMSTYLE
  5
A
100
AcDbSymbolTable
 70
1
100
AcDbDimStyleTable
 71
0
  0
DIMSTYLE
105
27
100
AcDbSymbolTableRecord
100
AcDbDimStyleTableRecord
  2
Standard
 41
1.0
 42
0.01
 43
3.75
 44
0.05
 70
0
 73
0
 74
0
 77
1
 78
8
140
0.5
141
2.5
143
0.03937007874016
147
0.3
171
3
172
1
271
2
272
2
274
3
278
44
283
0
284
8
340
11
  0
ENDTAB
  0
TABLE
  2
BLOCK_RECORD
  5
1
100
AcDbSymbolTable
 70
1
  0
BLOCK_RECORD
  5
1F
100
AcDbSymbolTableRecord
100
AcDbBlockTableRecord
  2
*Model_Space
340
22
  0
BLOCK_RECORD
  5
1B
100
AcDbSymbolTableRecord
100
AcDbBlockTableRecord
  2
*Paper_Space
340
1E
  0
BLOCK_RECORD
  5
23
100
AcDbSymbolTableRecord
100
AcDbBlockTableRecord
  2
*Paper_Space0
340
26
  0
BLOCK_RECORD
  5
46
100
AcDbSymbolTableRecord
100
AcDbBlockTableRecord
  2
tux-0
340
0
  0
BLOCK_RECORD
  5
47
100
AcDbSymbolTableRecord
100
AcDbBlockTableRecord
  2
frame part 1-0
340
0
  0
BLOCK_RECORD
  5
48
100
AcDbSymbolTableRecord
100
AcDbBlockTableRecord
  2
frame part 1-1
340
0
  0
BLOCK_RECORD
  5
49
100
AcDbSymbolTableRecord
100
AcDbBlockTableRecord
  2
elongated_hole-0
340
0
  0
BLOCK_RECORD
  5
4A
100
AcDbSymbolTableRecord
100
AcDbBlockTableRecord
  2
elongated_hole-1
340
0
  0
BLOCK_RECORD
  5
4B
100
AcDbSymbolTableRecord
100
AcDbBlockTableRecord
  2
elongated_hole-2
340
0
  0
BLOCK_RECORD
  5
4C
100
AcDbSymbolTableRecord
100
AcDbBlockTableRecord
  2
elongated_hole-3
340
0
  0
BLOCK_RECORD
  5
4D
100
AcDbSymbolTableRecord
100
AcDbBlockTableRecord
  2
elongated_hole-4
340
0
  0
BLOCK_RECORD
  5
4E
100
AcDbSymbolTableRecord
100
AcDbBlockTableRecord
  2
elongated_hole-5
340
0
  0
BLOCK_RECORD
  5
4F
100
AcDbSymbolTableRecord
100
AcDbBlockTableRecord
  2
elongated_hole-6
340
0
  0
BLOCK_RECORD
  5
50
100
AcDbSymbolTableRecord
100
AcDbBlockTableRecord
  2
elongated_hole-7
340
0
  0
BLOCK_RECORD
  5
51
100
AcDbSymbolTableRecord
100
AcDbBlockTableRecord
  2
elongated_hole-8
340
0
  0
BLOCK_RECORD
  5
52
100
AcDbSymbolTableRecord
100
AcDbBlockTableRecord
  2
elongated_hole-9
340
0
  0
BLOCK_RECORD
  5
53
100
AcDbSymbolTableRecord
100
AcDbBlockTableRecord
  2
elongated_hole-10
340
0
  0
BLOCK_RECORD
  5
54
100
AcDbSymbolTableRecord
100
AcDbBlockTableRecord
  2
elongated_hole-11
340
0
  0
BLOCK_RECORD
  5
55
100
AcDbSymbolTableRecord
100
AcDbBlockTableRecord
  2
elongated_hole-12
340
0
  0
BLOCK_RECORD
  5
56
100
AcDbSymbolTableRecord
100
AcDbBlockTableRecord
  2
elongated_hole-13
340
0
  0
BLOCK_RECORD
  5
57
100
AcDbSymbolTableRecord
100
AcDbBlockTableRecord
  2
elongated_hole-14
340
0
  0
BLOCK_RECORD
  5
58
100
AcDbSymbolTableRecord
100
AcDbBlockTableRecord
  2
elongated_hole-15
340
0
  0
BLOCK_RECORD
  5
59
100
AcDbSymbolTableRecord
100
AcDbBlockTableRecord
  2
elongated_hole-16
340
0
  0
BLOCK_RECORD
  5
5A
100
AcDbSymbolTableRecord
100
AcDbBlockTableRecord
  2
elongated_hole-17
340
0
  0
BLOCK_RECORD
  5
5B
100
AcDbSymbolTableRecord
100
AcDbBlockTableRecord
  2
elongated_hole-18
340
0
  0
BLOCK_RECORD
  5
5C
100
AcDbSymbolTableRecord
100
AcDbBlockTableRecord
  2
elongated_hole-19
340
0
  0
BLOCK_RECORD
  5
5D
100
AcDbSymbolTableRecord
100
AcDbBlockTableRecord
  2
elongated_hole-20
340
0
  0
BLOCK_RECORD
  5
5E
100
AcDbSymbolTableRecord
100
AcDbBlockTableRecord
  2
elongated_hole-21
340
0
  0
BLOCK_RECORD
  5
5F
100
AcDbSymbolTableRecord
100
AcDbBlockTableRecord
  2
elongated_hole-22
340
0
  0
BLOCK_RECORD
  5
60
100
AcDbSymbolTableRecord
100
AcDbBlockTableRecord
  2
elongated_hole-23
340
0
  0
BLOCK_RECORD
  5
61
100
AcDbSymbolTableRecord
100
AcDbBlockTableRecord
  2
elongated_hole-24
340
0
  0
BLOCK_RECORD
  5
62
100
AcDbSymbolTableRecord
100
AcDbBlockTableRecord
  2
elongated_hole-25
340
0
  0
BLOCK_RECORD
  5
63
100
AcDbSymbolTableRecord
100
AcDbBlockTableRecord
  2
elongated_hole-26
340
0
  0
BLOCK_RECORD
  5
64
100
AcDbSymbolTableRecord
100
AcDbBlockTableRecord
  2
elongated_hole-27
340
0
  0
BLOCK_RECORD
  5
65
100
AcDbSymbolTableRecord
100
AcDbBlockTableRecord
  2
elongated_hole-28
340
0
  0
BLOCK_RECORD
  5
66
100
AcDbSymbolTableRecord
100
AcDbBlockTableRecord
  2
elongated_hole-29
340
0
  0
BLOCK_RECORD
  5
67
100
AcDbSymbolTableRecord
100
AcDbBlockTableRecord
  2
elongated_hole-30
340
0
  0
BLOCK_RECORD
  5
68
100
AcDbSymbolTableRecord
100
AcDbBlockTableRecord
  2
elongated_hole-31
340
0
  0
BLOCK_RECORD
  5
69
100
AcDbSymbolTableRecord
100
AcDbBlockTableRecord
  2
elongated_hole-32
340
0
  0
BLOCK_RECORD
  5
6A
100
AcDbSymbolTableRecord
100
AcDbBlockTableRecord
  2
elongated_hole-33
340
0
  0
BLOCK_RECORD
  5
6B
100
AcDbSymbolTableRecord
100
AcDbBlockTableRecord
  2
elongated_hole-34
340
0
  0
BLOCK_RECORD
  5
6C
100
AcDbSymbolTableRecord
100
AcDbBlockTableRecord
  2
elongated_hole-35
340
0
  0
BLOCK_RECORD
  5
6D
100
AcDbSymbolTableRecord
100
AcDbBlockTableRecord
  2
elongated_hole-36
340
0
  0
BLOCK_RECORD
  5
6E
100
AcDbSymbolTableRecord
100
AcDbBlockTableRecord
  2
elongated_hole-37
340
0
  0
BLOCK_RECORD
  5
6F
100
AcDbSymbolTableRecord
100
AcDbBlockTableRecord
  2
elongated_hole-38
340
0
  0
BLOCK_RECORD
  5
70
100
AcDbSymbolTableRecord
100
AcDbBlockTableRecord
  2
elongated_hole-39
340
0
  0
BLOCK_RECORD
  5
71
100
AcDbSymbolTableRecord
100
AcDbBlockTableRecord
  2
elongated_hole-40
340
0
  0
BLOCK_RECORD
  5
72
100
AcDbSymbolTableRecord
100
AcDbBlockTableRecord
  2
elongated_hole-41
340
0
  0
BLOCK_RECORD
  5
73
100
AcDbSymbolTableRecord
100
AcDbBlockTableRecord
  2
elongated_hole-42
340
0
  0
BLOCK_RECORD
  5
74
100
AcDbSymbolTableRecord
100
AcDbBlockTableRecord
  2
elongated_hole-43
340
0
  0
BLOCK_RECORD
  5
75
100
AcDbSymbolTableRecord
100
AcDbBlockTableRecord
  2
elongated_hole-44
340
0
  0
BLOCK_RECORD
  5
76
100
AcDbSymbolTableRecord
100
AcDbBlockTableRecord
  2
elongated_hole-45
340
0
  0
BLOCK_RECORD
  5
77
100
AcDbSymbolTableRecord
100
AcDbBlockTableRecord
  2
elongated_hole-46
340
0
  0
BLOCK_RECORD
  5
78
100
AcDbSymbolTableRecord
100
AcDbBlockTableRecord
  2
elongated_hole-47
340
0
  0
BLOCK_RECORD
  5
79
100
AcDbSymbolTableRecord
100
AcDbBlockTableRecord
  2
elongated_hole-48
340
0
  0
BLOCK_RECORD
  5
7A
100
AcDbSymbolTableRecord
100
AcDbBlockTableRecord
  2
elongated_hole-49
340
0
  0
BLOCK_RECORD
  5
7B
100
AcDbSymbolTableRecord
100
AcDbBlockTableRecord
  2
elongated_hole-50
340
0
  0
BLOCK_RECORD
  5
7C
100
AcDbSymbolTableRecord
100
AcDbBlockTableRecord
  2
elongated_hole-51
340
0
  0
BLOCK_RECORD
  5
7D
100
AcDbSymbolTableRecord
100
AcDbBlockTableRecord
  2
elongated_hole-52
340
0
  0
BLOCK_RECORD
  5
7E
100
AcDbSymbolTableRecord
100
AcDbBlockTableRecord
  2
L-F1-0
340
0
  0
BLOCK_RECORD
  5
7F
100
AcDbSymbolTableRecord
100
AcDbBlockTableRecord
  2
L-F2-0
340
0
  0
BLOCK_RECORD
  5
80
100
AcDbSymbolTableRecord
100
AcDbBlockTableRecord
  2
L-F3-0
340
0
  0
BLOCK_RECORD
  5
81
100
AcDbSymbolTableRecord
100
AcDbBlockTableRecord
  2
L-F3-1
340
0
  0
BLOCK_RECORD
  5
82
100
AcDbSymbolTableRecord
100
AcDbBlockTableRecord
  2
L-F3-2
340
0
  0
BLOCK_RECORD
  5
83
100
AcDbSymbolTableRecord
100
AcDbBlockTableRecord
  2
L-F3-3
340
0
  0
BLOCK_RECORD
  5
84
100
AcDbSymbolTableRecord
100
AcDbBlockTableRecord
  2
L-F1-1
340
0
  0
BLOCK_RECORD
  5
85
100
AcDbSymbolTableRecord
100
AcDbBlockTableRecord
  2
L-F2-1
340
0
  0
BLOCK_RECORD
  5
86
100
AcDbSymbolTableRecord
100
AcDbBlockTableRecord
  2
L-F4-0
340
0
  0
BLOCK_RECORD
  5
87
100
AcDbSymbolTableRecord
100
AcDbBlockTableRecord
  2
L-F4-1
340
0
  0
BLOCK_RECORD
  5
88
100
AcDbSymbolTableRecord
100
AcDbBlockTableRecord
  2
L-F3-4
340
0
  0
BLOCK_RECORD
  5
89
100
AcDbSymbolTableRecord
100
AcDbBlockTableRecord
  2
L-F3-5
340
0
  0
BLOCK_RECORD
  5
8A
100
AcDbSymbolTableRecord
100
AcDbBlockTableRecord
  2
L-F3-6
340
0
  0
BLOCK_RECORD
  5
8B
100
AcDbSymbolTableRecord
100
AcDbBlockTableRecord
  2
L-F3-7
340
0
  0
BLOCK_RECORD
  5
8C
100
AcDbSymbolTableRecord
100
AcDbBlockTableRecord
  2
L-F4-2
340
0
  0
BLOCK_RECORD
  5
8D
100
AcDbSymbolTableRecord
100
AcDbBlockTableRecord
  2
L-F4-3
340
0
  0
BLOCK_RECORD
  5
8E
100
AcDbSymbolTableRecord
100
AcDbBlockTableRecord
  2
L-F5-0
340
0
  0
BLOCK_RECORD
  5
8F
100
AcDbSymbolTableRecord
100
AcDbBlockTableRecord
  2
L-F5-1
340
0
  0
BLOCK_RECORD
  5
90
100
AcDbSymbolTableRecord
100
AcDbBlockTableRecord
  2
L-F6-0
340
0
  0
BLOCK_RECORD
  5
91
100
AcDbSymbolTableRecord
100
AcDbBlockTableRecord
  2
L-F6-1
340
0
  0
BLOCK_RECORD
  5
92
100
AcDbSymbolTableRecord
100
AcDbBlockTableRecord
  2
L-F6-2
340
0
  0
BLOCK_RECORD
  5
93
100
AcDbSymbolTableRecord
100
AcDbBlockTableRecord
  2
L-F6-3
340
0
  0
BLOCK_RECORD
  5
94
100
AcDbSymbolTableRecord
100
AcDbBlockTableRecord
  2
L-F6-4
340
0
  0
BLOCK_RECORD
  5
95
100
AcDbSymbolTableRecord
100
AcDbBlockTableRecord
  2
L-F6-5
340
0
  0
BLOCK_RECORD
  5
96
100
AcDbSymbolTableRecord
100
AcDbBlockTableRecord
  2
L-F7-0
340
0
  0
BLOCK_RECORD
  5
97
100
AcDbSymbolTableRecord
100
AcDbBlockTableRecord
  2
L-F7-1
340
0
  0
BLOCK_RECORD
  5
98
100
AcDbSymbolTableRecord
100
AcDbBlockTableRecord
  2
L-F8-0
340
0
  0
BLOCK_RECORD
  5
99
100
AcDbSymbolTableRecord
100
AcDbBlockTableRecord
  2
L-F9-0
340
0
  0
BLOCK_RECORD
  5
9A
100
AcDbSymbolTableRecord
100
AcDbBlockTableRecord
  2
L-F9-1
340
0
  0
BLOCK_RECORD
  5
9B
100
AcDbSymbolTableRecord
100
AcDbBlockTableRecord
  2
L-F10-0
340
0
  0
BLOCK_RECORD
  5
9C
100
AcDbSymbolTableRecord
100
AcDbBlockTableRecord
  2
L-F10-1
340
0
  0
BLOCK_RECORD
  5
9D
100
AcDbSymbolTableRecord
100
AcDbBlockTableRecord
  2
L-F11-0
340
0
  0
BLOCK_RECORD
  5
9E
100
AcDbSymbolTableRecord
100
AcDbBlockTableRecord
  2
L-F11-1
340
0
  0
ENDTAB
  0
ENDSEC
  0
SECTION
  2
BLOCKS
  0
BLOCK
  5
20
100
AcDbEntity
  8
0
100
AcDbBlockBegin
  2
*Model_Space
 70
0
 10
0.0
 20
0.0
 30
0.0
  3
*Model_Space
  1

  0
ENDBLK
  5
21
100
AcDbEntity
  8
0
100
AcDbBlockEnd
  0
BLOCK
  5
1C
100
AcDbEntity
 67
1
  8
0
100
AcDbBlockBegin
  2
*Paper_Space
 70
0
 10
0.0
 20
0.0
 30
0.0
  3
*Paper_Space
  1

  0
ENDBLK
  5
1D
100
AcDbEntity
 67
1
  8
0
100
AcDbBlockEnd
  0
BLOCK
  5
24
100
AcDbEntity
  8
0
100
AcDbBlockBegin
  2
*Paper_Space0
 70
0
 10
0.0
 20
0.0
 30
0.0
  3
*Paper_Space0
  1

  0
ENDBLK
  5
25
100
AcDbEntity
  8
0
100
AcDbBlockEnd
  0
BLOCK
  5
9F
100
AcDbEntity
  8
0
100
AcDbBlockBegin
  2
tux-0
 70
0
 10
0.0
 20
0.0
 30
0.0
  3
tux-0
  1

  0
ARC
  5
A0
100
AcDbEntity
  8
0
 62
0
370
0
  6
CONTINUOUS
100
AcDbCircle
 10
0.5010635826771654
 20
1.0395522440944873
 30
0.0
 40
0.1547981102362205
100
AcDbArc
 50
105.1414259999999956
 51
177.1518250000000023
  0
ARC
  5
A1
100
AcDbEntity
  8
0
 62
0
370
0
  6
CONTINUOUS
100
AcDbCircle
 10
0.507005393700787
 20
1.004106614173228
 30
0.0
 40
0.1905977952755906
100
AcDbArc
 50
39.7507739999999998
 51
104.082335999999998
  0
ARC
  5
A2
100
AcDbEntity
  8
0
 62
0
370
0
  6
CONTINUOUS
100
AcDbCircle
 10
0.3230251574803162
 20
0.9427863779527552
 30
0.0
 40
0.377893779527559
100
AcDbArc
 50
1.511741
 51
28.9984949999999984
  0
ARC
  5
A3
100
AcDbEntity
  8
0
 62
0
370
0
  6
CONTINUOUS
100
AcDbCircle
 10
0.8422735826771657
 20
0.9180610236220481
 30
0.0
 40
0.145678031496063
100
AcDbArc
 50
166.2219540000000109
 51
199.2306670000000111
  0
ARC
  5
A4
100
AcDbEntity
  8
0
 62
0
370
0
  6
CONTINUOUS
100
AcDbCircle
 10
1.1158181889763767
 20
0.977537480314961
 30
0.0
 40
0.4249063779527559
100
AcDbArc
 50
194.649169999999998
 51
215.9062649999999906
  0
ARC
  5
A5
100
AcDbEntity
  8
0
 62
0
370
0
  6
CONTINUOUS
100
AcDbCircle
 10
0.5633858267716541
 20
0.4649606299212596
 30
0.0
 40
0.3357790157480315
100
AcDbArc
 50
27.1358870000000003
 51
51.6654359999999997
  0
ARC
  5
A6
100
AcDbEntity
  8
0
 62
0
370
0
  6
CONTINUOUS
100
AcDbCircle
 10
0.4035433070866148
 20
0.4232283464566926
 30
0.0
 40
0.4983464960629921
100
AcDbArc
 50
7.4899529999999999
 51
23.0202850000000012
  0
ARC
  5
A7
100
AcDbEntity
  8
0
 62
0
370
0
  6
CONTINUOUS
100
AcDbCircle
 10
0.7392768503937006
 20
0.4408024409448821
 30
0.0
 40
0.1652987401574803
100
AcDbArc
 50
310.4211429999999723
 51
16.6588290000000008
  0
ARC
  5
A8
100
AcDbEntity
  8
0
 62
0
370
0
  6
CONTINUOUS
100
AcDbCircle
 10
0.8032937007873997
 20
0.3712790551181104
 30
0.0
 40
0.0709564173228346
100
AcDbArc
 50
218.8475039999999865
 51
307.4669489999999996
  0
ARC
  5
A9
100
AcDbEntity
  8
0
 62
0
370
0
  6
CONTINUOUS
100
AcDbCircle
 10
0.812305551181101
 20
0.3425679527559051
 30
0.0
 40
0.0661866929133858
100
AcDbArc
 50
50.583835999999998
 51
193.8076320000000123
  0
ARC
  5
AA
100
AcDbEntity
  8
0
 62
0
370
0
  6
CONTINUOUS
100
AcDbCircle
 10
1.0012303149606296
 20
0.3262795275590555
 30
0.0
 40
0.0924768110236221
100
AcDbArc
 50
187.0304720000000032
 51
222.5198059999999884
  0
ARC
  5
AB
100
AcDbEntity
  8
0
 62
0
370
0
  6
CONTINUOUS
100
AcDbCircle
 10
1.1210629921259851
 20
0.4552165354330704
 30
0.0
 40
0.2683079527559055
100
AcDbArc
 50
225.5201869999999928
 51
239.3426360000000273
  0
ARC
  5
AC
100
AcDbEntity
  8
0
 62
0
370
0
  6
CONTINUOUS
100
AcDbCircle
 10
0.9699803543307084
 20
0.1968503937007871
 30
0.0
 40
0.031035157480315
100
AcDbArc
 50
297.3777160000000208
 51
62.6222950000000012
  0
ARC
  5
AD
100
AcDbEntity
  8
0
 62
0
370
0
  6
CONTINUOUS
100
AcDbCircle
 10
1.0871062598425212
 20
-0.2172735826771657
 30
0.0
 40
0.3852020866141733
100
AcDbArc
 50
119.4634250000000009
 51
136.6306610000000035
  0
ARC
  5
AE
100
AcDbEntity
  8
0
 62
0
370
0
  6
CONTINUOUS
100
AcDbCircle
 10
0.7463392913385825
 20
0.114138700787402
 30
0.0
 40
0.0903611023622047
100
AcDbArc
 50
211.4970399999999984
 51
312.2427670000000148
  0
ARC
  5
AF
100
AcDbEntity
  8
0
 62
0
370
0
  6
CONTINUOUS
100
AcDbCircle
 10
0.8179826771653538
 20
0.116807125984252
 30
0.0
 40
0.156834094488189
100
AcDbArc
 50
157.3653260000000103
 51
198.5438540000000103
  0
ARC
  5
B0
100
AcDbEntity
  8
0
 62
0
370
0
  6
CONTINUOUS
100
AcDbCircle
 10
0.1259842519685037
 20
0.2834645669291334
 30
0.0
 40
0.5574725196850394
100
AcDbArc
 50
349.0074769999999944
 51
5.2676970000000001
  0
ARC
  5
B1
100
AcDbEntity
  8
0
 62
0
370
0
  6
CONTINUOUS
100
AcDbCircle
 10
0.7027559055118111
 20
0.3484251968503944
 30
0.0
 40
0.0256661417322835
100
AcDbArc
 50
57.5288090000000096
 51
212.4711910000000046
  0
ARC
  5
B2
100
AcDbEntity
  8
0
 62
0
370
0
  6
CONTINUOUS
100
AcDbCircle
 10
0.2381889763779519
 20
0.25
 30
0.0
 40
0.2004590551181102
100
AcDbArc
 50
162.2767639999999858
 51
187.3343810000000076
  0
ARC
  5
B3
100
AcDbEntity
  8
0
 62
0
370
0
  6
CONTINUOUS
100
AcDbCircle
 10
0.1922742519685023
 20
0.3533848031496056
 30
0.0
 40
0.0404506299212598
100
AcDbArc
 50
37.3985860000000017
 51
149.33433500000001
  0
ARC
  5
B4
100
AcDbEntity
  8
0
 62
0
370
0
  6
CONTINUOUS
100
AcDbCircle
 10
-0.4921259842519703
 20
-0.2362204724409445
 30
0.0
 40
0.9437329133858268
100
AcDbArc
 50
26.7788390000000014
 51
40.6012950000000004
  0
ARC
  5
B5
100
AcDbEntity
  8
0
 62
0
370
0
  6
CONTINUOUS
100
AcDbCircle
 10
0.3054930708661416
 20
0.1137045275590545
 30
0.0
 40
0.0876465354330709
100
AcDbArc
 50
321.4263310000000047
 51
59.1833719999999985
  0
ARC
  5
B6
100
AcDbEntity
  8
0
 62
0
370
0
  6
CONTINUOUS
100
AcDbCircle
 10
0.308680157480314
 20
0.1109861417322833
 30
0.0
 40
0.0834599606299213
100
AcDbArc
 50
234.1855319999999665
 51
321.5210880000000202
  0
ARC
  5
B7
100
AcDbEntity
  8
0
 62
0
370
0
  6
CONTINUOUS
100
AcDbCircle
 10
0.4143700787401592
 20
0.3223425196850389
 30
0.0
 40
0.2833573228346457
100
AcDbArc
 50
140.143462999999997
 51
156.9974060000000122
  0
ARC
  5
B8
100
AcDbEntity
  8
0
 62
0
370
0
  6
CONTINUOUS
100
AcDbCircle
 10
-0.1496062992125999
 20
0.6665657086614178
 30
0.0
 40
0.3827274803149606
100
AcDbArc
 50
334.8543700000000172
 51
350.9401550000000043
  0
ARC
  5
B9
100
AcDbEntity
  8
0
 62
0
370
0
  6
CONTINUOUS
100
AcDbCircle
 10
0.4150262598425201
 20
0.5544619291338577
 30
0.0
 40
0.1937432677165354
100
AcDbArc
 50
136.0291599999999903
 51
164.481078999999994
  0
ARC
  5
BA
100
AcDbEntity
  8
0
 62
0
370
0
  6
CONTINUOUS
100
AcDbCircle
 10
-0.0787401574803148
 20
1.0242782283464571
 30
0.0
 40
0.4878294488188976
100
AcDbArc
 50
316.5805359999999951
 51
328.811554000000001
  0
ARC
  5
BB
100
AcDbEntity
  8
0
 62
0
370
0
  6
CONTINUOUS
100
AcDbCircle
 10
0.253444881889763
 20
0.8307086614173222
 30
0.0
 40
0.1036144488188976
100
AcDbArc
 50
325.2532039999999824
 51
13.178191
  0
ARC
  5
BC
100
AcDbEntity
  8
0
 62
0
370
0
  6
CONTINUOUS
100
AcDbCircle
 10
58.3208651968503915
 20
3.3169291338582667
 30
0.0
 40
58.018822874015747
100
AcDbArc
 50
182.241973999999999
 51
182.4326320000000123
  0
ARC
  5
BD
100
AcDbEntity
  8
0
 62
0
370
0
  6
CONTINUOUS
100
AcDbCircle
 10
0.4555992913385829
 20
0.4144794488188985
 30
0.0
 40
0.2802794094488189
100
AcDbArc
 50
289.0853579999999852
 51
323.5682980000000271
  0
ARC
  5
BE
100
AcDbEntity
  8
0
 62
0
370
0
  6
CONTINUOUS
100
AcDbCircle
 10
1.0686321653543303
 20
1.1897062204724413
 30
0.0
 40
1.1466328740157481
100
AcDbArc
 50
220.5095829999999921
 51
232.2182620000000099
  0
ARC
  5
BF
100
AcDbEntity
  8
0
 62
0
370
0
  6
CONTINUOUS
100
AcDbCircle
 10
0.6240157480314963
 20
0.4822834645669296
 30
0.0
 40
0.1872666929133858
100
AcDbArc
 50
3.012788
 51
56.1428909999999988
  0
ARC
  5
C0
100
AcDbEntity
  8
0
 62
0
370
0
  6
CONTINUOUS
100
AcDbCircle
 10
0.4173228346456703
 20
0.8031496062992129
 30
0.0
 40
0.0393700787401575
100
AcDbArc
 50
143.1300960000000089
 51
216.8699039999999911
  0
ARC
  5
C1
100
AcDbEntity
  8
0
 62
0
370
0
  6
CONTINUOUS
100
AcDbCircle
 10
0.7441882677165346
 20
0.4993438188976373
 30
0.0
 40
0.4548910236220473
100
AcDbArc
 50
141.9800419999999974
 51
155.3625790000000109
  0
ARC
  5
C2
100
AcDbEntity
  8
0
 62
0
370
0
  6
CONTINUOUS
100
AcDbCircle
 10
0.366141732283463
 20
0.6633858267716537
 30
0.0
 40
0.043707874015748
100
AcDbArc
 50
144.1623539999999934
 51
215.8376460000000066
  0
ARC
  5
C3
100
AcDbEntity
  8
0
 62
0
370
0
  6
CONTINUOUS
100
AcDbCircle
 10
0.5403543307086629
 20
0.4301181102362204
 30
0.0
 40
0.2950950787401575
100
AcDbArc
 50
135.2702639999999974
 51
187.8598479999999995
  0
ARC
  5
C4
100
AcDbEntity
  8
0
 62
0
370
0
  6
CONTINUOUS
100
AcDbCircle
 10
0.2832458267716547
 20
0.575896771653543
 30
0.0
 40
0.4014991338582677
100
AcDbArc
 50
11.1507780000000007
 51
32.4520419999999987
  0
ARC
  5
C5
100
AcDbEntity
  8
0
 62
0
370
0
  6
CONTINUOUS
100
AcDbCircle
 10
0.5964566929133852
 20
0.8031496062992129
 30
0.0
 40
0.0281846850393701
100
AcDbArc
 50
335.2248539999999934
 51
77.9052429999999987
  0
ARC
  5
C6
100
AcDbEntity
  8
0
 62
0
370
0
  6
CONTINUOUS
100
AcDbCircle
 10
1.2792167322834658
 20
0.4182552755905515
 30
0.0
 40
0.8620211811023621
100
AcDbArc
 50
172.1873779999999954
 51
185.5660100000000057
  0
ARC
  5
C7
100
AcDbEntity
  8
0
 62
0
370
0
  6
CONTINUOUS
100
AcDbCircle
 10
0.5067879527559072
 20
0.3817540157480313
 30
0.0
 40
0.2736855118110236
100
AcDbArc
 50
44.8593219999999988
 51
78.1493990000000025
  0
ARC
  5
C8
100
AcDbEntity
  8
0
 62
0
370
0
  6
CONTINUOUS
100
AcDbCircle
 10
0.6677165354330725
 20
0.3125984251968497
 30
0.0
 40
0.3529044094488189
100
AcDbArc
 50
91.6621319999999997
 51
107.262512000000001
  0
ARC
  5
C9
100
AcDbEntity
  8
0
 62
0
370
0
  6
CONTINUOUS
100
AcDbCircle
 10
0.4116360629921267
 20
0.9796587795275595
 30
0.0
 40
0.0374654724409449
100
AcDbArc
 50
7.0420389999999999
 51
154.0333100000000002
  0
ARC
  5
CA
100
AcDbEntity
  8
0
 62
0
370
0
  6
CONTINUOUS
100
AcDbCircle
 10
0.3857231496062994
 20
0.7043099999999995
 30
0.0
 40
0.0509272440944882
100
AcDbArc
 50
202.2343140000000119
 51
274.5506899999999746
  0
ARC
  5
CB
100
AcDbEntity
  8
0
 62
0
370
0
  6
CONTINUOUS
100
AcDbCircle
 10
0.5925196850393704
 20
0.1496062992125982
 30
0.0
 40
0.5431965354330709
100
AcDbArc
 50
111.9170840000000027
 51
121.2130200000000002
  0
ARC
  5
CC
100
AcDbEntity
  8
0
 62
0
370
0
  6
CONTINUOUS
100
AcDbCircle
 10
0.3570657086614162
 20
0.2504180708661412
 30
0.0
 40
0.034270157480315
100
AcDbArc
 50
278.6243590000000268
 51
74.6427000000000049
  0
ARC
  5
CD
100
AcDbEntity
  8
0
 62
0
370
0
  6
CONTINUOUS
100
AcDbCircle
 10
0.1961942125984244
 20
0.4133858267716537
 30
0.0
 40
0.0469744881889764
100
AcDbArc
 50
155.2248539999999934
 51
224.0770870000000059
  0
ARC
  5
CE
100
AcDbEntity
  8
0
 62
0
370
0
  6
CONTINUOUS
100
AcDbCircle
 10
-0.036460118110238
 20
0.1980486220472439
 30
0.0
 40
0.0802814566929134
100
AcDbArc
 50
314.2632449999999835
 51
19.1689760000000007
  0
ARC
  5
CF
100
AcDbEntity
  8
0
 62
0
370
0
  6
CONTINUOUS
100
AcDbCircle
 10
0.0466816535433061
 20
0.1338582677165352
 30
0.0
 40
0.027923937007874
100
AcDbArc
 50
166.1223300000000052
 51
279.2726139999999759
  0
ARC
  5
D0
100
AcDbEntity
  8
0
 62
0
370
0
  6
CONTINUOUS
100
AcDbCircle
 10
0.6011508267716543
 20
1.5295275590551185
 30
0.0
 40
1.5257934645669291
100
AcDbArc
 50
248.8722689999999886
 51
256.9222720000000209
  0
ARC
  5
D1
100
AcDbEntity
  8
0
 62
0
370
0
  6
CONTINUOUS
100
AcDbCircle
 10
0.1091113779527575
 20
0.3742969685039377
 30
0.0
 40
0.0483697637795276
100
AcDbArc
 50
261.5655820000000062
 51
359.6669009999999957
  0
ARC
  5
D2
100
AcDbEntity
  8
0
 62
0
370
0
  6
CONTINUOUS
100
AcDbCircle
 10
0.1117903149606292
 20
0.1868006692913387
 30
0.0
 40
0.1399912598425197
100
AcDbArc
 50
94.0034409999999951
 51
117.4563749999999942
  0
ARC
  5
D3
100
AcDbEntity
  8
0
 62
0
370
0
  6
CONTINUOUS
100
AcDbCircle
 10
0.5275590551181111
 20
-0.5182086614173222
 30
0.0
 40
0.608810748031496
100
AcDbArc
 50
76.9185939999999988
 51
103.7120359999999977
  0
ARC
  5
D4
100
AcDbEntity
  8
0
 62
0
370
0
  6
CONTINUOUS
100
AcDbCircle
 10
0.4764150787401569
 20
0.3560763779527552
 30
0.0
 40
0.2182811023622047
100
AcDbArc
 50
243.6871949999999742
 51
288.9343870000000152
  0
ARC
  5
D5
100
AcDbEntity
  8
0
 62
0
370
0
  6
CONTINUOUS
100
AcDbCircle
 10
0.8631889370078731
 20
0.3277559055118111
 30
0.0
 40
0.047996811023622
100
AcDbArc
 50
344.5387880000000109
 51
58.7759480000000067
  0
ARC
  5
D6
100
AcDbEntity
  8
0
 62
0
370
0
  6
CONTINUOUS
100
AcDbCircle
 10
0.460137795275589
 20
0.5263287401574797
 30
0.0
 40
0.3525488582677165
100
AcDbArc
 50
339.9261169999999765
 51
354.4326479999999719
  0
ARC
  5
D7
100
AcDbEntity
  8
0
 62
0
370
0
  6
CONTINUOUS
100
AcDbCircle
 10
0.4202546456692922
 20
0.4620539370078731
 30
0.0
 40
0.3204236220472441
100
AcDbArc
 50
341.8895259999999894
 51
36.6991420000000019
  0
ARC
  5
D8
100
AcDbEntity
  8
0
 62
0
370
0
  6
CONTINUOUS
100
AcDbCircle
 10
0.7572740157480311
 20
0.4059407086614168
 30
0.0
 40
0.0542744094488189
100
AcDbArc
 50
221.3573000000000093
 51
258.9743040000000178
  0
ARC
  5
D9
100
AcDbEntity
  8
0
 62
0
370
0
  6
CONTINUOUS
100
AcDbCircle
 10
0.4673057086614172
 20
0.4440260236220475
 30
0.0
 40
0.2507717322834646
100
AcDbArc
 50
138.4866330000000119
 51
185.2003170000000125
  0
ARC
  5
DA
100
AcDbEntity
  8
0
 62
0
370
0
  6
CONTINUOUS
100
AcDbCircle
 10
0.5382270866141745
 20
0.9570738976377946
 30
0.0
 40
0.0763148818897638
100
AcDbArc
 50
311.9663699999999835
 51
62.0284580000000076
  0
ARC
  5
DB
100
AcDbEntity
  8
0
 62
0
370
0
  6
CONTINUOUS
100
AcDbCircle
 10
0.4763779527559038
 20
0.8937007874015741
 30
0.0
 40
0.0474078346456693
100
AcDbArc
 50
30.362410999999998
 51
138.366455000000002
  0
ARC
  5
DC
100
AcDbEntity
  8
0
 62
0
370
0
  6
CONTINUOUS
100
AcDbCircle
 10
0.4087926377952762
 20
0.8581739763779535
 30
0.0
 40
0.0389042125984252
100
AcDbArc
 50
116.2053449999999941
 51
233.8203739999999584
  0
ARC
  5
DD
100
AcDbEntity
  8
0
 62
0
370
0
  6
CONTINUOUS
100
AcDbCircle
 10
0.4872047244094482
 20
0.8001968503937
 30
0.0
 40
0.1332853149606299
100
AcDbArc
 50
110.308441000000002
 51
135.8235019999999906
  0
ARC
  5
DE
100
AcDbEntity
  8
0
 62
0
370
0
  6
CONTINUOUS
100
AcDbCircle
 10
0.368110236220474
 20
0.9704724409448815
 30
0.0
 40
0.0818764960629921
100
AcDbArc
 50
324.2603760000000079
 51
9.6887869999999996
  0
ARC
  5
DF
100
AcDbEntity
  8
0
 62
0
370
0
  6
CONTINUOUS
100
AcDbCircle
 10
0.4913631889763792
 20
0.9471127165354325
 30
0.0
 40
0.1235235039370079
100
AcDbArc
 50
156.6539919999999881
 51
208.8717800000000011
  0
ARC
  5
E0
100
AcDbEntity
  8
0
 62
0
370
0
  6
CONTINUOUS
100
AcDbCircle
 10
0.5203796062992119
 20
0.7735824409448817
 30
0.0
 40
0.1441147244094488
100
AcDbArc
 50
62.6389619999999994
 51
91.2309800000000024
  0
ARC
  5
E1
100
AcDbEntity
  8
0
 62
0
370
0
  6
CONTINUOUS
100
AcDbCircle
 10
0.6009688582677164
 20
0.9792088976377951
 30
0.0
 40
0.1016700393700787
100
AcDbArc
 50
188.8350680000000068
 51
217.2301030000000139
  0
ARC
  5
E2
100
AcDbEntity
  8
0
 62
0
370
0
  6
CONTINUOUS
100
AcDbCircle
 10
0.5557132283464554
 20
0.9717542519685036
 30
0.0
 40
0.0558079527559055
100
AcDbArc
 50
70.8492889999999989
 51
190.299209999999988
  0
ARC
  5
E3
100
AcDbEntity
  8
0
 62
0
370
0
  6
CONTINUOUS
100
AcDbCircle
 10
0.4061421259842533
 20
0.9626143307086608
 30
0.0
 40
0.0118110236220472
100
AcDbArc
 50
63.3159940000000034
 51
150.1225589999999954
  0
ARC
  5
E4
100
AcDbEntity
  8
0
 62
0
370
0
  6
CONTINUOUS
100
AcDbCircle
 10
0.3959801181102378
 20
0.9423953543307082
 30
0.0
 40
0.0344400393700787
100
AcDbArc
 50
344.2913510000000201
 51
63.3159940000000034
  0
ARC
  5
E5
100
AcDbEntity
  8
0
 62
0
370
0
  6
CONTINUOUS
100
AcDbCircle
 10
0.4370078740157481
 20
0.9448818897637796
 30
0.0
 40
0.0474078346456693
100
AcDbArc
 50
150.1225589999999954
 51
232.2633209999999906
  0
ARC
  5
E6
100
AcDbEntity
  8
0
 62
0
370
0
  6
CONTINUOUS
100
AcDbCircle
 10
0.5595619291338565
 20
0.9679348425196856
 30
0.0
 40
0.0118110236220472
100
AcDbArc
 50
46.3694460000000035
 51
103.1804280000000063
  0
ARC
  5
E7
100
AcDbEntity
  8
0
 62
0
370
0
  6
CONTINUOUS
100
AcDbCircle
 10
0.5649606299212593
 20
0.9448818897637796
 30
0.0
 40
0.0354877165354331
100
AcDbArc
 50
103.1804280000000063
 51
235.6251679999999737
  0
ARC
  5
E8
100
AcDbEntity
  8
0
 62
0
370
0
  6
CONTINUOUS
100
AcDbCircle
 10
0.5413385826771666
 20
0.9488188976377963
 30
0.0
 40
0.0382214173228346
100
AcDbArc
 50
291.8327939999999785
 51
46.3694460000000035
  0
ARC
  5
E9
100
AcDbEntity
  8
0
 62
0
370
0
  6
CONTINUOUS
100
AcDbCircle
 10
0.5884063779527544
 20
0.8448694094488189
 30
0.0
 40
0.0118110236220472
100
AcDbArc
 50
294.0325930000000199
 51
308.9663090000000238
  0
ARC
  5
EA
100
AcDbEntity
  8
0
 62
0
370
0
  6
CONTINUOUS
100
AcDbCircle
 10
0.5714285826771643
 20
0.8658605118110234
 30
0.0
 40
0.0388086614173228
100
AcDbArc
 50
308.9663090000000238
 51
66.9649579999999958
  0
ARC
  5
EB
100
AcDbEntity
  8
0
 62
0
370
0
  6
CONTINUOUS
100
AcDbCircle
 10
0.4325924015748015
 20
0.8303139370078743
 30
0.0
 40
0.0118110236220472
100
AcDbArc
 50
244.8093409999999892
 51
261.6190189999999802
  0
ARC
  5
EC
100
AcDbEntity
  8
0
 62
0
370
0
  6
CONTINUOUS
100
AcDbCircle
 10
0.5034001574803142
 20
0.9808518110236228
 30
0.0
 40
0.1781702362204724
100
AcDbArc
 50
225.2441560000000038
 51
244.8093409999999892
  0
ARC
  5
ED
100
AcDbEntity
  8
0
 62
0
370
0
  6
CONTINUOUS
100
AcDbCircle
 10
0.5169494094488201
 20
0.8239638582677173
 30
0.0
 40
0.0118110236220472
100
AcDbArc
 50
110.9201199999999972
 51
120.3219600000000042
  0
ARC
  5
EE
100
AcDbEntity
  8
0
 62
0
370
0
  6
CONTINUOUS
100
AcDbCircle
 10
0.4488188976377963
 20
0.9404527559055111
 30
0.0
 40
0.1231387401574803
100
AcDbArc
 50
261.6190189999999802
 51
300.32195999999999
  0
ARC
  5
EF
100
AcDbEntity
  8
0
 62
0
370
0
  6
CONTINUOUS
100
AcDbCircle
 10
0.3889201181102351
 20
1.1588864173228348
 30
0.0
 40
0.3467480708661417
100
AcDbArc
 50
290.9201350000000161
 51
304.7597959999999944
  0
ARC
  5
F0
100
AcDbEntity
  8
0
 62
0
370
0
  6
CONTINUOUS
100
AcDbCircle
 10
0.4480126377952764
 20
0.8184472834645664
 30
0.0
 40
0.0393700787401575
100
AcDbArc
 50
218.7462920000000111
 51
251.5650789999999688
  0
ARC
  5
F1
100
AcDbEntity
  8
0
 62
0
370
0
  6
CONTINUOUS
100
AcDbCircle
 10
0.4704724409448815
 20
0.8858267716535426
 30
0.0
 40
0.1103942913385827
100
AcDbArc
 50
251.5650789999999688
 51
291.9911190000000261
  0
ARC
  5
F2
100
AcDbEntity
  8
0
 62
0
370
0
  6
CONTINUOUS
100
AcDbCircle
 10
0.2106299212598408
 20
0.6279527559055111
 30
0.0
 40
0.2649960236220472
100
AcDbArc
 50
38.7462919999999968
 51
48.6138800000000018
  0
ARC
  5
F3
100
AcDbEntity
  8
0
 62
0
370
0
  6
CONTINUOUS
100
AcDbCircle
 10
0.7479983858267722
 20
0.4943868503937008
 30
0.0
 40
0.3732966141732283
100
AcDbArc
 50
114.4963300000000004
 51
129.2501070000000141
  0
ARC
  5
F4
100
AcDbEntity
  8
0
 62
0
370
0
  6
CONTINUOUS
100
AcDbCircle
 10
0.3520882677165353
 20
0.3619355905511803
 30
0.0
 40
0.1457516929133858
100
AcDbArc
 50
263.5004579999999805
 51
273.9800420000000258
  0
ARC
  5
F5
100
AcDbEntity
  8
0
 62
0
370
0
  6
CONTINUOUS
100
AcDbCircle
 10
1.1394008267716522
 20
-0.1921476771653552
 30
0.0
 40
0.3933310629921259
100
AcDbArc
 50
113.2315830000000005
 51
127.926872000000003
  0
ARC
  5
F6
100
AcDbEntity
  8
0
 62
0
370
0
  6
CONTINUOUS
100
AcDbCircle
 10
0.3585421653543293
 20
0.9448791732283457
 30
0.0
 40
0.0715724803149606
100
AcDbArc
 50
337.9531559999999786
 51
350.5036929999999984
  0
ENDBLK
  5
F7
100
AcDbEntity
  8
0
100
AcDbBlockEnd
  0
BLOCK
  5
F8
100
AcDbEntity
  8
0
100
AcDbBlockBegin
  2
frame part 1-0
 70
0
 10
0.0
 20
0.0
 30
0.0
  3
frame part 1-0
  1

  0
ENDBLK
  5
F9
100
AcDbEntity
  8
0
100
AcDbBlockEnd
  0
BLOCK
  5
FA
100
AcDbEntity
  8
0
100
AcDbBlockBegin
  2
frame part 1-1
 70
0
 10
0.0
 20
0.0
 30
0.0
  3
frame part 1-1
  1

  0
ENDBLK
  5
FB
100
AcDbEntity
  8
0
100
AcDbBlockEnd
  0
BLOCK
  5
FC
100
AcDbEntity
  8
0
100
AcDbBlockBegin
  2
elongated_hole-0
 70
0
 10
0.0
 20
0.0
 30
0.0
  3
elongated_hole-0
  1

  0
ARC
  5
FD
100
AcDbEntity
  8
0
 62
1
370
-1
  6
CONTINUOUS
100
AcDbCircle
 10
-0.035816677078337
 20
0.320775380184152
 30
0.0
 40
0.3799999999999955
100
AcDbArc
 50
0.0
 51
179.999999999999801
  0
ARC
  5
FE
100
AcDbEntity
  8
0
 62
1
370
-1
  6
CONTINUOUS
100
AcDbCircle
 10
-0.035816677078337
 20
-0.439224619815846
 30
0.0
 40
0.3799999999999955
100
AcDbArc
 50
180.000000000000199
 51
0.0
  0
LINE
  5
FF
100
AcDbEntity
100
AcDbLine
  8
0
 62
1
370
-1
  6
CONTINUOUS
 10
-0.4158166770783325
 20
0.3207753801841537
 30
0.0
 11
-0.4158166770783325
 21
-0.4392246198158478
 31
0.0
  0
LINE
  5
100
100
AcDbEntity
100
AcDbLine
  8
0
 62
1
370
-1
  6
CONTINUOUS
 10
0.3441833229216655
 20
-0.439224619815846
 30
0.0
 11
0.3441833229216655
 21
0.320775380184152
 31
0.0
  0
ENDBLK
  5
101
100
AcDbEntity
  8
0
100
AcDbBlockEnd
  0
BLOCK
  5
102
100
AcDbEntity
  8
0
100
AcDbBlockBegin
  2
elongated_hole-1
 70
0
 10
0.0
 20
0.0
 30
0.0
  3
elongated_hole-1
  1

  0
ARC
  5
103
100
AcDbEntity
  8
0
 62
1
370
-1
  6
CONTINUOUS
100
AcDbCircle
 10
-0.035816677078337
 20
0.320775380184152
 30
0.0
 40
0.3799999999999955
100
AcDbArc
 50
0.0
 51
179.999999999999801
  0
ARC
  5
104
100
AcDbEntity
  8
0
 62
1
370
-1
  6
CONTINUOUS
100
AcDbCircle
 10
-0.035816677078337
 20
-0.439224619815846
 30
0.0
 40
0.3799999999999955
100
AcDbArc
 50
180.000000000000199
 51
0.0
  0
LINE
  5
105
100
AcDbEntity
100
AcDbLine
  8
0
 62
1
370
-1
  6
CONTINUOUS
 10
-0.4158166770783325
 20
0.3207753801841537
 30
0.0
 11
-0.4158166770783325
 21
-0.4392246198158478
 31
0.0
  0
LINE
  5
106
100
AcDbEntity
100
AcDbLine
  8
0
 62
1
370
-1
  6
CONTINUOUS
 10
0.3441833229216655
 20
-0.439224619815846
 30
0.0
 11
0.3441833229216655
 21
0.320775380184152
 31
0.0
  0
ENDBLK
  5
107
100
AcDbEntity
  8
0
100
AcDbBlockEnd
  0
BLOCK
  5
108
100
AcDbEntity
  8
0
100
AcDbBlockBegin
  2
elongated_hole-2
 70
0
 10
0.0
 20
0.0
 30
0.0
  3
elongated_hole-2
  1

  0
ARC
  5
109
100
AcDbEntity
  8
0
 62
1
370
-1
  6
CONTINUOUS
100
AcDbCircle
 10
-0.035816677078337
 20
0.320775380184152
 30
0.0
 40
0.3799999999999955
100
AcDbArc
 50
0.0
 51
179.999999999999801
  0
ARC
  5
10A
100
AcDbEntity
  8
0
 62
1
370
-1
  6
CONTINUOUS
100
AcDbCircle
 10
-0.035816677078337
 20
-0.439224619815846
 30
0.0
 40
0.3799999999999955
100
AcDbArc
 50
180.000000000000199
 51
0.0
  0
LINE
  5
10B
100
AcDbEntity
100
AcDbLine
  8
0
 62
1
370
-1
  6
CONTINUOUS
 10
-0.4158166770783325
 20
0.3207753801841537
 30
0.0
 11
-0.4158166770783325
 21
-0.4392246198158478
 31
0.0
  0
LINE
  5
10C
100
AcDbEntity
100
AcDbLine
  8
0
 62
1
370
-1
  6
CONTINUOUS
 10
0.3441833229216655
 20
-0.439224619815846
 30
0.0
 11
0.3441833229216655
 21
0.320775380184152
 31
0.0
  0
ENDBLK
  5
10D
100
AcDbEntity
  8
0
100
AcDbBlockEnd
  0
BLOCK
  5
10E
100
AcDbEntity
  8
0
100
AcDbBlockBegin
  2
elongated_hole-3
 70
0
 10
0.0
 20
0.0
 30
0.0
  3
elongated_hole-3
  1

  0
ARC
  5
10F
100
AcDbEntity
  8
0
 62
1
370
-1
  6
CONTINUOUS
100
AcDbCircle
 10
-0.035816677078337
 20
0.320775380184152
 30
0.0
 40
0.3799999999999955
100
AcDbArc
 50
0.0
 51
179.999999999999801
  0
ARC
  5
110
100
AcDbEntity
  8
0
 62
1
370
-1
  6
CONTINUOUS
100
AcDbCircle
 10
-0.035816677078337
 20
-0.439224619815846
 30
0.0
 40
0.3799999999999955
100
AcDbArc
 50
180.000000000000199
 51
0.0
  0
LINE
  5
111
100
AcDbEntity
100
AcDbLine
  8
0
 62
1
370
-1
  6
CONTINUOUS
 10
-0.4158166770783325
 20
0.3207753801841537
 30
0.0
 11
-0.4158166770783325
 21
-0.4392246198158478
 31
0.0
  0
LINE
  5
112
100
AcDbEntity
100
AcDbLine
  8
0
 62
1
370
-1
  6
CONTINUOUS
 10
0.3441833229216655
 20
-0.439224619815846
 30
0.0
 11
0.3441833229216655
 21
0.320775380184152
 31
0.0
  0
ENDBLK
  5
113
100
AcDbEntity
  8
0
100
AcDbBlockEnd
  0
BLOCK
  5
114
100
AcDbEntity
  8
0
100
AcDbBlockBegin
  2
elongated_hole-4
 70
0
 10
0.0
 20
0.0
 30
0.0
  3
elongated_hole-4
  1

  0
ARC
  5
115
100
AcDbEntity
  8
0
 62
1
370
-1
  6
CONTINUOUS
100
AcDbCircle
 10
-0.035816677078337
 20
0.320775380184152
 30
0.0
 40
0.3799999999999955
100
AcDbArc
 50
0.0
 51
179.999999999999801
  0
ARC
  5
116
100
AcDbEntity
  8
0
 62
1
370
-1
  6
CONTINUOUS
100
AcDbCircle
 10
-0.035816677078337
 20
-0.439224619815846
 30
0.0
 40
0.3799999999999955
100
AcDbArc
 50
180.000000000000199
 51
0.0
  0
LINE
  5
117
100
AcDbEntity
100
AcDbLine
  8
0
 62
1
370
-1
  6
CONTINUOUS
 10
-0.4158166770783325
 20
0.3207753801841537
 30
0.0
 11
-0.4158166770783325
 21
-0.4392246198158478
 31
0.0
  0
LINE
  5
118
100
AcDbEntity
100
AcDbLine
  8
0
 62
1
370
-1
  6
CONTINUOUS
 10
0.3441833229216655
 20
-0.439224619815846
 30
0.0
 11
0.3441833229216655
 21
0.320775380184152
 31
0.0
  0
ENDBLK
  5
119
100
AcDbEntity
  8
0
100
AcDbBlockEnd
  0
BLOCK
  5
11A
100
AcDbEntity
  8
0
100
AcDbBlockBegin
  2
elongated_hole-5
 70
0
 10
0.0
 20
0.0
 30
0.0
  3
elongated_hole-5
  1

  0
ARC
  5
11B
100
AcDbEntity
  8
0
 62
1
370
-1
  6
CONTINUOUS
100
AcDbCircle
 10
-0.035816677078337
 20
0.320775380184152
 30
0.0
 40
0.3799999999999955
100
AcDbArc
 50
0.0
 51
179.999999999999801
  0
ARC
  5
11C
100
AcDbEntity
  8
0
 62
1
370
-1
  6
CONTINUOUS
100
AcDbCircle
 10
-0.035816677078337
 20
-0.439224619815846
 30
0.0
 40
0.3799999999999955
100
AcDbArc
 50
180.000000000000199
 51
0.0
  0
LINE
  5
11D
100
AcDbEntity
100
AcDbLine
  8
0
 62
1
370
-1
  6
CONTINUOUS
 10
-0.4158166770783325
 20
0.3207753801841537
 30
0.0
 11
-0.4158166770783325
 21
-0.4392246198158478
 31
0.0
  0
LINE
  5
11E
100
AcDbEntity
100
AcDbLine
  8
0
 62
1
370
-1
  6
CONTINUOUS
 10
0.3441833229216655
 20
-0.439224619815846
 30
0.0
 11
0.3441833229216655
 21
0.320775380184152
 31
0.0
  0
ENDBLK
  5
11F
100
AcDbEntity
  8
0
100
AcDbBlockEnd
  0
BLOCK
  5
120
100
AcDbEntity
  8
0
100
AcDbBlockBegin
  2
elongated_hole-6
 70
0
 10
0.0
 20
0.0
 30
0.0
  3
elongated_hole-6
  1

  0
ARC
  5
121
100
AcDbEntity
  8
0
 62
1
370
-1
  6
CONTINUOUS
100
AcDbCircle
 10
-0.035816677078337
 20
0.320775380184152
 30
0.0
 40
0.3799999999999955
100
AcDbArc
 50
0.0
 51
179.999999999999801
  0
ARC
  5
122
100
AcDbEntity
  8
0
 62
1
370
-1
  6
CONTINUOUS
100
AcDbCircle
 10
-0.035816677078337
 20
-0.439224619815846
 30
0.0
 40
0.3799999999999955
100
AcDbArc
 50
180.000000000000199
 51
0.0
  0
LINE
  5
123
100
AcDbEntity
100
AcDbLine
  8
0
 62
1
370
-1
  6
CONTINUOUS
 10
-0.4158166770783325
 20
0.3207753801841537
 30
0.0
 11
-0.4158166770783325
 21
-0.4392246198158478
 31
0.0
  0
LINE
  5
124
100
AcDbEntity
100
AcDbLine
  8
0
 62
1
370
-1
  6
CONTINUOUS
 10
0.3441833229216655
 20
-0.439224619815846
 30
0.0
 11
0.3441833229216655
 21
0.320775380184152
 31
0.0
  0
ENDBLK
  5
125
100
AcDbEntity
  8
0
100
AcDbBlockEnd
  0
BLOCK
  5
126
100
AcDbEntity
  8
0
100
AcDbBlockBegin
  2
elongated_hole-7
 70
0
 10
0.0
 20
0.0
 30
0.0
  3
elongated_hole-7
  1

  0
ARC
  5
127
100
AcDbEntity
  8
0
 62
1
370
-1
  6
CONTINUOUS
100
AcDbCircle
 10
-0.035816677078337
 20
0.320775380184152
 30
0.0
 40
0.3799999999999955
100
AcDbArc
 50
0.0
 51
179.999999999999801
  0
ARC
  5
128
100
AcDbEntity
  8
0
 62
1
370
-1
  6
CONTINUOUS
100
AcDbCircle
 10
-0.035816677078337
 20
-0.439224619815846
 30
0.0
 40
0.3799999999999955
100
AcDbArc
 50
180.000000000000199
 51
0.0
  0
LINE
  5
129
100
AcDbEntity
100
AcDbLine
  8
0
 62
1
370
-1
  6
CONTINUOUS
 10
-0.4158166770783325
 20
0.320775380184152
 30
0.0
 11
-0.4158166770783325
 21
-0.439224619815846
 31
0.0
  0
LINE
  5
12A
100
AcDbEntity
100
AcDbLine
  8
0
 62
1
370
-1
  6
CONTINUOUS
 10
0.3441833229216655
 20
-0.439224619815846
 30
0.0
 11
0.3441833229216655
 21
0.320775380184152
 31
0.0
  0
ENDBLK
  5
12B
100
AcDbEntity
  8
0
100
AcDbBlockEnd
  0
BLOCK
  5
12C
100
AcDbEntity
  8
0
100
AcDbBlockBegin
  2
elongated_hole-8
 70
0
 10
0.0
 20
0.0
 30
0.0
  3
elongated_hole-8
  1

  0
ARC
  5
12D
100
AcDbEntity
  8
0
 62
1
370
-1
  6
CONTINUOUS
100
AcDbCircle
 10
-0.035816677078337
 20
0.320775380184152
 30
0.0
 40
0.3799999999999955
100
AcDbArc
 50
0.0
 51
179.999999999999801
  0
ARC
  5
12E
100
AcDbEntity
  8
0
 62
1
370
-1
  6
CONTINUOUS
100
AcDbCircle
 10
-0.035816677078337
 20
-0.439224619815846
 30
0.0
 40
0.3799999999999955
100
AcDbArc
 50
180.000000000000199
 51
0.0
  0
LINE
  5
12F
100
AcDbEntity
100
AcDbLine
  8
0
 62
1
370
-1
  6
CONTINUOUS
 10
-0.4158166770783325
 20
0.3207753801841537
 30
0.0
 11
-0.4158166770783325
 21
-0.4392246198158478
 31
0.0
  0
LINE
  5
130
100
AcDbEntity
100
AcDbLine
  8
0
 62
1
370
-1
  6
CONTINUOUS
 10
0.3441833229216655
 20
-0.439224619815846
 30
0.0
 11
0.3441833229216655
 21
0.320775380184152
 31
0.0
  0
ENDBLK
  5
131
100
AcDbEntity
  8
0
100
AcDbBlockEnd
  0
BLOCK
  5
132
100
AcDbEntity
  8
0
100
AcDbBlockBegin
  2
elongated_hole-9
 70
0
 10
0.0
 20
0.0
 30
0.0
  3
elongated_hole-9
  1

  0
ARC
  5
133
100
AcDbEntity
  8
0
 62
1
370
-1
  6
CONTINUOUS
100
AcDbCircle
 10
-0.035816677078337
 20
0.320775380184152
 30
0.0
 40
0.3799999999999955
100
AcDbArc
 50
0.0
 51
179.999999999999801
  0
ARC
  5
134
100
AcDbEntity
  8
0
 62
1
370
-1
  6
CONTINUOUS
100
AcDbCircle
 10
-0.035816677078337
 20
-0.439224619815846
 30
0.0
 40
0.3799999999999955
100
AcDbArc
 50
180.000000000000199
 51
0.0
  0
LINE
  5
135
100
AcDbEntity
100
AcDbLine
  8
0
 62
1
370
-1
  6
CONTINUOUS
 10
-0.4158166770783325
 20
0.3207753801841537
 30
0.0
 11
-0.4158166770783325
 21
-0.4392246198158478
 31
0.0
  0
LINE
  5
136
100
AcDbEntity
100
AcDbLine
  8
0
 62
1
370
-1
  6
CONTINUOUS
 10
0.3441833229216655
 20
-0.439224619815846
 30
0.0
 11
0.3441833229216655
 21
0.320775380184152
 31
0.0
  0
ENDBLK
  5
137
100
AcDbEntity
  8
0
100
AcDbBlockEnd
  0
BLOCK
  5
138
100
AcDbEntity
  8
0
100
AcDbBlockBegin
  2
elongated_hole-10
 70
0
 10
0.0
 20
0.0
 30
0.0
  3
elongated_hole-10
  1

  0
ARC
  5
139
100
AcDbEntity
  8
0
 62
1
370
-1
  6
CONTINUOUS
100
AcDbCircle
 10
-0.035816677078337
 20
0.320775380184152
 30
0.0
 40
0.3799999999999955
100
AcDbArc
 50
0.0
 51
179.999999999999801
  0
ARC
  5
13A
100
AcDbEntity
  8
0
 62
1
370
-1
  6
CONTINUOUS
100
AcDbCircle
 10
-0.035816677078337
 20
-0.439224619815846
 30
0.0
 40
0.3799999999999955
100
AcDbArc
 50
180.000000000000199
 51
0.0
  0
LINE
  5
13B
100
AcDbEntity
100
AcDbLine
  8
0
 62
1
370
-1
  6
CONTINUOUS
 10
-0.4158166770783325
 20
0.3207753801841537
 30
0.0
 11
-0.4158166770783325
 21
-0.4392246198158478
 31
0.0
  0
LINE
  5
13C
100
AcDbEntity
100
AcDbLine
  8
0
 62
1
370
-1
  6
CONTINUOUS
 10
0.3441833229216655
 20
-0.439224619815846
 30
0.0
 11
0.3441833229216655
 21
0.320775380184152
 31
0.0
  0
ENDBLK
  5
13D
100
AcDbEntity
  8
0
100
AcDbBlockEnd
  0
BLOCK
  5
13E
100
AcDbEntity
  8
0
100
AcDbBlockBegin
  2
elongated_hole-11
 70
0
 10
0.0
 20
0.0
 30
0.0
  3
elongated_hole-11
  1

  0
ARC
  5
13F
100
AcDbEntity
  8
0
 62
1
370
-1
  6
CONTINUOUS
100
AcDbCircle
 10
-0.035816677078337
 20
0.320775380184152
 30
0.0
 40
0.3799999999999955
100
AcDbArc
 50
0.0
 51
179.999999999999801
  0
ARC
  5
140
100
AcDbEntity
  8
0
 62
1
370
-1
  6
CONTINUOUS
100
AcDbCircle
 10
-0.035816677078337
 20
-0.439224619815846
 30
0.0
 40
0.3799999999999955
100
AcDbArc
 50
180.000000000000199
 51
0.0
  0
LINE
  5
141
100
AcDbEntity
100
AcDbLine
  8
0
 62
1
370
-1
  6
CONTINUOUS
 10
-0.4158166770783325
 20
0.320775380184152
 30
0.0
 11
-0.4158166770783325
 21
-0.439224619815846
 31
0.0
  0
LINE
  5
142
100
AcDbEntity
100
AcDbLine
  8
0
 62
1
370
-1
  6
CONTINUOUS
 10
0.3441833229216655
 20
-0.439224619815846
 30
0.0
 11
0.3441833229216655
 21
0.320775380184152
 31
0.0
  0
ENDBLK
  5
143
100
AcDbEntity
  8
0
100
AcDbBlockEnd
  0
BLOCK
  5
144
100
AcDbEntity
  8
0
100
AcDbBlockBegin
  2
elongated_hole-12
 70
0
 10
0.0
 20
0.0
 30
0.0
  3
elongated_hole-12
  1

  0
ARC
  5
145
100
AcDbEntity
  8
0
 62
1
370
-1
  6
CONTINUOUS
100
AcDbCircle
 10
-0.035816677078337
 20
0.320775380184152
 30
0.0
 40
0.3799999999999955
100
AcDbArc
 50
0.0
 51
179.999999999999801
  0
ARC
  5
146
100
AcDbEntity
  8
0
 62
1
370
-1
  6
CONTINUOUS
100
AcDbCircle
 10
-0.035816677078337
 20
-0.439224619815846
 30
0.0
 40
0.3799999999999955
100
AcDbArc
 50
180.000000000000199
 51
0.0
  0
LINE
  5
147
100
AcDbEntity
100
AcDbLine
  8
0
 62
1
370
-1
  6
CONTINUOUS
 10
-0.4158166770783325
 20
0.320775380184152
 30
0.0
 11
-0.4158166770783325
 21
-0.439224619815846
 31
0.0
  0
LINE
  5
148
100
AcDbEntity
100
AcDbLine
  8
0
 62
1
370
-1
  6
CONTINUOUS
 10
0.3441833229216655
 20
-0.439224619815846
 30
0.0
 11
0.3441833229216655
 21
0.320775380184152
 31
0.0
  0
ENDBLK
  5
149
100
AcDbEntity
  8
0
100
AcDbBlockEnd
  0
BLOCK
  5
14A
100
AcDbEntity
  8
0
100
AcDbBlockBegin
  2
elongated_hole-13
 70
0
 10
0.0
 20
0.0
 30
0.0
  3
elongated_hole-13
  1

  0
ARC
  5
14B
100
AcDbEntity
  8
0
 62
1
370
-1
  6
CONTINUOUS
100
AcDbCircle
 10
-0.035816677078337
 20
0.320775380184152
 30
0.0
 40
0.3799999999999955
100
AcDbArc
 50
0.0
 51
179.999999999999801
  0
ARC
  5
14C
100
AcDbEntity
  8
0
 62
1
370
-1
  6
CONTINUOUS
100
AcDbCircle
 10
-0.035816677078337
 20
-0.439224619815846
 30
0.0
 40
0.3799999999999955
100
AcDbArc
 50
180.000000000000199
 51
0.0
  0
LINE
  5
14D
100
AcDbEntity
100
AcDbLine
  8
0
 62
1
370
-1
  6
CONTINUOUS
 10
-0.4158166770783325
 20
0.320775380184152
 30
0.0
 11
-0.4158166770783325
 21
-0.439224619815846
 31
0.0
  0
LINE
  5
14E
100
AcDbEntity
100
AcDbLine
  8
0
 62
1
370
-1
  6
CONTINUOUS
 10
0.3441833229216655
 20
-0.439224619815846
 30
0.0
 11
0.3441833229216655
 21
0.320775380184152
 31
0.0
  0
ENDBLK
  5
14F
100
AcDbEntity
  8
0
100
AcDbBlockEnd
  0
BLOCK
  5
150
100
AcDbEntity
  8
0
100
AcDbBlockBegin
  2
elongated_hole-14
 70
0
 10
0.0
 20
0.0
 30
0.0
  3
elongated_hole-14
  1

  0
ARC
  5
151
100
AcDbEntity
  8
0
 62
1
370
-1
  6
CONTINUOUS
100
AcDbCircle
 10
-0.035816677078337
 20
0.320775380184152
 30
0.0
 40
0.3799999999999955
100
AcDbArc
 50
0.0
 51
179.999999999999801
  0
ARC
  5
152
100
AcDbEntity
  8
0
 62
1
370
-1
  6
CONTINUOUS
100
AcDbCircle
 10
-0.035816677078337
 20
-0.439224619815846
 30
0.0
 40
0.3799999999999955
100
AcDbArc
 50
180.000000000000199
 51
0.0
  0
LINE
  5
153
100
AcDbEntity
100
AcDbLine
  8
0
 62
1
370
-1
  6
CONTINUOUS
 10
-0.4158166770783325
 20
0.3207753801841537
 30
0.0
 11
-0.4158166770783325
 21
-0.4392246198158478
 31
0.0
  0
LINE
  5
154
100
AcDbEntity
100
AcDbLine
  8
0
 62
1
370
-1
  6
CONTINUOUS
 10
0.3441833229216655
 20
-0.439224619815846
 30
0.0
 11
0.3441833229216655
 21
0.320775380184152
 31
0.0
  0
ENDBLK
  5
155
100
AcDbEntity
  8
0
100
AcDbBlockEnd
  0
BLOCK
  5
156
100
AcDbEntity
  8
0
100
AcDbBlockBegin
  2
elongated_hole-15
 70
0
 10
0.0
 20
0.0
 30
0.0
  3
elongated_hole-15
  1

  0
ARC
  5
157
100
AcDbEntity
  8
0
 62
1
370
-1
  6
CONTINUOUS
100
AcDbCircle
 10
-0.035816677078337
 20
0.320775380184152
 30
0.0
 40
0.3799999999999955
100
AcDbArc
 50
0.0
 51
179.999999999999801
  0
ARC
  5
158
100
AcDbEntity
  8
0
 62
1
370
-1
  6
CONTINUOUS
100
AcDbCircle
 10
-0.035816677078337
 20
-0.439224619815846
 30
0.0
 40
0.3799999999999955
100
AcDbArc
 50
180.000000000000199
 51
0.0
  0
LINE
  5
159
100
AcDbEntity
100
AcDbLine
  8
0
 62
1
370
-1
  6
CONTINUOUS
 10
-0.4158166770783325
 20
0.3207753801841537
 30
0.0
 11
-0.4158166770783325
 21
-0.4392246198158478
 31
0.0
  0
LINE
  5
15A
100
AcDbEntity
100
AcDbLine
  8
0
 62
1
370
-1
  6
CONTINUOUS
 10
0.3441833229216655
 20
-0.439224619815846
 30
0.0
 11
0.3441833229216655
 21
0.320775380184152
 31
0.0
  0
ENDBLK
  5
15B
100
AcDbEntity
  8
0
100
AcDbBlockEnd
  0
BLOCK
  5
15C
100
AcDbEntity
  8
0
100
AcDbBlockBegin
  2
elongated_hole-16
 70
0
 10
0.0
 20
0.0
 30
0.0
  3
elongated_hole-16
  1

  0
ARC
  5
15D
100
AcDbEntity
  8
0
 62
1
370
-1
  6
CONTINUOUS
100
AcDbCircle
 10
-0.035816677078337
 20
0.320775380184152
 30
0.0
 40
0.3799999999999955
100
AcDbArc
 50
0.0
 51
179.999999999999801
  0
ARC
  5
15E
100
AcDbEntity
  8
0
 62
1
370
-1
  6
CONTINUOUS
100
AcDbCircle
 10
-0.035816677078337
 20
-0.439224619815846
 30
0.0
 40
0.3799999999999955
100
AcDbArc
 50
180.000000000000199
 51
0.0
  0
LINE
  5
15F
100
AcDbEntity
100
AcDbLine
  8
0
 62
1
370
-1
  6
CONTINUOUS
 10
-0.4158166770783325
 20
0.3207753801841537
 30
0.0
 11
-0.4158166770783325
 21
-0.4392246198158478
 31
0.0
  0
LINE
  5
160
100
AcDbEntity
100
AcDbLine
  8
0
 62
1
370
-1
  6
CONTINUOUS
 10
0.3441833229216655
 20
-0.439224619815846
 30
0.0
 11
0.3441833229216655
 21
0.320775380184152
 31
0.0
  0
ENDBLK
  5
161
100
AcDbEntity
  8
0
100
AcDbBlockEnd
  0
BLOCK
  5
162
100
AcDbEntity
  8
0
100
AcDbBlockBegin
  2
elongated_hole-17
 70
0
 10
0.0
 20
0.0
 30
0.0
  3
elongated_hole-17
  1

  0
ARC
  5
163
100
AcDbEntity
  8
0
 62
1
370
-1
  6
CONTINUOUS
100
AcDbCircle
 10
-0.035816677078337
 20
0.320775380184152
 30
0.0
 40
0.3799999999999955
100
AcDbArc
 50
0.0
 51
179.999999999999801
  0
ARC
  5
164
100
AcDbEntity
  8
0
 62
1
370
-1
  6
CONTINUOUS
100
AcDbCircle
 10
-0.035816677078337
 20
-0.439224619815846
 30
0.0
 40
0.3799999999999955
100
AcDbArc
 50
180.000000000000199
 51
0.0
  0
LINE
  5
165
100
AcDbEntity
100
AcDbLine
  8
0
 62
1
370
-1
  6
CONTINUOUS
 10
-0.4158166770783325
 20
0.3207753801841537
 30
0.0
 11
-0.4158166770783325
 21
-0.4392246198158478
 31
0.0
  0
LINE
  5
166
100
AcDbEntity
100
AcDbLine
  8
0
 62
1
370
-1
  6
CONTINUOUS
 10
0.3441833229216655
 20
-0.439224619815846
 30
0.0
 11
0.3441833229216655
 21
0.320775380184152
 31
0.0
  0
ENDBLK
  5
167
100
AcDbEntity
  8
0
100
AcDbBlockEnd
  0
BLOCK
  5
168
100
AcDbEntity
  8
0
100
AcDbBlockBegin
  2
elongated_hole-18
 70
0
 10
0.0
 20
0.0
 30
0.0
  3
elongated_hole-18
  1

  0
ARC
  5
169
100
AcDbEntity
  8
0
 62
1
370
-1
  6
CONTINUOUS
100
AcDbCircle
 10
-0.035816677078337
 20
0.320775380184152
 30
0.0
 40
0.3799999999999955
100
AcDbArc
 50
0.0
 51
179.999999999999801
  0
ARC
  5
16A
100
AcDbEntity
  8
0
 62
1
370
-1
  6
CONTINUOUS
100
AcDbCircle
 10
-0.035816677078337
 20
-0.439224619815846
 30
0.0
 40
0.3799999999999955
100
AcDbArc
 50
180.000000000000199
 51
0.0
  0
LINE
  5
16B
100
AcDbEntity
100
AcDbLine
  8
0
 62
1
370
-1
  6
CONTINUOUS
 10
-0.4158166770783325
 20
0.3207753801841537
 30
0.0
 11
-0.4158166770783325
 21
-0.4392246198158478
 31
0.0
  0
LINE
  5
16C
100
AcDbEntity
100
AcDbLine
  8
0
 62
1
370
-1
  6
CONTINUOUS
 10
0.3441833229216655
 20
-0.439224619815846
 30
0.0
 11
0.3441833229216655
 21
0.320775380184152
 31
0.0
  0
ENDBLK
  5
16D
100
AcDbEntity
  8
0
100
AcDbBlockEnd
  0
BLOCK
  5
16E
100
AcDbEntity
  8
0
100
AcDbBlockBegin
  2
elongated_hole-19
 70
0
 10
0.0
 20
0.0
 30
0.0
  3
elongated_hole-19
  1

  0
ARC
  5
16F
100
AcDbEntity
  8
0
 62
1
370
-1
  6
CONTINUOUS
100
AcDbCircle
 10
-0.035816677078337
 20
0.320775380184152
 30
0.0
 40
0.3799999999999955
100
AcDbArc
 50
0.0
 51
179.999999999999801
  0
ARC
  5
170
100
AcDbEntity
  8
0
 62
1
370
-1
  6
CONTINUOUS
100
AcDbCircle
 10
-0.035816677078337
 20
-0.439224619815846
 30
0.0
 40
0.3799999999999955
100
AcDbArc
 50
180.000000000000199
 51
0.0
  0
LINE
  5
171
100
AcDbEntity
100
AcDbLine
  8
0
 62
1
370
-1
  6
CONTINUOUS
 10
-0.4158166770783325
 20
0.3207753801841537
 30
0.0
 11
-0.4158166770783325
 21
-0.4392246198158478
 31
0.0
  0
LINE
  5
172
100
AcDbEntity
100
AcDbLine
  8
0
 62
1
370
-1
  6
CONTINUOUS
 10
0.3441833229216655
 20
-0.439224619815846
 30
0.0
 11
0.3441833229216655
 21
0.320775380184152
 31
0.0
  0
ENDBLK
  5
173
100
AcDbEntity
  8
0
100
AcDbBlockEnd
  0
BLOCK
  5
174
100
AcDbEntity
  8
0
100
AcDbBlockBegin
  2
elongated_hole-20
 70
0
 10
0.0
 20
0.0
 30
0.0
  3
elongated_hole-20
  1

  0
ARC
  5
175
100
AcDbEntity
  8
0
 62
1
370
-1
  6
CONTINUOUS
100
AcDbCircle
 10
-0.035816677078337
 20
0.320775380184152
 30
0.0
 40
0.3799999999999955
100
AcDbArc
 50
0.0
 51
179.999999999999801
  0
ARC
  5
176
100
AcDbEntity
  8
0
 62
1
370
-1
  6
CONTINUOUS
100
AcDbCircle
 10
-0.035816677078337
 20
-0.439224619815846
 30
0.0
 40
0.3799999999999955
100
AcDbArc
 50
180.000000000000199
 51
0.0
  0
LINE
  5
177
100
AcDbEntity
100
AcDbLine
  8
0
 62
1
370
-1
  6
CONTINUOUS
 10
-0.4158166770783325
 20
0.3207753801841537
 30
0.0
 11
-0.4158166770783325
 21
-0.4392246198158478
 31
0.0
  0
LINE
  5
178
100
AcDbEntity
100
AcDbLine
  8
0
 62
1
370
-1
  6
CONTINUOUS
 10
0.3441833229216655
 20
-0.439224619815846
 30
0.0
 11
0.3441833229216655
 21
0.320775380184152
 31
0.0
  0
ENDBLK
  5
179
100
AcDbEntity
  8
0
100
AcDbBlockEnd
  0
BLOCK
  5
17A
100
AcDbEntity
  8
0
100
AcDbBlockBegin
  2
elongated_hole-21
 70
0
 10
0.0
 20
0.0
 30
0.0
  3
elongated_hole-21
  1

  0
ARC
  5
17B
100
AcDbEntity
  8
0
 62
1
370
-1
  6
CONTINUOUS
100
AcDbCircle
 10
-0.035816677078337
 20
0.320775380184152
 30
0.0
 40
0.3799999999999955
100
AcDbArc
 50
0.0
 51
179.999999999999801
  0
ARC
  5
17C
100
AcDbEntity
  8
0
 62
1
370
-1
  6
CONTINUOUS
100
AcDbCircle
 10
-0.035816677078337
 20
-0.439224619815846
 30
0.0
 40
0.3799999999999955
100
AcDbArc
 50
180.000000000000199
 51
0.0
  0
LINE
  5
17D
100
AcDbEntity
100
AcDbLine
  8
0
 62
1
370
-1
  6
CONTINUOUS
 10
-0.4158166770783325
 20
0.3207753801841537
 30
0.0
 11
-0.4158166770783325
 21
-0.4392246198158478
 31
0.0
  0
LINE
  5
17E
100
AcDbEntity
100
AcDbLine
  8
0
 62
1
370
-1
  6
CONTINUOUS
 10
0.3441833229216655
 20
-0.439224619815846
 30
0.0
 11
0.3441833229216655
 21
0.320775380184152
 31
0.0
  0
ENDBLK
  5
17F
100
AcDbEntity
  8
0
100
AcDbBlockEnd
  0
BLOCK
  5
180
100
AcDbEntity
  8
0
100
AcDbBlockBegin
  2
elongated_hole-22
 70
0
 10
0.0
 20
0.0
 30
0.0
  3
elongated_hole-22
  1

  0
ARC
  5
181
100
AcDbEntity
  8
0
 62
1
370
-1
  6
CONTINUOUS
100
AcDbCircle
 10
-0.035816677078337
 20
0.320775380184152
 30
0.0
 40
0.3799999999999955
100
AcDbArc
 50
0.0
 51
179.999999999999801
  0
ARC
  5
182
100
AcDbEntity
  8
0
 62
1
370
-1
  6
CONTINUOUS
100
AcDbCircle
 10
-0.035816677078337
 20
-0.439224619815846
 30
0.0
 40
0.3799999999999955
100
AcDbArc
 50
180.000000000000199
 51
0.0
  0
LINE
  5
183
100
AcDbEntity
100
AcDbLine
  8
0
 62
1
370
-1
  6
CONTINUOUS
 10
-0.4158166770783325
 20
0.3207753801841537
 30
0.0
 11
-0.4158166770783325
 21
-0.4392246198158478
 31
0.0
  0
LINE
  5
184
100
AcDbEntity
100
AcDbLine
  8
0
 62
1
370
-1
  6
CONTINUOUS
 10
0.3441833229216655
 20
-0.439224619815846
 30
0.0
 11
0.3441833229216655
 21
0.320775380184152
 31
0.0
  0
ENDBLK
  5
185
100
AcDbEntity
  8
0
100
AcDbBlockEnd
  0
BLOCK
  5
186
100
AcDbEntity
  8
0
100
AcDbBlockBegin
  2
elongated_hole-23
 70
0
 10
0.0
 20
0.0
 30
0.0
  3
elongated_hole-23
  1

  0
ARC
  5
187
100
AcDbEntity
  8
0
 62
1
370
-1
  6
CONTINUOUS
100
AcDbCircle
 10
-0.035816677078337
 20
0.320775380184152
 30
0.0
 40
0.3799999999999955
100
AcDbArc
 50
0.0
 51
179.999999999999801
  0
ARC
  5
188
100
AcDbEntity
  8
0
 62
1
370
-1
  6
CONTINUOUS
100
AcDbCircle
 10
-0.035816677078337
 20
-0.439224619815846
 30
0.0
 40
0.3799999999999955
100
AcDbArc
 50
180.000000000000199
 51
0.0
  0
LINE
  5
189
100
AcDbEntity
100
AcDbLine
  8
0
 62
1
370
-1
  6
CONTINUOUS
 10
-0.4158166770783325
 20
0.3207753801841537
 30
0.0
 11
-0.4158166770783325
 21
-0.4392246198158478
 31
0.0
  0
LINE
  5
18A
100
AcDbEntity
100
AcDbLine
  8
0
 62
1
370
-1
  6
CONTINUOUS
 10
0.3441833229216655
 20
-0.439224619815846
 30
0.0
 11
0.3441833229216655
 21
0.320775380184152
 31
0.0
  0
ENDBLK
  5
18B
100
AcDbEntity
  8
0
100
AcDbBlockEnd
  0
BLOCK
  5
18C
100
AcDbEntity
  8
0
100
AcDbBlockBegin
  2
elongated_hole-24
 70
0
 10
0.0
 20
0.0
 30
0.0
  3
elongated_hole-24
  1

  0
ARC
  5
18D
100
AcDbEntity
  8
0
 62
1
370
-1
  6
CONTINUOUS
100
AcDbCircle
 10
-0.035816677078337
 20
0.320775380184152
 30
0.0
 40
0.3799999999999955
100
AcDbArc
 50
0.0
 51
179.999999999999801
  0
ARC
  5
18E
100
AcDbEntity
  8
0
 62
1
370
-1
  6
CONTINUOUS
100
AcDbCircle
 10
-0.035816677078337
 20
-0.439224619815846
 30
0.0
 40
0.3799999999999955
100
AcDbArc
 50
180.000000000000199
 51
0.0
  0
LINE
  5
18F
100
AcDbEntity
100
AcDbLine
  8
0
 62
1
370
-1
  6
CONTINUOUS
 10
-0.4158166770783325
 20
0.3207753801841537
 30
0.0
 11
-0.4158166770783325
 21
-0.4392246198158478
 31
0.0
  0
LINE
  5
190
100
AcDbEntity
100
AcDbLine
  8
0
 62
1
370
-1
  6
CONTINUOUS
 10
0.3441833229216655
 20
-0.439224619815846
 30
0.0
 11
0.3441833229216655
 21
0.320775380184152
 31
0.0
  0
ENDBLK
  5
191
100
AcDbEntity
  8
0
100
AcDbBlockEnd
  0
BLOCK
  5
192
100
AcDbEntity
  8
0
100
AcDbBlockBegin
  2
elongated_hole-25
 70
0
 10
0.0
 20
0.0
 30
0.0
  3
elongated_hole-25
  1

  0
ARC
  5
193
100
AcDbEntity
  8
0
 62
1
370
-1
  6
CONTINUOUS
100
AcDbCircle
 10
-0.035816677078337
 20
0.320775380184152
 30
0.0
 40
0.3799999999999955
100
AcDbArc
 50
0.0
 51
179.999999999999801
  0
ARC
  5
194
100
AcDbEntity
  8
0
 62
1
370
-1
  6
CONTINUOUS
100
AcDbCircle
 10
-0.035816677078337
 20
-0.439224619815846
 30
0.0
 40
0.3799999999999955
100
AcDbArc
 50
180.000000000000199
 51
0.0
  0
LINE
  5
195
100
AcDbEntity
100
AcDbLine
  8
0
 62
1
370
-1
  6
CONTINUOUS
 10
-0.4158166770783325
 20
0.3207753801841537
 30
0.0
 11
-0.4158166770783325
 21
-0.4392246198158478
 31
0.0
  0
LINE
  5
196
100
AcDbEntity
100
AcDbLine
  8
0
 62
1
370
-1
  6
CONTINUOUS
 10
0.3441833229216655
 20
-0.439224619815846
 30
0.0
 11
0.3441833229216655
 21
0.320775380184152
 31
0.0
  0
ENDBLK
  5
197
100
AcDbEntity
  8
0
100
AcDbBlockEnd
  0
BLOCK
  5
198
100
AcDbEntity
  8
0
100
AcDbBlockBegin
  2
elongated_hole-26
 70
0
 10
0.0
 20
0.0
 30
0.0
  3
elongated_hole-26
  1

  0
ARC
  5
199
100
AcDbEntity
  8
0
 62
1
370
-1
  6
CONTINUOUS
100
AcDbCircle
 10
-0.035816677078337
 20
0.320775380184152
 30
0.0
 40
0.3799999999999955
100
AcDbArc
 50
0.0
 51
179.999999999999801
  0
ARC
  5
19A
100
AcDbEntity
  8
0
 62
1
370
-1
  6
CONTINUOUS
100
AcDbCircle
 10
-0.035816677078337
 20
-0.439224619815846
 30
0.0
 40
0.3799999999999955
100
AcDbArc
 50
180.000000000000199
 51
0.0
  0
LINE
  5
19B
100
AcDbEntity
100
AcDbLine
  8
0
 62
1
370
-1
  6
CONTINUOUS
 10
-0.4158166770783325
 20
0.3207753801841537
 30
0.0
 11
-0.4158166770783325
 21
-0.4392246198158478
 31
0.0
  0
LINE
  5
19C
100
AcDbEntity
100
AcDbLine
  8
0
 62
1
370
-1
  6
CONTINUOUS
 10
0.3441833229216655
 20
-0.439224619815846
 30
0.0
 11
0.3441833229216655
 21
0.320775380184152
 31
0.0
  0
ENDBLK
  5
19D
100
AcDbEntity
  8
0
100
AcDbBlockEnd
  0
BLOCK
  5
19E
100
AcDbEntity
  8
0
100
AcDbBlockBegin
  2
elongated_hole-27
 70
0
 10
0.0
 20
0.0
 30
0.0
  3
elongated_hole-27
  1

  0
ARC
  5
19F
100
AcDbEntity
  8
0
 62
1
370
-1
  6
CONTINUOUS
100
AcDbCircle
 10
-0.035816677078337
 20
0.320775380184152
 30
0.0
 40
0.3799999999999955
100
AcDbArc
 50
0.0
 51
179.999999999999801
  0
ARC
  5
1A0
100
AcDbEntity
  8
0
 62
1
370
-1
  6
CONTINUOUS
100
AcDbCircle
 10
-0.035816677078337
 20
-0.439224619815846
 30
0.0
 40
0.3799999999999955
100
AcDbArc
 50
180.000000000000199
 51
0.0
  0
LINE
  5
1A1
100
AcDbEntity
100
AcDbLine
  8
0
 62
1
370
-1
  6
CONTINUOUS
 10
-0.4158166770783325
 20
0.3207753801841537
 30
0.0
 11
-0.4158166770783325
 21
-0.4392246198158478
 31
0.0
  0
LINE
  5
1A2
100
AcDbEntity
100
AcDbLine
  8
0
 62
1
370
-1
  6
CONTINUOUS
 10
0.3441833229216655
 20
-0.439224619815846
 30
0.0
 11
0.3441833229216655
 21
0.320775380184152
 31
0.0
  0
ENDBLK
  5
1A3
100
AcDbEntity
  8
0
100
AcDbBlockEnd
  0
BLOCK
  5
1A4
100
AcDbEntity
  8
0
100
AcDbBlockBegin
  2
elongated_hole-28
 70
0
 10
0.0
 20
0.0
 30
0.0
  3
elongated_hole-28
  1

  0
ARC
  5
1A5
100
AcDbEntity
  8
0
 62
1
370
-1
  6
CONTINUOUS
100
AcDbCircle
 10
-0.035816677078337
 20
0.320775380184152
 30
0.0
 40
0.3799999999999955
100
AcDbArc
 50
0.0
 51
179.999999999999801
  0
ARC
  5
1A6
100
AcDbEntity
  8
0
 62
1
370
-1
  6
CONTINUOUS
100
AcDbCircle
 10
-0.035816677078337
 20
-0.439224619815846
 30
0.0
 40
0.3799999999999955
100
AcDbArc
 50
180.000000000000199
 51
0.0
  0
LINE
  5
1A7
100
AcDbEntity
100
AcDbLine
  8
0
 62
1
370
-1
  6
CONTINUOUS
 10
-0.4158166770783325
 20
0.3207753801841537
 30
0.0
 11
-0.4158166770783325
 21
-0.4392246198158478
 31
0.0
  0
LINE
  5
1A8
100
AcDbEntity
100
AcDbLine
  8
0
 62
1
370
-1
  6
CONTINUOUS
 10
0.3441833229216655
 20
-0.439224619815846
 30
0.0
 11
0.3441833229216655
 21
0.320775380184152
 31
0.0
  0
ENDBLK
  5
1A9
100
AcDbEntity
  8
0
100
AcDbBlockEnd
  0
BLOCK
  5
1AA
100
AcDbEntity
  8
0
100
AcDbBlockBegin
  2
elongated_hole-29
 70
0
 10
0.0
 20
0.0
 30
0.0
  3
elongated_hole-29
  1

  0
ARC
  5
1AB
100
AcDbEntity
  8
0
 62
1
370
-1
  6
CONTINUOUS
100
AcDbCircle
 10
-0.035816677078337
 20
0.320775380184152
 30
0.0
 40
0.3799999999999955
100
AcDbArc
 50
0.0
 51
179.999999999999801
  0
ARC
  5
1AC
100
AcDbEntity
  8
0
 62
1
370
-1
  6
CONTINUOUS
100
AcDbCircle
 10
-0.035816677078337
 20
-0.439224619815846
 30
0.0
 40
0.3799999999999955
100
AcDbArc
 50
180.000000000000199
 51
0.0
  0
LINE
  5
1AD
100
AcDbEntity
100
AcDbLine
  8
0
 62
1
370
-1
  6
CONTINUOUS
 10
-0.4158166770783325
 20
0.3207753801841537
 30
0.0
 11
-0.4158166770783325
 21
-0.4392246198158478
 31
0.0
  0
LINE
  5
1AE
100
AcDbEntity
100
AcDbLine
  8
0
 62
1
370
-1
  6
CONTINUOUS
 10
0.3441833229216655
 20
-0.439224619815846
 30
0.0
 11
0.3441833229216655
 21
0.320775380184152
 31
0.0
  0
ENDBLK
  5
1AF
100
AcDbEntity
  8
0
100
AcDbBlockEnd
  0
BLOCK
  5
1B0
100
AcDbEntity
  8
0
100
AcDbBlockBegin
  2
elongated_hole-30
 70
0
 10
0.0
 20
0.0
 30
0.0
  3
elongated_hole-30
  1

  0
ARC
  5
1B1
100
AcDbEntity
  8
0
 62
1
370
-1
  6
CONTINUOUS
100
AcDbCircle
 10
-0.035816677078337
 20
0.320775380184152
 30
0.0
 40
0.3799999999999955
100
AcDbArc
 50
0.0
 51
179.999999999999801
  0
ARC
  5
1B2
100
AcDbEntity
  8
0
 62
1
370
-1
  6
CONTINUOUS
100
AcDbCircle
 10
-0.035816677078337
 20
-0.439224619815846
 30
0.0
 40
0.3799999999999955
100
AcDbArc
 50
180.000000000000199
 51
0.0
  0
LINE
  5
1B3
100
AcDbEntity
100
AcDbLine
  8
0
 62
1
370
-1
  6
CONTINUOUS
 10
-0.4158166770783325
 20
0.3207753801841537
 30
0.0
 11
-0.4158166770783325
 21
-0.4392246198158478
 31
0.0
  0
LINE
  5
1B4
100
AcDbEntity
100
AcDbLine
  8
0
 62
1
370
-1
  6
CONTINUOUS
 10
0.3441833229216655
 20
-0.439224619815846
 30
0.0
 11
0.3441833229216655
 21
0.320775380184152
 31
0.0
  0
ENDBLK
  5
1B5
100
AcDbEntity
  8
0
100
AcDbBlockEnd
  0
BLOCK
  5
1B6
100
AcDbEntity
  8
0
100
AcDbBlockBegin
  2
elongated_hole-31
 70
0
 10
0.0
 20
0.0
 30
0.0
  3
elongated_hole-31
  1

  0
ARC
  5
1B7
100
AcDbEntity
  8
0
 62
1
370
-1
  6
CONTINUOUS
100
AcDbCircle
 10
-0.035816677078337
 20
0.320775380184152
 30
0.0
 40
0.3799999999999955
100
AcDbArc
 50
0.0
 51
179.999999999999801
  0
ARC
  5
1B8
100
AcDbEntity
  8
0
 62
1
370
-1
  6
CONTINUOUS
100
AcDbCircle
 10
-0.035816677078337
 20
-0.439224619815846
 30
0.0
 40
0.3799999999999955
100
AcDbArc
 50
180.000000000000199
 51
0.0
  0
LINE
  5
1B9
100
AcDbEntity
100
AcDbLine
  8
0
 62
1
370
-1
  6
CONTINUOUS
 10
-0.4158166770783325
 20
0.3207753801841537
 30
0.0
 11
-0.4158166770783325
 21
-0.4392246198158478
 31
0.0
  0
LINE
  5
1BA
100
AcDbEntity
100
AcDbLine
  8
0
 62
1
370
-1
  6
CONTINUOUS
 10
0.3441833229216655
 20
-0.439224619815846
 30
0.0
 11
0.3441833229216655
 21
0.320775380184152
 31
0.0
  0
ENDBLK
  5
1BB
100
AcDbEntity
  8
0
100
AcDbBlockEnd
  0
BLOCK
  5
1BC
100
AcDbEntity
  8
0
100
AcDbBlockBegin
  2
elongated_hole-32
 70
0
 10
0.0
 20
0.0
 30
0.0
  3
elongated_hole-32
  1

  0
ARC
  5
1BD
100
AcDbEntity
  8
0
 62
1
370
-1
  6
CONTINUOUS
100
AcDbCircle
 10
-0.035816677078337
 20
0.320775380184152
 30
0.0
 40
0.3799999999999955
100
AcDbArc
 50
0.0
 51
179.999999999999801
  0
ARC
  5
1BE
100
AcDbEntity
  8
0
 62
1
370
-1
  6
CONTINUOUS
100
AcDbCircle
 10
-0.035816677078337
 20
-0.439224619815846
 30
0.0
 40
0.3799999999999955
100
AcDbArc
 50
180.000000000000199
 51
0.0
  0
LINE
  5
1BF
100
AcDbEntity
100
AcDbLine
  8
0
 62
1
370
-1
  6
CONTINUOUS
 10
-0.4158166770783325
 20
0.3207753801841537
 30
0.0
 11
-0.4158166770783325
 21
-0.4392246198158478
 31
0.0
  0
LINE
  5
1C0
100
AcDbEntity
100
AcDbLine
  8
0
 62
1
370
-1
  6
CONTINUOUS
 10
0.3441833229216655
 20
-0.439224619815846
 30
0.0
 11
0.3441833229216655
 21
0.320775380184152
 31
0.0
  0
ENDBLK
  5
1C1
100
AcDbEntity
  8
0
100
AcDbBlockEnd
  0
BLOCK
  5
1C2
100
AcDbEntity
  8
0
100
AcDbBlockBegin
  2
elongated_hole-33
 70
0
 10
0.0
 20
0.0
 30
0.0
  3
elongated_hole-33
  1

  0
ARC
  5
1C3
100
AcDbEntity
  8
0
 62
1
370
-1
  6
CONTINUOUS
100
AcDbCircle
 10
-0.035816677078337
 20
0.320775380184152
 30
0.0
 40
0.3799999999999955
100
AcDbArc
 50
0.0
 51
179.999999999999801
  0
ARC
  5
1C4
100
AcDbEntity
  8
0
 62
1
370
-1
  6
CONTINUOUS
100
AcDbCircle
 10
-0.035816677078337
 20
-0.439224619815846
 30
0.0
 40
0.3799999999999955
100
AcDbArc
 50
180.000000000000199
 51
0.0
  0
LINE
  5
1C5
100
AcDbEntity
100
AcDbLine
  8
0
 62
1
370
-1
  6
CONTINUOUS
 10
-0.4158166770783325
 20
0.3207753801841537
 30
0.0
 11
-0.4158166770783325
 21
-0.4392246198158478
 31
0.0
  0
LINE
  5
1C6
100
AcDbEntity
100
AcDbLine
  8
0
 62
1
370
-1
  6
CONTINUOUS
 10
0.3441833229216655
 20
-0.439224619815846
 30
0.0
 11
0.3441833229216655
 21
0.320775380184152
 31
0.0
  0
ENDBLK
  5
1C7
100
AcDbEntity
  8
0
100
AcDbBlockEnd
  0
BLOCK
  5
1C8
100
AcDbEntity
  8
0
100
AcDbBlockBegin
  2
elongated_hole-34
 70
0
 10
0.0
 20
0.0
 30
0.0
  3
elongated_hole-34
  1

  0
ARC
  5
1C9
100
AcDbEntity
  8
0
 62
1
370
-1
  6
CONTINUOUS
100
AcDbCircle
 10
-0.035816677078337
 20
0.320775380184152
 30
0.0
 40
0.3799999999999955
100
AcDbArc
 50
0.0
 51
179.999999999999801
  0
ARC
  5
1CA
100
AcDbEntity
  8
0
 62
1
370
-1
  6
CONTINUOUS
100
AcDbCircle
 10
-0.035816677078337
 20
-0.439224619815846
 30
0.0
 40
0.3799999999999955
100
AcDbArc
 50
180.000000000000199
 51
0.0
  0
LINE
  5
1CB
100
AcDbEntity
100
AcDbLine
  8
0
 62
1
370
-1
  6
CONTINUOUS
 10
-0.4158166770783325
 20
0.3207753801841537
 30
0.0
 11
-0.4158166770783325
 21
-0.4392246198158478
 31
0.0
  0
LINE
  5
1CC
100
AcDbEntity
100
AcDbLine
  8
0
 62
1
370
-1
  6
CONTINUOUS
 10
0.3441833229216655
 20
-0.439224619815846
 30
0.0
 11
0.3441833229216655
 21
0.320775380184152
 31
0.0
  0
ENDBLK
  5
1CD
100
AcDbEntity
  8
0
100
AcDbBlockEnd
  0
BLOCK
  5
1CE
100
AcDbEntity
  8
0
100
AcDbBlockBegin
  2
elongated_hole-35
 70
0
 10
0.0
 20
0.0
 30
0.0
  3
elongated_hole-35
  1

  0
ARC
  5
1CF
100
AcDbEntity
  8
0
 62
1
370
-1
  6
CONTINUOUS
100
AcDbCircle
 10
-0.035816677078337
 20
0.320775380184152
 30
0.0
 40
0.3799999999999955
100
AcDbArc
 50
0.0
 51
179.999999999999801
  0
ARC
  5
1D0
100
AcDbEntity
  8
0
 62
1
370
-1
  6
CONTINUOUS
100
AcDbCircle
 10
-0.035816677078337
 20
-0.439224619815846
 30
0.0
 40
0.3799999999999955
100
AcDbArc
 50
180.000000000000199
 51
0.0
  0
LINE
  5
1D1
100
AcDbEntity
100
AcDbLine
  8
0
 62
1
370
-1
  6
CONTINUOUS
 10
-0.4158166770783325
 20
0.320775380184152
 30
0.0
 11
-0.4158166770783325
 21
-0.439224619815846
 31
0.0
  0
LINE
  5
1D2
100
AcDbEntity
100
AcDbLine
  8
0
 62
1
370
-1
  6
CONTINUOUS
 10
0.3441833229216655
 20
-0.439224619815846
 30
0.0
 11
0.3441833229216655
 21
0.320775380184152
 31
0.0
  0
ENDBLK
  5
1D3
100
AcDbEntity
  8
0
100
AcDbBlockEnd
  0
BLOCK
  5
1D4
100
AcDbEntity
  8
0
100
AcDbBlockBegin
  2
elongated_hole-36
 70
0
 10
0.0
 20
0.0
 30
0.0
  3
elongated_hole-36
  1

  0
ARC
  5
1D5
100
AcDbEntity
  8
0
 62
1
370
-1
  6
CONTINUOUS
100
AcDbCircle
 10
-0.035816677078337
 20
0.320775380184152
 30
0.0
 40
0.3799999999999955
100
AcDbArc
 50
0.0
 51
179.999999999999801
  0
ARC
  5
1D6
100
AcDbEntity
  8
0
 62
1
370
-1
  6
CONTINUOUS
100
AcDbCircle
 10
-0.035816677078337
 20
-0.439224619815846
 30
0.0
 40
0.3799999999999955
100
AcDbArc
 50
180.000000000000199
 51
0.0
  0
LINE
  5
1D7
100
AcDbEntity
100
AcDbLine
  8
0
 62
1
370
-1
  6
CONTINUOUS
 10
-0.4158166770783325
 20
0.320775380184152
 30
0.0
 11
-0.4158166770783325
 21
-0.439224619815846
 31
0.0
  0
LINE
  5
1D8
100
AcDbEntity
100
AcDbLine
  8
0
 62
1
370
-1
  6
CONTINUOUS
 10
0.3441833229216655
 20
-0.439224619815846
 30
0.0
 11
0.3441833229216655
 21
0.320775380184152
 31
0.0
  0
ENDBLK
  5
1D9
100
AcDbEntity
  8
0
100
AcDbBlockEnd
  0
BLOCK
  5
1DA
100
AcDbEntity
  8
0
100
AcDbBlockBegin
  2
elongated_hole-37
 70
0
 10
0.0
 20
0.0
 30
0.0
  3
elongated_hole-37
  1

  0
ARC
  5
1DB
100
AcDbEntity
  8
0
 62
1
370
-1
  6
CONTINUOUS
100
AcDbCircle
 10
-0.035816677078337
 20
0.320775380184152
 30
0.0
 40
0.3799999999999955
100
AcDbArc
 50
0.0
 51
179.999999999999801
  0
ARC
  5
1DC
100
AcDbEntity
  8
0
 62
1
370
-1
  6
CONTINUOUS
100
AcDbCircle
 10
-0.035816677078337
 20
-0.439224619815846
 30
0.0
 40
0.3799999999999955
100
AcDbArc
 50
180.000000000000199
 51
0.0
  0
LINE
  5
1DD
100
AcDbEntity
100
AcDbLine
  8
0
 62
1
370
-1
  6
CONTINUOUS
 10
-0.4158166770783325
 20
0.3207753801841537
 30
0.0
 11
-0.4158166770783325
 21
-0.4392246198158478
 31
0.0
  0
LINE
  5
1DE
100
AcDbEntity
100
AcDbLine
  8
0
 62
1
370
-1
  6
CONTINUOUS
 10
0.3441833229216655
 20
-0.439224619815846
 30
0.0
 11
0.3441833229216655
 21
0.320775380184152
 31
0.0
  0
ENDBLK
  5
1DF
100
AcDbEntity
  8
0
100
AcDbBlockEnd
  0
BLOCK
  5
1E0
100
AcDbEntity
  8
0
100
AcDbBlockBegin
  2
elongated_hole-38
 70
0
 10
0.0
 20
0.0
 30
0.0
  3
elongated_hole-38
  1

  0
ARC
  5
1E1
100
AcDbEntity
  8
0
 62
1
370
-1
  6
CONTINUOUS
100
AcDbCircle
 10
-0.035816677078337
 20
0.320775380184152
 30
0.0
 40
0.3799999999999955
100
AcDbArc
 50
0.0
 51
179.999999999999801
  0
ARC
  5
1E2
100
AcDbEntity
  8
0
 62
1
370
-1
  6
CONTINUOUS
100
AcDbCircle
 10
-0.035816677078337
 20
-0.439224619815846
 30
0.0
 40
0.3799999999999955
100
AcDbArc
 50
180.000000000000199
 51
0.0
  0
LINE
  5
1E3
100
AcDbEntity
100
AcDbLine
  8
0
 62
1
370
-1
  6
CONTINUOUS
 10
-0.4158166770783325
 20
0.3207753801841537
 30
0.0
 11
-0.4158166770783325
 21
-0.4392246198158478
 31
0.0
  0
LINE
  5
1E4
100
AcDbEntity
100
AcDbLine
  8
0
 62
1
370
-1
  6
CONTINUOUS
 10
0.3441833229216655
 20
-0.439224619815846
 30
0.0
 11
0.3441833229216655
 21
0.320775380184152
 31
0.0
  0
ENDBLK
  5
1E5
100
AcDbEntity
  8
0
100
AcDbBlockEnd
  0
BLOCK
  5
1E6
100
AcDbEntity
  8
0
100
AcDbBlockBegin
  2
elongated_hole-39
 70
0
 10
0.0
 20
0.0
 30
0.0
  3
elongated_hole-39
  1

  0
ARC
  5
1E7
100
AcDbEntity
  8
0
 62
1
370
-1
  6
CONTINUOUS
100
AcDbCircle
 10
-0.035816677078337
 20
0.320775380184152
 30
0.0
 40
0.3799999999999955
100
AcDbArc
 50
0.0
 51
179.999999999999801
  0
ARC
  5
1E8
100
AcDbEntity
  8
0
 62
1
370
-1
  6
CONTINUOUS
100
AcDbCircle
 10
-0.035816677078337
 20
-0.439224619815846
 30
0.0
 40
0.3799999999999955
100
AcDbArc
 50
180.000000000000199
 51
0.0
  0
LINE
  5
1E9
100
AcDbEntity
100
AcDbLine
  8
0
 62
1
370
-1
  6
CONTINUOUS
 10
-0.4158166770783325
 20
0.3207753801841537
 30
0.0
 11
-0.4158166770783325
 21
-0.4392246198158478
 31
0.0
  0
LINE
  5
1EA
100
AcDbEntity
100
AcDbLine
  8
0
 62
1
370
-1
  6
CONTINUOUS
 10
0.3441833229216655
 20
-0.439224619815846
 30
0.0
 11
0.3441833229216655
 21
0.320775380184152
 31
0.0
  0
ENDBLK
  5
1EB
100
AcDbEntity
  8
0
100
AcDbBlockEnd
  0
BLOCK
  5
1EC
100
AcDbEntity
  8
0
100
AcDbBlockBegin
  2
elongated_hole-40
 70
0
 10
0.0
 20
0.0
 30
0.0
  3
elongated_hole-40
  1

  0
ARC
  5
1ED
100
AcDbEntity
  8
0
 62
1
370
-1
  6
CONTINUOUS
100
AcDbCircle
 10
-0.035816677078337
 20
0.320775380184152
 30
0.0
 40
0.3799999999999955
100
AcDbArc
 50
0.0
 51
179.999999999999801
  0
ARC
  5
1EE
100
AcDbEntity
  8
0
 62
1
370
-1
  6
CONTINUOUS
100
AcDbCircle
 10
-0.035816677078337
 20
-0.439224619815846
 30
0.0
 40
0.3799999999999955
100
AcDbArc
 50
180.000000000000199
 51
0.0
  0
LINE
  5
1EF
100
AcDbEntity
100
AcDbLine
  8
0
 62
1
370
-1
  6
CONTINUOUS
 10
-0.4158166770783325
 20
0.3207753801841537
 30
0.0
 11
-0.4158166770783325
 21
-0.4392246198158478
 31
0.0
  0
LINE
  5
1F0
100
AcDbEntity
100
AcDbLine
  8
0
 62
1
370
-1
  6
CONTINUOUS
 10
0.3441833229216655
 20
-0.439224619815846
 30
0.0
 11
0.3441833229216655
 21
0.320775380184152
 31
0.0
  0
ENDBLK
  5
1F1
100
AcDbEntity
  8
0
100
AcDbBlockEnd
  0
BLOCK
  5
1F2
100
AcDbEntity
  8
0
100
AcDbBlockBegin
  2
elongated_hole-41
 70
0
 10
0.0
 20
0.0
 30
0.0
  3
elongated_hole-41
  1

  0
ARC
  5
1F3
100
AcDbEntity
  8
0
 62
1
370
-1
  6
CONTINUOUS
100
AcDbCircle
 10
-0.035816677078337
 20
0.320775380184152
 30
0.0
 40
0.3799999999999955
100
AcDbArc
 50
0.0
 51
179.999999999999801
  0
ARC
  5
1F4
100
AcDbEntity
  8
0
 62
1
370
-1
  6
CONTINUOUS
100
AcDbCircle
 10
-0.035816677078337
 20
-0.439224619815846
 30
0.0
 40
0.3799999999999955
100
AcDbArc
 50
180.000000000000199
 51
0.0
  0
LINE
  5
1F5
100
AcDbEntity
100
AcDbLine
  8
0
 62
1
370
-1
  6
CONTINUOUS
 10
-0.4158166770783325
 20
0.320775380184152
 30
0.0
 11
-0.4158166770783325
 21
-0.439224619815846
 31
0.0
  0
LINE
  5
1F6
100
AcDbEntity
100
AcDbLine
  8
0
 62
1
370
-1
  6
CONTINUOUS
 10
0.3441833229216655
 20
-0.439224619815846
 30
0.0
 11
0.3441833229216655
 21
0.320775380184152
 31
0.0
  0
ENDBLK
  5
1F7
100
AcDbEntity
  8
0
100
AcDbBlockEnd
  0
BLOCK
  5
1F8
100
AcDbEntity
  8
0
100
AcDbBlockBegin
  2
elongated_hole-42
 70
0
 10
0.0
 20
0.0
 30
0.0
  3
elongated_hole-42
  1

  0
ARC
  5
1F9
100
AcDbEntity
  8
0
 62
1
370
-1
  6
CONTINUOUS
100
AcDbCircle
 10
-0.035816677078337
 20
0.320775380184152
 30
0.0
 40
0.3799999999999955
100
AcDbArc
 50
0.0
 51
179.999999999999801
  0
ARC
  5
1FA
100
AcDbEntity
  8
0
 62
1
370
-1
  6
CONTINUOUS
100
AcDbCircle
 10
-0.035816677078337
 20
-0.439224619815846
 30
0.0
 40
0.3799999999999955
100
AcDbArc
 50
180.000000000000199
 51
0.0
  0
LINE
  5
1FB
100
AcDbEntity
100
AcDbLine
  8
0
 62
1
370
-1
  6
CONTINUOUS
 10
-0.4158166770783325
 20
0.320775380184152
 30
0.0
 11
-0.4158166770783325
 21
-0.439224619815846
 31
0.0
  0
LINE
  5
1FC
100
AcDbEntity
100
AcDbLine
  8
0
 62
1
370
-1
  6
CONTINUOUS
 10
0.3441833229216655
 20
-0.439224619815846
 30
0.0
 11
0.3441833229216655
 21
0.320775380184152
 31
0.0
  0
ENDBLK
  5
1FD
100
AcDbEntity
  8
0
100
AcDbBlockEnd
  0
BLOCK
  5
1FE
100
AcDbEntity
  8
0
100
AcDbBlockBegin
  2
elongated_hole-43
 70
0
 10
0.0
 20
0.0
 30
0.0
  3
elongated_hole-43
  1

  0
ARC
  5
1FF
100
AcDbEntity
  8
0
 62
1
370
-1
  6
CONTINUOUS
100
AcDbCircle
 10
-0.0001475155279556
 20
0.3798524844720461
 30
0.0
 40
0.3799999999999955
100
AcDbArc
 50
0.0
 51
179.999999999999801
  0
ARC
  5
200
100
AcDbEntity
  8
0
 62
1
370
-1
  6
CONTINUOUS
100
AcDbCircle
 10
-0.0001475155279556
 20
-0.3801475155279519
 30
0.0
 40
0.3799999999999955
100
AcDbArc
 50
180.000000000000199
 51
0.0
  0
LINE
  5
201
100
AcDbEntity
100
AcDbLine
  8
0
 62
1
370
-1
  6
CONTINUOUS
 10
-0.380147515527951
 20
0.3798524844720479
 30
0.0
 11
-0.380147515527951
 21
-0.3801475155279537
 31
0.0
  0
LINE
  5
202
100
AcDbEntity
100
AcDbLine
  8
0
 62
1
370
-1
  6
CONTINUOUS
 10
0.3798524844720468
 20
-0.3801475155279519
 30
0.0
 11
0.3798524844720468
 21
0.3798524844720461
 31
0.0
  0
ENDBLK
  5
203
100
AcDbEntity
  8
0
100
AcDbBlockEnd
  0
BLOCK
  5
204
100
AcDbEntity
  8
0
100
AcDbBlockBegin
  2
elongated_hole-44
 70
0
 10
0.0
 20
0.0
 30
0.0
  3
elongated_hole-44
  1

  0
ARC
  5
205
100
AcDbEntity
  8
0
 62
1
370
-1
  6
CONTINUOUS
100
AcDbCircle
 10
-0.0001475155279556
 20
0.3798524844720461
 30
0.0
 40
0.3799999999999955
100
AcDbArc
 50
0.0
 51
179.999999999999801
  0
ARC
  5
206
100
AcDbEntity
  8
0
 62
1
370
-1
  6
CONTINUOUS
100
AcDbCircle
 10
-0.0001475155279556
 20
-0.3801475155279519
 30
0.0
 40
0.3799999999999955
100
AcDbArc
 50
180.000000000000199
 51
0.0
  0
LINE
  5
207
100
AcDbEntity
100
AcDbLine
  8
0
 62
1
370
-1
  6
CONTINUOUS
 10
-0.380147515527951
 20
0.3798524844720479
 30
0.0
 11
-0.380147515527951
 21
-0.3801475155279537
 31
0.0
  0
LINE
  5
208
100
AcDbEntity
100
AcDbLine
  8
0
 62
1
370
-1
  6
CONTINUOUS
 10
0.379852484472047
 20
-0.3801475155279519
 30
0.0
 11
0.379852484472047
 21
0.3798524844720461
 31
0.0
  0
ENDBLK
  5
209
100
AcDbEntity
  8
0
100
AcDbBlockEnd
  0
BLOCK
  5
20A
100
AcDbEntity
  8
0
100
AcDbBlockBegin
  2
elongated_hole-45
 70
0
 10
0.0
 20
0.0
 30
0.0
  3
elongated_hole-45
  1

  0
ARC
  5
20B
100
AcDbEntity
  8
0
 62
1
370
-1
  6
CONTINUOUS
100
AcDbCircle
 10
-0.0001475155279556
 20
0.3798524844720461
 30
0.0
 40
0.3799999999999955
100
AcDbArc
 50
0.0
 51
179.999999999999801
  0
ARC
  5
20C
100
AcDbEntity
  8
0
 62
1
370
-1
  6
CONTINUOUS
100
AcDbCircle
 10
-0.0001475155279556
 20
-0.3801475155279519
 30
0.0
 40
0.3799999999999955
100
AcDbArc
 50
180.000000000000199
 51
0.0
  0
LINE
  5
20D
100
AcDbEntity
100
AcDbLine
  8
0
 62
1
370
-1
  6
CONTINUOUS
 10
-0.380147515527951
 20
0.3798524844720479
 30
0.0
 11
-0.380147515527951
 21
-0.3801475155279537
 31
0.0
  0
LINE
  5
20E
100
AcDbEntity
100
AcDbLine
  8
0
 62
1
370
-1
  6
CONTINUOUS
 10
0.3798524844720468
 20
-0.3801475155279519
 30
0.0
 11
0.3798524844720468
 21
0.3798524844720461
 31
0.0
  0
ENDBLK
  5
20F
100
AcDbEntity
  8
0
100
AcDbBlockEnd
  0
BLOCK
  5
210
100
AcDbEntity
  8
0
100
AcDbBlockBegin
  2
elongated_hole-46
 70
0
 10
0.0
 20
0.0
 30
0.0
  3
elongated_hole-46
  1

  0
ARC
  5
211
100
AcDbEntity
  8
0
 62
1
370
-1
  6
CONTINUOUS
100
AcDbCircle
 10
-0.0001475155279556
 20
0.3798524844720461
 30
0.0
 40
0.3799999999999955
100
AcDbArc
 50
0.0
 51
179.999999999999801
  0
ARC
  5
212
100
AcDbEntity
  8
0
 62
1
370
-1
  6
CONTINUOUS
100
AcDbCircle
 10
-0.0001475155279556
 20
-0.3801475155279519
 30
0.0
 40
0.3799999999999955
100
AcDbArc
 50
180.000000000000199
 51
0.0
  0
LINE
  5
213
100
AcDbEntity
100
AcDbLine
  8
0
 62
1
370
-1
  6
CONTINUOUS
 10
-0.380147515527951
 20
0.3798524844720479
 30
0.0
 11
-0.380147515527951
 21
-0.3801475155279537
 31
0.0
  0
LINE
  5
214
100
AcDbEntity
100
AcDbLine
  8
0
 62
1
370
-1
  6
CONTINUOUS
 10
0.379852484472047
 20
-0.3801475155279519
 30
0.0
 11
0.379852484472047
 21
0.3798524844720461
 31
0.0
  0
ENDBLK
  5
215
100
AcDbEntity
  8
0
100
AcDbBlockEnd
  0
BLOCK
  5
216
100
AcDbEntity
  8
0
100
AcDbBlockBegin
  2
elongated_hole-47
 70
0
 10
0.0
 20
0.0
 30
0.0
  3
elongated_hole-47
  1

  0
ARC
  5
217
100
AcDbEntity
  8
0
 62
1
370
-1
  6
CONTINUOUS
100
AcDbCircle
 10
-0.0001475155279556
 20
0.3798524844720461
 30
0.0
 40
0.3799999999999955
100
AcDbArc
 50
0.0
 51
179.999999999999801
  0
ARC
  5
218
100
AcDbEntity
  8
0
 62
1
370
-1
  6
CONTINUOUS
100
AcDbCircle
 10
-0.0001475155279556
 20
-0.3801475155279519
 30
0.0
 40
0.3799999999999955
100
AcDbArc
 50
180.000000000000199
 51
0.0
  0
LINE
  5
219
100
AcDbEntity
100
AcDbLine
  8
0
 62
1
370
-1
  6
CONTINUOUS
 10
-0.380147515527951
 20
0.3798524844720461
 30
0.0
 11
-0.380147515527951
 21
-0.3801475155279519
 31
0.0
  0
LINE
  5
21A
100
AcDbEntity
100
AcDbLine
  8
0
 62
1
370
-1
  6
CONTINUOUS
 10
0.3798524844720468
 20
-0.3801475155279519
 30
0.0
 11
0.3798524844720468
 21
0.3798524844720461
 31
0.0
  0
ENDBLK
  5
21B
100
AcDbEntity
  8
0
100
AcDbBlockEnd
  0
BLOCK
  5
21C
100
AcDbEntity
  8
0
100
AcDbBlockBegin
  2
elongated_hole-48
 70
0
 10
0.0
 20
0.0
 30
0.0
  3
elongated_hole-48
  1

  0
ARC
  5
21D
100
AcDbEntity
  8
0
 62
1
370
-1
  6
CONTINUOUS
100
AcDbCircle
 10
-0.0001475155279556
 20
0.3798524844720461
 30
0.0
 40
0.3799999999999955
100
AcDbArc
 50
0.0
 51
179.999999999999801
  0
ARC
  5
21E
100
AcDbEntity
  8
0
 62
1
370
-1
  6
CONTINUOUS
100
AcDbCircle
 10
-0.0001475155279556
 20
-0.3801475155279519
 30
0.0
 40
0.3799999999999955
100
AcDbArc
 50
180.000000000000199
 51
0.0
  0
LINE
  5
21F
100
AcDbEntity
100
AcDbLine
  8
0
 62
1
370
-1
  6
CONTINUOUS
 10
-0.380147515527951
 20
0.3798524844720461
 30
0.0
 11
-0.380147515527951
 21
-0.3801475155279519
 31
0.0
  0
LINE
  5
220
100
AcDbEntity
100
AcDbLine
  8
0
 62
1
370
-1
  6
CONTINUOUS
 10
0.379852484472047
 20
-0.3801475155279519
 30
0.0
 11
0.379852484472047
 21
0.3798524844720461
 31
0.0
  0
ENDBLK
  5
221
100
AcDbEntity
  8
0
100
AcDbBlockEnd
  0
BLOCK
  5
222
100
AcDbEntity
  8
0
100
AcDbBlockBegin
  2
elongated_hole-49
 70
0
 10
0.0
 20
0.0
 30
0.0
  3
elongated_hole-49
  1

  0
ARC
  5
223
100
AcDbEntity
  8
0
 62
1
370
-1
  6
CONTINUOUS
100
AcDbCircle
 10
-0.0001475155279564
 20
0.3798524844720461
 30
0.0
 40
0.3799999999999955
100
AcDbArc
 50
0.0
 51
179.999999999999801
  0
ARC
  5
224
100
AcDbEntity
  8
0
 62
1
370
-1
  6
CONTINUOUS
100
AcDbCircle
 10
-0.0001475155279564
 20
-0.3801475155279519
 30
0.0
 40
0.3799999999999955
100
AcDbArc
 50
180.000000000000199
 51
0.0
  0
LINE
  5
225
100
AcDbEntity
100
AcDbLine
  8
0
 62
1
370
-1
  6
CONTINUOUS
 10
-0.3801475155279519
 20
0.3798524844720461
 30
0.0
 11
-0.3801475155279519
 21
-0.3801475155279519
 31
0.0
  0
LINE
  5
226
100
AcDbEntity
100
AcDbLine
  8
0
 62
1
370
-1
  6
CONTINUOUS
 10
0.3798524844720461
 20
-0.3801475155279519
 30
0.0
 11
0.3798524844720461
 21
0.3798524844720461
 31
0.0
  0
ENDBLK
  5
227
100
AcDbEntity
  8
0
100
AcDbBlockEnd
  0
BLOCK
  5
228
100
AcDbEntity
  8
0
100
AcDbBlockBegin
  2
elongated_hole-50
 70
0
 10
0.0
 20
0.0
 30
0.0
  3
elongated_hole-50
  1

  0
ARC
  5
229
100
AcDbEntity
  8
0
 62
1
370
-1
  6
CONTINUOUS
100
AcDbCircle
 10
-0.0001475155279564
 20
0.3798524844720461
 30
0.0
 40
0.3799999999999955
100
AcDbArc
 50
0.0
 51
179.999999999999801
  0
ARC
  5
22A
100
AcDbEntity
  8
0
 62
1
370
-1
  6
CONTINUOUS
100
AcDbCircle
 10
-0.0001475155279564
 20
-0.3801475155279519
 30
0.0
 40
0.3799999999999955
100
AcDbArc
 50
180.000000000000199
 51
0.0
  0
LINE
  5
22B
100
AcDbEntity
100
AcDbLine
  8
0
 62
1
370
-1
  6
CONTINUOUS
 10
-0.3801475155279519
 20
0.3798524844720461
 30
0.0
 11
-0.3801475155279519
 21
-0.3801475155279519
 31
0.0
  0
LINE
  5
22C
100
AcDbEntity
100
AcDbLine
  8
0
 62
1
370
-1
  6
CONTINUOUS
 10
0.3798524844720461
 20
-0.3801475155279519
 30
0.0
 11
0.3798524844720461
 21
0.3798524844720461
 31
0.0
  0
ENDBLK
  5
22D
100
AcDbEntity
  8
0
100
AcDbBlockEnd
  0
BLOCK
  5
22E
100
AcDbEntity
  8
0
100
AcDbBlockBegin
  2
elongated_hole-51
 70
0
 10
0.0
 20
0.0
 30
0.0
  3
elongated_hole-51
  1

  0
ARC
  5
22F
100
AcDbEntity
  8
0
 62
1
370
-1
  6
CONTINUOUS
100
AcDbCircle
 10
-0.0001475155279564
 20
0.3798524844720461
 30
0.0
 40
0.3799999999999955
100
AcDbArc
 50
0.0
 51
179.999999999999801
  0
ARC
  5
230
100
AcDbEntity
  8
0
 62
1
370
-1
  6
CONTINUOUS
100
AcDbCircle
 10
-0.0001475155279564
 20
-0.3801475155279519
 30
0.0
 40
0.3799999999999955
100
AcDbArc
 50
180.000000000000199
 51
0.0
  0
LINE
  5
231
100
AcDbEntity
100
AcDbLine
  8
0
 62
1
370
-1
  6
CONTINUOUS
 10
-0.3801475155279519
 20
0.3798524844720479
 30
0.0
 11
-0.3801475155279519
 21
-0.3801475155279537
 31
0.0
  0
LINE
  5
232
100
AcDbEntity
100
AcDbLine
  8
0
 62
1
370
-1
  6
CONTINUOUS
 10
0.3798524844720461
 20
-0.3801475155279519
 30
0.0
 11
0.3798524844720461
 21
0.3798524844720461
 31
0.0
  0
ENDBLK
  5
233
100
AcDbEntity
  8
0
100
AcDbBlockEnd
  0
BLOCK
  5
234
100
AcDbEntity
  8
0
100
AcDbBlockBegin
  2
elongated_hole-52
 70
0
 10
0.0
 20
0.0
 30
0.0
  3
elongated_hole-52
  1

  0
ARC
  5
235
100
AcDbEntity
  8
0
 62
1
370
-1
  6
CONTINUOUS
100
AcDbCircle
 10
-0.0001475155279564
 20
0.3798524844720461
 30
0.0
 40
0.3799999999999955
100
AcDbArc
 50
0.0
 51
179.999999999999801
  0
ARC
  5
236
100
AcDbEntity
  8
0
 62
1
370
-1
  6
CONTINUOUS
100
AcDbCircle
 10
-0.0001475155279564
 20
-0.3801475155279519
 30
0.0
 40
0.3799999999999955
100
AcDbArc
 50
180.000000000000199
 51
0.0
  0
LINE
  5
237
100
AcDbEntity
100
AcDbLine
  8
0
 62
1
370
-1
  6
CONTINUOUS
 10
-0.3801475155279519
 20
0.3798524844720479
 30
0.0
 11
-0.3801475155279519
 21
-0.3801475155279537
 31
0.0
  0
LINE
  5
238
100
AcDbEntity
100
AcDbLine
  8
0
 62
1
370
-1
  6
CONTINUOUS
 10
0.3798524844720461
 20
-0.3801475155279519
 30
0.0
 11
0.3798524844720461
 21
0.3798524844720461
 31
0.0
  0
ENDBLK
  5
239
100
AcDbEntity
  8
0
100
AcDbBlockEnd
  0
BLOCK
  5
23A
100
AcDbEntity
  8
0
100
AcDbBlockBegin
  2
L-F1-0
 70
0
 10
0.0
 20
0.0
 30
0.0
  3
L-F1-0
  1

  0
LINE
  5
23B
100
AcDbEntity
100
AcDbLine
  8
faces
 62
1
370
-1
  6
CONTINUOUS
 10
-3.0280899827497691
 20
10.8971910017250249
 30
0.0
 11
-2.8280899827497734
 21
10.8971910017250249
 31
0.0
  0
LINE
  5
23C
100
AcDbEntity
100
AcDbLine
  8
faces
 62
1
370
-1
  6
CONTINUOUS
 10
-2.8280899827497734
 20
10.8971910017250249
 30
0.0
 11
-2.8280899827497734
 21
11.2971910017250234
 31
0.0
  0
LINE
  5
23D
100
AcDbEntity
100
AcDbLine
  8
faces
 62
1
370
-1
  6
CONTINUOUS
 10
-3.0280899827497763
 20
-11.502808998274979
 30
0.0
 11
-2.8280899827497734
 21
-11.502808998274979
 31
0.0
  0
LINE
  5
23E
100
AcDbEntity
100
AcDbLine
  8
faces
 62
1
370
-1
  6
ByLayer
 10
-2.8280899827497734
 20
-11.502808998274979
 30
0.0
 11
-2.8280899827497734
 21
-11.9028089982749776
 31
0.0
  0
INSERT
  5
23F
100
AcDbEntity
100
AcDbBlockReference
  8
0
 62
256
370
-1
  6
ByLayer
  2
elongated_hole-49
 10
-1.5280899827497765
 20
-10.3028089982749762
 30
0.0
  0
INSERT
  5
240
100
AcDbEntity
100
AcDbBlockReference
  8
0
 62
256
370
-1
  6
ByLayer
  2
elongated_hole-50
 10
1.4719100172502237
 20
-10.3028089982749762
 30
0.0
  0
INSERT
  5
241
100
AcDbEntity
100
AcDbBlockReference
  8
0
 62
256
370
-1
  6
ByLayer
  2
elongated_hole-51
 10
-1.5280899827497765
 20
9.6971910017250238
 30
0.0
  0
INSERT
  5
242
100
AcDbEntity
100
AcDbBlockReference
  8
0
 62
256
370
-1
  6
ByLayer
  2
elongated_hole-52
 10
1.4719100172502237
 20
9.6971910017250238
 30
0.0
  0
LINE
  5
243
100
AcDbEntity
100
AcDbLine
  8
faces
 62
256
370
-1
  6
ByLayer
 10
-3.0280899827497691
 20
10.8971910017250249
 30
0.0
 11
-3.0280899827497763
 21
-11.502808998274979
 31
0.0
  0
LINE
  5
244
100
AcDbEntity
100
AcDbLine
  8
faces
 62
256
370
-1
  6
ByLayer
 10
2.9719100172502309
 20
-11.9028089982749705
 30
0.0
 11
2.9719100172502237
 21
11.2971910017250234
 31
0.0
  0
LINE
  5
245
100
AcDbEntity
100
AcDbLine
  8
faces
 62
256
370
-1
  6
ByLayer
 10
-2.8280899827497734
 20
-11.9028089982749847
 30
0.0
 11
2.9719100172502309
 21
-11.9028089982749705
 31
0.0
  0
LINE
  5
246
100
AcDbEntity
100
AcDbLine
  8
faces
 62
256
370
-1
  6
ByLayer
 10
2.9719100172502237
 20
11.2971910017250234
 30
0.0
 11
-2.8280899827497734
 21
11.2971910017250234
 31
0.0
  0
ENDBLK
  5
247
100
AcDbEntity
  8
0
100
AcDbBlockEnd
  0
BLOCK
  5
248
100
AcDbEntity
  8
0
100
AcDbBlockBegin
  2
L-F2-0
 70
0
 10
0.0
 20
0.0
 30
0.0
  3
L-F2-0
  1

  0
LINE
  5
249
100
AcDbEntity
100
AcDbLine
  8
faces
 62
1
370
-1
  6
CONTINUOUS
 10
-3.2161869085174306
 20
11.5068020504734712
 30
0.0
 11
4.7838130914825694
 21
11.5068020504734712
 31
0.0
  0
LINE
  5
24A
100
AcDbEntity
100
AcDbLine
  8
faces
 62
1
370
-1
  6
CONTINUOUS
 10
-3.2161869085174306
 20
-11.6931979495265317
 30
0.0
 11
4.7838130914825658
 21
-11.6931979495265317
 31
0.0
  0
INSERT
  5
24B
100
AcDbEntity
100
AcDbBlockReference
  8
faces
 62
256
370
-1
  6
ByLayer
  2
elongated_hole-45
 10
-1.2161869085174306
 20
9.9068020504734697
 30
0.0
  0
INSERT
  5
24C
100
AcDbEntity
100
AcDbBlockReference
  8
faces
 62
256
370
-1
  6
ByLayer
  2
elongated_hole-46
 10
2.7838130914825698
 20
9.9068020504734697
 30
0.0
  0
INSERT
  5
24D
100
AcDbEntity
100
AcDbBlockReference
  8
0
 62
256
370
-1
  6
ByLayer
  2
elongated_hole-47
 10
-1.2161869085174306
 20
-10.0931979495265303
 30
0.0
  0
INSERT
  5
24E
100
AcDbEntity
100
AcDbBlockReference
  8
0
 62
256
370
-1
  6
ByLayer
  2
elongated_hole-48
 10
2.7838130914825698
 20
-10.0931979495265303
 30
0.0
  0
LINE
  5
24F
100
AcDbEntity
100
AcDbLine
  8
faces
 62
256
370
-1
  6
ByLayer
 10
4.7838130914825694
 20
11.5068020504734712
 30
0.0
 11
4.7838130914825658
 21
-11.6931979495265317
 31
0.0
  0
LINE
  5
250
100
AcDbEntity
100
AcDbLine
  8
faces
 62
256
370
-1
  6
ByLayer
 10
-3.2161869085174306
 20
11.5068020504734712
 30
0.0
 11
-3.2161869085174306
 21
-11.6931979495265317
 31
0.0
  0
ARC
  5
251
100
AcDbEntity
  8
faces
 62
2
370
-1
  6
ByLayer
100
AcDbCircle
 10
-1.0911869085174324
 20
-0.0931979495265303
 30
0.0
 40
1.125
100
AcDbArc
 50
90.0
 51
270.0
  0
ARC
  5
252
100
AcDbEntity
  8
faces
 62
2
370
-1
  6
ByLayer
100
AcDbCircle
 10
1.1588130914825681
 20
-0.0931979495265303
 30
0.0
 40
1.125
100
AcDbArc
 50
270.0
 51
90.0
  0
LINE
  5
253
100
AcDbEntity
100
AcDbLine
  8
faces
 62
2
370
-1
  6
ByLayer
 10
-1.0911869085174324
 20
1.0318020504734697
 30
0.0
 11
1.1588130914825681
 21
1.0318020504734697
 31
0.0
  0
LINE
  5
254
100
AcDbEntity
100
AcDbLine
  8
faces
 62
2
370
-1
  6
ByLayer
 10
1.1588130914825681
 20
-1.2181979495265303
 30
0.0
 11
-1.0911869085174324
 21
-1.2181979495265303
 31
0.0
  0
ENDBLK
  5
255
100
AcDbEntity
  8
0
100
AcDbBlockEnd
  0
BLOCK
  5
256
100
AcDbEntity
  8
0
100
AcDbBlockBegin
  2
L-F3-0
 70
0
 10
0.0
 20
0.0
 30
0.0
  3
L-F3-0
  1

  0
LINE
  5
257
100
AcDbEntity
100
AcDbLine
  8
0
 62
5
370
-1
  6
CONTINUOUS
 10
26.0276243093921735
 20
-1.7094267955801072
 30
0.0
 11
26.0276243093921735
 21
1.2905732044198928
 31
0.0
  0
LINE
  5
258
100
AcDbEntity
100
AcDbLine
  8
0
 62
5
370
-1
  6
CONTINUOUS
 10
26.0276243093921735
 20
1.2905732044198928
 30
0.0
 11
20.2276243093921764
 21
1.2905732044198928
 31
0.0
  0
LINE
  5
259
100
AcDbEntity
100
AcDbLine
  8
0
 62
5
370
-1
  6
CONTINUOUS
 10
26.0276243093921735
 20
-1.7094267955801108
 30
0.0
 11
-17.4723756906078265
 21
-1.7094267955801055
 31
0.0
  0
LINE
  5
25A
100
AcDbEntity
100
AcDbLine
  8
0
 62
5
370
-1
  6
CONTINUOUS
 10
13.8276243093921707
 20
1.2905732044198928
 30
0.0
 11
-17.47237569060783
 21
1.2905732044198963
 31
0.0
  0
LINE
  5
25B
100
AcDbEntity
100
AcDbLine
  8
0
 62
5
370
-1
  6
CONTINUOUS
 10
-17.4723756906078265
 20
-1.709426795580109
 30
0.0
 11
-17.4723756906078265
 21
1.290573204419891
 31
0.0
  0
LINE
  5
25C
100
AcDbEntity
100
AcDbLine
  8
0
 62
5
370
-1
  6
CONTINUOUS
 10
13.8276243093921742
 20
0.8905732044198889
 30
0.0
 11
13.8276243093921742
 21
1.2905732044198928
 31
0.0
  0
LINE
  5
25D
100
AcDbEntity
100
AcDbLine
  8
0
 62
5
370
-1
  6
CONTINUOUS
 10
20.2276243093921764
 20
1.2905732044198928
 30
0.0
 11
20.2276243093921764
 21
0.8905732044198889
 31
0.0
  0
LINE
  5
25E
100
AcDbEntity
100
AcDbLine
  8
0
 62
5
370
-1
  6
CONTINUOUS
 10
20.2276243093921693
 20
0.8905732044198853
 30
0.0
 11
13.8276243093921707
 21
0.8905732044198853
 31
0.0
  0
ARC
  5
25F
100
AcDbEntity
  8
0
 62
1
370
-1
  6
CONTINUOUS
100
AcDbCircle
 10
21.5276243093921735
 20
0.0705732044198886
 30
0.0
 40
0.3799999999999955
100
AcDbArc
 50
0.0
 51
179.999999999999801
  0
ARC
  5
260
100
AcDbEntity
  8
0
 62
1
370
-1
  6
CONTINUOUS
100
AcDbCircle
 10
21.5276243093921735
 20
-0.6894267955801094
 30
0.0
 40
0.3799999999999955
100
AcDbArc
 50
180.000000000000199
 51
0.0
  0
LINE
  5
261
100
AcDbEntity
100
AcDbLine
  8
0
 62
1
370
-1
  6
CONTINUOUS
 10
21.1476243093921781
 20
0.0705732044198903
 30
0.0
 11
21.1476243093921781
 21
-0.6894267955801112
 31
0.0
  0
LINE
  5
262
100
AcDbEntity
100
AcDbLine
  8
0
 62
1
370
-1
  6
CONTINUOUS
 10
21.9076243093921761
 20
-0.6894267955801094
 30
0.0
 11
21.9076243093921761
 21
0.0705732044198886
 31
0.0
  0
INSERT
  5
263
100
AcDbEntity
100
AcDbBlockReference
  8
0
 62
256
370
-1
  6
ByLayer
  2
elongated_hole-4
 10
-15.4723756906078265
 20
-0.3094267955801104
 30
0.0
  0
INSERT
  5
264
100
AcDbEntity
100
AcDbBlockReference
  8
0
 62
256
370
-1
  6
ByLayer
  2
elongated_hole-5
 10
-11.4723756906078265
 20
-0.3094267955801104
 30
0.0
  0
INSERT
  5
265
100
AcDbEntity
100
AcDbBlockReference
  8
0
 62
256
370
-1
  6
ByLayer
  2
elongated_hole-8
 10
24.5276243093921735
 20
-0.3094267955801104
 30
0.0
  0
ENDBLK
  5
266
100
AcDbEntity
  8
0
100
AcDbBlockEnd
  0
BLOCK
  5
267
100
AcDbEntity
  8
0
100
AcDbBlockBegin
  2
L-F3-1
 70
0
 10
0.0
 20
0.0
 30
0.0
  3
L-F3-1
  1

  0
LINE
  5
268
100
AcDbEntity
100
AcDbLine
  8
0
 62
5
370
-1
  6
CONTINUOUS
 10
26.0276243093921735
 20
-1.7094267955801072
 30
0.0
 11
26.0276243093921735
 21
1.2905732044198928
 31
0.0
  0
LINE
  5
269
100
AcDbEntity
100
AcDbLine
  8
0
 62
5
370
-1
  6
CONTINUOUS
 10
26.0276243093921735
 20
1.2905732044198928
 30
0.0
 11
20.2276243093921764
 21
1.2905732044198928
 31
0.0
  0
LINE
  5
26A
100
AcDbEntity
100
AcDbLine
  8
0
 62
5
370
-1
  6
CONTINUOUS
 10
26.0276243093921735
 20
-1.7094267955801108
 30
0.0
 11
-17.4723756906078265
 21
-1.7094267955801055
 31
0.0
  0
LINE
  5
26B
100
AcDbEntity
100
AcDbLine
  8
0
 62
5
370
-1
  6
CONTINUOUS
 10
13.8276243093921707
 20
1.2905732044198928
 30
0.0
 11
-17.4723756906078265
 21
1.2905732044198963
 31
0.0
  0
LINE
  5
26C
100
AcDbEntity
100
AcDbLine
  8
0
 62
5
370
-1
  6
CONTINUOUS
 10
-17.4723756906078265
 20
-1.709426795580109
 30
0.0
 11
-17.4723756906078265
 21
1.2905732044198892
 31
0.0
  0
LINE
  5
26D
100
AcDbEntity
100
AcDbLine
  8
0
 62
5
370
-1
  6
CONTINUOUS
 10
13.8276243093921742
 20
0.8905732044198906
 30
0.0
 11
13.8276243093921742
 21
1.2905732044198928
 31
0.0
  0
LINE
  5
26E
100
AcDbEntity
100
AcDbLine
  8
0
 62
5
370
-1
  6
CONTINUOUS
 10
20.2276243093921764
 20
1.2905732044198928
 30
0.0
 11
20.2276243093921764
 21
0.8905732044198906
 31
0.0
  0
LINE
  5
26F
100
AcDbEntity
100
AcDbLine
  8
0
 62
5
370
-1
  6
CONTINUOUS
 10
20.2276243093921693
 20
0.8905732044198835
 30
0.0
 11
13.8276243093921707
 21
0.8905732044198835
 31
0.0
  0
ARC
  5
270
100
AcDbEntity
  8
0
 62
1
370
-1
  6
CONTINUOUS
100
AcDbCircle
 10
21.5276243093921735
 20
0.0705732044198903
 30
0.0
 40
0.3799999999999955
100
AcDbArc
 50
0.0
 51
179.999999999999801
  0
ARC
  5
271
100
AcDbEntity
  8
0
 62
1
370
-1
  6
CONTINUOUS
100
AcDbCircle
 10
21.5276243093921735
 20
-0.6894267955801077
 30
0.0
 40
0.3799999999999955
100
AcDbArc
 50
180.000000000000199
 51
0.0
  0
LINE
  5
272
100
AcDbEntity
100
AcDbLine
  8
0
 62
1
370
-1
  6
CONTINUOUS
 10
21.1476243093921781
 20
0.0705732044198903
 30
0.0
 11
21.1476243093921781
 21
-0.6894267955801112
 31
0.0
  0
LINE
  5
273
100
AcDbEntity
100
AcDbLine
  8
0
 62
1
370
-1
  6
CONTINUOUS
 10
21.9076243093921761
 20
-0.6894267955801077
 30
0.0
 11
21.9076243093921761
 21
0.0705732044198903
 31
0.0
  0
INSERT
  5
274
100
AcDbEntity
100
AcDbBlockReference
  8
0
 62
256
370
-1
  6
ByLayer
  2
elongated_hole-4
 10
-15.4723756906078282
 20
-0.3094267955801087
 30
0.0
  0
INSERT
  5
275
100
AcDbEntity
100
AcDbBlockReference
  8
0
 62
256
370
-1
  6
ByLayer
  2
elongated_hole-5
 10
-11.4723756906078282
 20
-0.3094267955801087
 30
0.0
  0
INSERT
  5
276
100
AcDbEntity
100
AcDbBlockReference
  8
0
 62
256
370
-1
  6
ByLayer
  2
elongated_hole-8
 10
24.5276243093921735
 20
-0.3094267955801087
 30
0.0
  0
ENDBLK
  5
277
100
AcDbEntity
  8
0
100
AcDbBlockEnd
  0
BLOCK
  5
278
100
AcDbEntity
  8
0
100
AcDbBlockBegin
  2
L-F3-2
 70
0
 10
0.0
 20
0.0
 30
0.0
  3
L-F3-2
  1

  0
LINE
  5
279
100
AcDbEntity
100
AcDbLine
  8
0
 62
5
370
-1
  6
CONTINUOUS
 10
26.0276243093921735
 20
-1.7094267955801072
 30
0.0
 11
26.0276243093921735
 21
1.2905732044198928
 31
0.0
  0
LINE
  5
27A
100
AcDbEntity
100
AcDbLine
  8
0
 62
5
370
-1
  6
CONTINUOUS
 10
26.0276243093921735
 20
1.2905732044198928
 30
0.0
 11
20.2276243093921764
 21
1.2905732044198928
 31
0.0
  0
LINE
  5
27B
100
AcDbEntity
100
AcDbLine
  8
0
 62
5
370
-1
  6
CONTINUOUS
 10
26.0276243093921735
 20
-1.7094267955801108
 30
0.0
 11
-17.4723756906078265
 21
-1.7094267955801072
 31
0.0
  0
LINE
  5
27C
100
AcDbEntity
100
AcDbLine
  8
0
 62
5
370
-1
  6
CONTINUOUS
 10
13.8276243093921707
 20
1.2905732044198928
 30
0.0
 11
-17.4723756906078265
 21
1.2905732044198963
 31
0.0
  0
LINE
  5
27D
100
AcDbEntity
100
AcDbLine
  8
0
 62
5
370
-1
  6
CONTINUOUS
 10
-17.4723756906078265
 20
-1.7094267955801072
 30
0.0
 11
-17.4723756906078265
 21
1.2905732044198928
 31
0.0
  0
LINE
  5
27E
100
AcDbEntity
100
AcDbLine
  8
0
 62
5
370
-1
  6
CONTINUOUS
 10
13.8276243093921742
 20
0.8905732044198871
 30
0.0
 11
13.8276243093921742
 21
1.2905732044198928
 31
0.0
  0
LINE
  5
27F
100
AcDbEntity
100
AcDbLine
  8
0
 62
5
370
-1
  6
CONTINUOUS
 10
20.2276243093921764
 20
1.2905732044198928
 30
0.0
 11
20.2276243093921764
 21
0.8905732044198871
 31
0.0
  0
LINE
  5
280
100
AcDbEntity
100
AcDbLine
  8
0
 62
5
370
-1
  6
CONTINUOUS
 10
20.2276243093921693
 20
0.8905732044198871
 30
0.0
 11
13.8276243093921707
 21
0.8905732044198871
 31
0.0
  0
ARC
  5
281
100
AcDbEntity
  8
0
 62
1
370
-1
  6
CONTINUOUS
100
AcDbCircle
 10
21.5276243093921735
 20
0.0705732044198903
 30
0.0
 40
0.3799999999999955
100
AcDbArc
 50
0.0
 51
179.999999999999801
  0
ARC
  5
282
100
AcDbEntity
  8
0
 62
1
370
-1
  6
CONTINUOUS
100
AcDbCircle
 10
21.5276243093921735
 20
-0.6894267955801112
 30
0.0
 40
0.3799999999999955
100
AcDbArc
 50
180.000000000000199
 51
0.0
  0
LINE
  5
283
100
AcDbEntity
100
AcDbLine
  8
0
 62
1
370
-1
  6
CONTINUOUS
 10
21.1476243093921781
 20
0.0705732044198903
 30
0.0
 11
21.1476243093921781
 21
-0.6894267955801112
 31
0.0
  0
LINE
  5
284
100
AcDbEntity
100
AcDbLine
  8
0
 62
1
370
-1
  6
CONTINUOUS
 10
21.9076243093921761
 20
-0.6894267955801112
 30
0.0
 11
21.9076243093921761
 21
0.0705732044198903
 31
0.0
  0
INSERT
  5
285
100
AcDbEntity
100
AcDbBlockReference
  8
0
 62
256
370
-1
  6
ByLayer
  2
elongated_hole-4
 10
-15.4723756906078282
 20
-0.3094267955801087
 30
0.0
  0
INSERT
  5
286
100
AcDbEntity
100
AcDbBlockReference
  8
0
 62
256
370
-1
  6
ByLayer
  2
elongated_hole-5
 10
-11.4723756906078282
 20
-0.3094267955801087
 30
0.0
  0
INSERT
  5
287
100
AcDbEntity
100
AcDbBlockReference
  8
0
 62
256
370
-1
  6
ByLayer
  2
elongated_hole-8
 10
24.5276243093921735
 20
-0.3094267955801087
 30
0.0
  0
ENDBLK
  5
288
100
AcDbEntity
  8
0
100
AcDbBlockEnd
  0
BLOCK
  5
289
100
AcDbEntity
  8
0
100
AcDbBlockBegin
  2
L-F3-3
 70
0
 10
0.0
 20
0.0
 30
0.0
  3
L-F3-3
  1

  0
LINE
  5
28A
100
AcDbEntity
100
AcDbLine
  8
0
 62
5
370
-1
  6
CONTINUOUS
 10
26.0276243093921735
 20
-1.7094267955801072
 30
0.0
 11
26.0276243093921735
 21
1.2905732044198928
 31
0.0
  0
LINE
  5
28B
100
AcDbEntity
100
AcDbLine
  8
0
 62
5
370
-1
  6
CONTINUOUS
 10
26.0276243093921735
 20
1.2905732044198928
 30
0.0
 11
20.2276243093921764
 21
1.2905732044198928
 31
0.0
  0
LINE
  5
28C
100
AcDbEntity
100
AcDbLine
  8
0
 62
5
370
-1
  6
CONTINUOUS
 10
26.0276243093921735
 20
-1.7094267955801108
 30
0.0
 11
-17.4723756906078265
 21
-1.7094267955801072
 31
0.0
  0
LINE
  5
28D
100
AcDbEntity
100
AcDbLine
  8
0
 62
5
370
-1
  6
CONTINUOUS
 10
13.8276243093921707
 20
1.2905732044198928
 30
0.0
 11
-17.4723756906078336
 21
1.2905732044198963
 31
0.0
  0
LINE
  5
28E
100
AcDbEntity
100
AcDbLine
  8
0
 62
5
370
-1
  6
CONTINUOUS
 10
-17.4723756906078265
 20
-1.7094267955801072
 30
0.0
 11
-17.4723756906078265
 21
1.2905732044198928
 31
0.0
  0
LINE
  5
28F
100
AcDbEntity
100
AcDbLine
  8
0
 62
5
370
-1
  6
CONTINUOUS
 10
13.8276243093921742
 20
0.8905732044198871
 30
0.0
 11
13.8276243093921742
 21
1.2905732044198928
 31
0.0
  0
LINE
  5
290
100
AcDbEntity
100
AcDbLine
  8
0
 62
5
370
-1
  6
CONTINUOUS
 10
20.2276243093921764
 20
1.2905732044198928
 30
0.0
 11
20.2276243093921764
 21
0.8905732044198871
 31
0.0
  0
LINE
  5
291
100
AcDbEntity
100
AcDbLine
  8
0
 62
5
370
-1
  6
CONTINUOUS
 10
20.2276243093921693
 20
0.8905732044198871
 30
0.0
 11
13.8276243093921707
 21
0.8905732044198871
 31
0.0
  0
ARC
  5
292
100
AcDbEntity
  8
0
 62
1
370
-1
  6
CONTINUOUS
100
AcDbCircle
 10
21.5276243093921735
 20
0.0705732044198903
 30
0.0
 40
0.3799999999999955
100
AcDbArc
 50
0.0
 51
179.999999999999801
  0
ARC
  5
293
100
AcDbEntity
  8
0
 62
1
370
-1
  6
CONTINUOUS
100
AcDbCircle
 10
21.5276243093921735
 20
-0.6894267955801112
 30
0.0
 40
0.3799999999999955
100
AcDbArc
 50
180.000000000000199
 51
0.0
  0
LINE
  5
294
100
AcDbEntity
100
AcDbLine
  8
0
 62
1
370
-1
  6
CONTINUOUS
 10
21.1476243093921781
 20
0.0705732044198903
 30
0.0
 11
21.1476243093921781
 21
-0.6894267955801112
 31
0.0
  0
LINE
  5
295
100
AcDbEntity
100
AcDbLine
  8
0
 62
1
370
-1
  6
CONTINUOUS
 10
21.9076243093921761
 20
-0.6894267955801112
 30
0.0
 11
21.9076243093921761
 21
0.0705732044198903
 31
0.0
  0
INSERT
  5
296
100
AcDbEntity
100
AcDbBlockReference
  8
0
 62
256
370
-1
  6
ByLayer
  2
elongated_hole-4
 10
-15.4723756906078247
 20
-0.3094267955801087
 30
0.0
  0
INSERT
  5
297
100
AcDbEntity
100
AcDbBlockReference
  8
0
 62
256
370
-1
  6
ByLayer
  2
elongated_hole-5
 10
-11.4723756906078247
 20
-0.3094267955801087
 30
0.0
  0
INSERT
  5
298
100
AcDbEntity
100
AcDbBlockReference
  8
0
 62
256
370
-1
  6
ByLayer
  2
elongated_hole-8
 10
24.5276243093921735
 20
-0.3094267955801087
 30
0.0
  0
ENDBLK
  5
299
100
AcDbEntity
  8
0
100
AcDbBlockEnd
  0
BLOCK
  5
29A
100
AcDbEntity
  8
0
100
AcDbBlockBegin
  2
L-F1-1
 70
0
 10
0.0
 20
0.0
 30
0.0
  3
L-F1-1
  1

  0
LINE
  5
29B
100
AcDbEntity
100
AcDbLine
  8
faces
 62
1
370
-1
  6
CONTINUOUS
 10
-3.0280899827497691
 20
10.8971910017250249
 30
0.0
 11
-2.8280899827497734
 21
10.8971910017250249
 31
0.0
  0
LINE
  5
29C
100
AcDbEntity
100
AcDbLine
  8
faces
 62
1
370
-1
  6
CONTINUOUS
 10
-2.8280899827497734
 20
10.8971910017250249
 30
0.0
 11
-2.8280899827497734
 21
11.2971910017250234
 31
0.0
  0
LINE
  5
29D
100
AcDbEntity
100
AcDbLine
  8
faces
 62
1
370
-1
  6
CONTINUOUS
 10
-3.0280899827497763
 20
-11.502808998274979
 30
0.0
 11
-2.8280899827497734
 21
-11.502808998274979
 31
0.0
  0
LINE
  5
29E
100
AcDbEntity
100
AcDbLine
  8
faces
 62
1
370
-1
  6
ByLayer
 10
-2.8280899827497734
 20
-11.502808998274979
 30
0.0
 11
-2.8280899827497734
 21
-11.9028089982749776
 31
0.0
  0
INSERT
  5
29F
100
AcDbEntity
100
AcDbBlockReference
  8
0
 62
256
370
-1
  6
ByLayer
  2
elongated_hole-49
 10
-1.5280899827497763
 20
-10.3028089982749762
 30
0.0
  0
INSERT
  5
2A0
100
AcDbEntity
100
AcDbBlockReference
  8
0
 62
256
370
-1
  6
ByLayer
  2
elongated_hole-50
 10
1.4719100172502237
 20
-10.3028089982749762
 30
0.0
  0
INSERT
  5
2A1
100
AcDbEntity
100
AcDbBlockReference
  8
0
 62
256
370
-1
  6
ByLayer
  2
elongated_hole-51
 10
-1.5280899827497763
 20
9.6971910017250238
 30
0.0
  0
INSERT
  5
2A2
100
AcDbEntity
100
AcDbBlockReference
  8
0
 62
256
370
-1
  6
ByLayer
  2
elongated_hole-52
 10
1.4719100172502237
 20
9.6971910017250238
 30
0.0
  0
LINE
  5
2A3
100
AcDbEntity
100
AcDbLine
  8
faces
 62
256
370
-1
  6
ByLayer
 10
-3.0280899827497691
 20
10.8971910017250249
 30
0.0
 11
-3.0280899827497763
 21
-11.502808998274979
 31
0.0
  0
LINE
  5
2A4
100
AcDbEntity
100
AcDbLine
  8
faces
 62
256
370
-1
  6
ByLayer
 10
2.9719100172502309
 20
-11.9028089982749705
 30
0.0
 11
2.9719100172502237
 21
11.2971910017250234
 31
0.0
  0
LINE
  5
2A5
100
AcDbEntity
100
AcDbLine
  8
faces
 62
256
370
-1
  6
ByLayer
 10
-2.8280899827497734
 20
-11.9028089982749847
 30
0.0
 11
2.9719100172502309
 21
-11.9028089982749705
 31
0.0
  0
LINE
  5
2A6
100
AcDbEntity
100
AcDbLine
  8
faces
 62
256
370
-1
  6
ByLayer
 10
2.9719100172502237
 20
11.2971910017250234
 30
0.0
 11
-2.8280899827497734
 21
11.2971910017250234
 31
0.0
  0
ENDBLK
  5
2A7
100
AcDbEntity
  8
0
100
AcDbBlockEnd
  0
BLOCK
  5
2A8
100
AcDbEntity
  8
0
100
AcDbBlockBegin
  2
L-F2-1
 70
0
 10
0.0
 20
0.0
 30
0.0
  3
L-F2-1
  1

  0
LINE
  5
2A9
100
AcDbEntity
100
AcDbLine
  8
faces
 62
1
370
-1
  6
CONTINUOUS
 10
-3.2161869085174306
 20
11.5068020504734712
 30
0.0
 11
4.7838130914825694
 21
11.5068020504734712
 31
0.0
  0
LINE
  5
2AA
100
AcDbEntity
100
AcDbLine
  8
faces
 62
1
370
-1
  6
CONTINUOUS
 10
-3.2161869085174306
 20
-11.6931979495265317
 30
0.0
 11
4.7838130914825658
 21
-11.6931979495265317
 31
0.0
  0
INSERT
  5
2AB
100
AcDbEntity
100
AcDbBlockReference
  8
faces
 62
256
370
-1
  6
ByLayer
  2
elongated_hole-45
 10
-1.2161869085174306
 20
9.9068020504734697
 30
0.0
  0
INSERT
  5
2AC
100
AcDbEntity
100
AcDbBlockReference
  8
faces
 62
256
370
-1
  6
ByLayer
  2
elongated_hole-46
 10
2.7838130914825694
 20
9.9068020504734697
 30
0.0
  0
INSERT
  5
2AD
100
AcDbEntity
100
AcDbBlockReference
  8
0
 62
256
370
-1
  6
ByLayer
  2
elongated_hole-47
 10
-1.2161869085174306
 20
-10.0931979495265303
 30
0.0
  0
INSERT
  5
2AE
100
AcDbEntity
100
AcDbBlockReference
  8
0
 62
256
370
-1
  6
ByLayer
  2
elongated_hole-48
 10
2.7838130914825694
 20
-10.0931979495265303
 30
0.0
  0
LINE
  5
2AF
100
AcDbEntity
100
AcDbLine
  8
faces
 62
256
370
-1
  6
ByLayer
 10
4.7838130914825694
 20
11.5068020504734712
 30
0.0
 11
4.7838130914825658
 21
-11.6931979495265317
 31
0.0
  0
LINE
  5
2B0
100
AcDbEntity
100
AcDbLine
  8
faces
 62
256
370
-1
  6
ByLayer
 10
-3.2161869085174306
 20
11.5068020504734712
 30
0.0
 11
-3.2161869085174306
 21
-11.6931979495265317
 31
0.0
  0
ARC
  5
2B1
100
AcDbEntity
  8
faces
 62
2
370
-1
  6
ByLayer
100
AcDbCircle
 10
-1.0911869085174324
 20
-0.0931979495265303
 30
0.0
 40
1.125
100
AcDbArc
 50
90.0
 51
270.0
  0
ARC
  5
2B2
100
AcDbEntity
  8
faces
 62
2
370
-1
  6
ByLayer
100
AcDbCircle
 10
1.1588130914825676
 20
-0.0931979495265303
 30
0.0
 40
1.125
100
AcDbArc
 50
270.0
 51
90.0
  0
LINE
  5
2B3
100
AcDbEntity
100
AcDbLine
  8
faces
 62
2
370
-1
  6
ByLayer
 10
-1.0911869085174324
 20
1.0318020504734697
 30
0.0
 11
1.1588130914825676
 21
1.0318020504734697
 31
0.0
  0
LINE
  5
2B4
100
AcDbEntity
100
AcDbLine
  8
faces
 62
2
370
-1
  6
ByLayer
 10
1.1588130914825676
 20
-1.2181979495265303
 30
0.0
 11
-1.0911869085174324
 21
-1.2181979495265303
 31
0.0
  0
ENDBLK
  5
2B5
100
AcDbEntity
  8
0
100
AcDbBlockEnd
  0
BLOCK
  5
2B6
100
AcDbEntity
  8
0
100
AcDbBlockBegin
  2
L-F4-0
 70
0
 10
0.0
 20
0.0
 30
0.0
  3
L-F4-0
  1

  0
LINE
  5
2B7
100
AcDbEntity
100
AcDbLine
  8
front cuts
 62
256
370
-1
  6
ByLayer
 10
-20.5409797131475855
 20
3.3612512257877878
 30
0.0
 11
22.9590202868524145
 21
3.3612512257877878
 31
0.0
  0
LINE
  5
2B8
100
AcDbEntity
100
AcDbLine
  8
front cuts
 62
256
370
-1
  6
ByLayer
 10
22.9590202868524145
 20
3.3612512257877878
 30
0.0
 11
22.9590202868524145
 21
-2.6387487742122122
 31
0.0
  0
LINE
  5
2B9
100
AcDbEntity
100
AcDbLine
  8
front cuts
 62
256
370
-1
  6
ByLayer
 10
22.9590202868524145
 20
-2.6387487742122122
 30
0.0
 11
-20.5409797131475855
 21
-2.6387487742122122
 31
0.0
  0
LINE
  5
2BA
100
AcDbEntity
100
AcDbLine
  8
front cuts
 62
256
370
-1
  6
ByLayer
 10
-20.5409797131475855
 20
-2.6387487742122122
 30
0.0
 11
-20.5409797131475855
 21
3.3612512257877878
 31
0.0
  0
ENDBLK
  5
2BB
100
AcDbEntity
  8
0
100
AcDbBlockEnd
  0
BLOCK
  5
2BC
100
AcDbEntity
  8
0
100
AcDbBlockBegin
  2
L-F4-1
 70
0
 10
0.0
 20
0.0
 30
0.0
  3
L-F4-1
  1

  0
LINE
  5
2BD
100
AcDbEntity
100
AcDbLine
  8
front cuts
 62
256
370
-1
  6
ByLayer
 10
-20.5409797131475855
 20
3.361251225787786
 30
0.0
 11
22.9590202868524145
 21
3.361251225787786
 31
0.0
  0
LINE
  5
2BE
100
AcDbEntity
100
AcDbLine
  8
front cuts
 62
256
370
-1
  6
ByLayer
 10
22.9590202868524145
 20
3.361251225787786
 30
0.0
 11
22.9590202868524145
 21
-2.638748774212214
 31
0.0
  0
LINE
  5
2BF
100
AcDbEntity
100
AcDbLine
  8
front cuts
 62
256
370
-1
  6
ByLayer
 10
22.9590202868524145
 20
-2.638748774212214
 30
0.0
 11
-20.5409797131475855
 21
-2.638748774212214
 31
0.0
  0
LINE
  5
2C0
100
AcDbEntity
100
AcDbLine
  8
front cuts
 62
256
370
-1
  6
ByLayer
 10
-20.5409797131475855
 20
-2.638748774212214
 30
0.0
 11
-20.5409797131475855
 21
3.361251225787786
 31
0.0
  0
ENDBLK
  5
2C1
100
AcDbEntity
  8
0
100
AcDbBlockEnd
  0
BLOCK
  5
2C2
100
AcDbEntity
  8
0
100
AcDbBlockBegin
  2
L-F3-4
 70
0
 10
0.0
 20
0.0
 30
0.0
  3
L-F3-4
  1

  0
LINE
  5
2C3
100
AcDbEntity
100
AcDbLine
  8
0
 62
5
370
-1
  6
CONTINUOUS
 10
26.0276243093921735
 20
-1.7094267955801072
 30
0.0
 11
26.0276243093921735
 21
1.2905732044198928
 31
0.0
  0
LINE
  5
2C4
100
AcDbEntity
100
AcDbLine
  8
0
 62
5
370
-1
  6
CONTINUOUS
 10
26.0276243093921735
 20
1.2905732044198928
 30
0.0
 11
20.2276243093921764
 21
1.2905732044198928
 31
0.0
  0
LINE
  5
2C5
100
AcDbEntity
100
AcDbLine
  8
0
 62
5
370
-1
  6
CONTINUOUS
 10
26.0276243093921735
 20
-1.7094267955801108
 30
0.0
 11
-17.4723756906078265
 21
-1.7094267955801055
 31
0.0
  0
LINE
  5
2C6
100
AcDbEntity
100
AcDbLine
  8
0
 62
5
370
-1
  6
CONTINUOUS
 10
13.8276243093921707
 20
1.2905732044198928
 30
0.0
 11
-17.47237569060783
 21
1.2905732044198963
 31
0.0
  0
LINE
  5
2C7
100
AcDbEntity
100
AcDbLine
  8
0
 62
5
370
-1
  6
CONTINUOUS
 10
-17.4723756906078265
 20
-1.709426795580109
 30
0.0
 11
-17.4723756906078265
 21
1.290573204419891
 31
0.0
  0
LINE
  5
2C8
100
AcDbEntity
100
AcDbLine
  8
0
 62
5
370
-1
  6
CONTINUOUS
 10
13.8276243093921742
 20
0.8905732044198889
 30
0.0
 11
13.8276243093921742
 21
1.2905732044198928
 31
0.0
  0
LINE
  5
2C9
100
AcDbEntity
100
AcDbLine
  8
0
 62
5
370
-1
  6
CONTINUOUS
 10
20.2276243093921764
 20
1.2905732044198928
 30
0.0
 11
20.2276243093921764
 21
0.8905732044198889
 31
0.0
  0
LINE
  5
2CA
100
AcDbEntity
100
AcDbLine
  8
0
 62
5
370
-1
  6
CONTINUOUS
 10
20.2276243093921693
 20
0.8905732044198853
 30
0.0
 11
13.8276243093921707
 21
0.8905732044198853
 31
0.0
  0
ARC
  5
2CB
100
AcDbEntity
  8
0
 62
1
370
-1
  6
CONTINUOUS
100
AcDbCircle
 10
21.5276243093921735
 20
0.0705732044198886
 30
0.0
 40
0.3799999999999955
100
AcDbArc
 50
0.0
 51
179.999999999999801
  0
ARC
  5
2CC
100
AcDbEntity
  8
0
 62
1
370
-1
  6
CONTINUOUS
100
AcDbCircle
 10
21.5276243093921735
 20
-0.6894267955801094
 30
0.0
 40
0.3799999999999955
100
AcDbArc
 50
180.000000000000199
 51
0.0
  0
LINE
  5
2CD
100
AcDbEntity
100
AcDbLine
  8
0
 62
1
370
-1
  6
CONTINUOUS
 10
21.1476243093921781
 20
0.0705732044198903
 30
0.0
 11
21.1476243093921781
 21
-0.6894267955801112
 31
0.0
  0
LINE
  5
2CE
100
AcDbEntity
100
AcDbLine
  8
0
 62
1
370
-1
  6
CONTINUOUS
 10
21.9076243093921761
 20
-0.6894267955801094
 30
0.0
 11
21.9076243093921761
 21
0.0705732044198886
 31
0.0
  0
INSERT
  5
2CF
100
AcDbEntity
100
AcDbBlockReference
  8
0
 62
256
370
-1
  6
ByLayer
  2
elongated_hole-4
 10
-15.4723756906078265
 20
-0.3094267955801104
 30
0.0
  0
INSERT
  5
2D0
100
AcDbEntity
100
AcDbBlockReference
  8
0
 62
256
370
-1
  6
ByLayer
  2
elongated_hole-5
 10
-11.4723756906078265
 20
-0.3094267955801104
 30
0.0
  0
INSERT
  5
2D1
100
AcDbEntity
100
AcDbBlockReference
  8
0
 62
256
370
-1
  6
ByLayer
  2
elongated_hole-8
 10
24.5276243093921735
 20
-0.3094267955801104
 30
0.0
  0
CIRCLE
  5
2D2
100
AcDbEntity
100
AcDbCircle
  8
0
 62
256
370
-1
  6
ByLayer
 10
12.0
 20
-0.3262122599840733
 30
0.0
 40
0.5
  0
CIRCLE
  5
2D3
100
AcDbEntity
100
AcDbCircle
  8
0
 62
256
370
-1
  6
ByLayer
 10
9.0
 20
-0.3317171202088414
 30
0.0
 40
0.5
  0
CIRCLE
  5
2D4
100
AcDbEntity
100
AcDbCircle
  8
0
 62
256
370
-1
  6
ByLayer
 10
5.0
 20
-0.3390569338418654
 30
0.0
 40
0.5
  0
ENDBLK
  5
2D5
100
AcDbEntity
  8
0
100
AcDbBlockEnd
  0
BLOCK
  5
2D6
100
AcDbEntity
  8
0
100
AcDbBlockBegin
  2
L-F3-5
 70
0
 10
0.0
 20
0.0
 30
0.0
  3
L-F3-5
  1

  0
LINE
  5
2D7
100
AcDbEntity
100
AcDbLine
  8
0
 62
5
370
-1
  6
CONTINUOUS
 10
26.0276243093921735
 20
-1.7094267955801072
 30
0.0
 11
26.0276243093921735
 21
1.2905732044198928
 31
0.0
  0
LINE
  5
2D8
100
AcDbEntity
100
AcDbLine
  8
0
 62
5
370
-1
  6
CONTINUOUS
 10
26.0276243093921735
 20
1.2905732044198928
 30
0.0
 11
20.2276243093921764
 21
1.2905732044198928
 31
0.0
  0
LINE
  5
2D9
100
AcDbEntity
100
AcDbLine
  8
0
 62
5
370
-1
  6
CONTINUOUS
 10
26.0276243093921735
 20
-1.7094267955801108
 30
0.0
 11
-17.4723756906078265
 21
-1.7094267955801055
 31
0.0
  0
LINE
  5
2DA
100
AcDbEntity
100
AcDbLine
  8
0
 62
5
370
-1
  6
CONTINUOUS
 10
13.8276243093921707
 20
1.2905732044198928
 30
0.0
 11
-17.47237569060783
 21
1.2905732044198963
 31
0.0
  0
LINE
  5
2DB
100
AcDbEntity
100
AcDbLine
  8
0
 62
5
370
-1
  6
CONTINUOUS
 10
-17.4723756906078265
 20
-1.709426795580109
 30
0.0
 11
-17.4723756906078265
 21
1.2905732044198928
 31
0.0
  0
LINE
  5
2DC
100
AcDbEntity
100
AcDbLine
  8
0
 62
5
370
-1
  6
CONTINUOUS
 10
13.8276243093921742
 20
0.8905732044198871
 30
0.0
 11
13.8276243093921742
 21
1.2905732044198928
 31
0.0
  0
LINE
  5
2DD
100
AcDbEntity
100
AcDbLine
  8
0
 62
5
370
-1
  6
CONTINUOUS
 10
20.2276243093921764
 20
1.2905732044198928
 30
0.0
 11
20.2276243093921764
 21
0.8905732044198871
 31
0.0
  0
LINE
  5
2DE
100
AcDbEntity
100
AcDbLine
  8
0
 62
5
370
-1
  6
CONTINUOUS
 10
20.2276243093921693
 20
0.8905732044198871
 30
0.0
 11
13.8276243093921707
 21
0.8905732044198871
 31
0.0
  0
ARC
  5
2DF
100
AcDbEntity
  8
0
 62
1
370
-1
  6
CONTINUOUS
100
AcDbCircle
 10
21.5276243093921735
 20
0.0705732044198903
 30
0.0
 40
0.3799999999999955
100
AcDbArc
 50
0.0
 51
179.999999999999801
  0
ARC
  5
2E0
100
AcDbEntity
  8
0
 62
1
370
-1
  6
CONTINUOUS
100
AcDbCircle
 10
21.5276243093921735
 20
-0.6894267955801112
 30
0.0
 40
0.3799999999999955
100
AcDbArc
 50
180.000000000000199
 51
0.0
  0
LINE
  5
2E1
100
AcDbEntity
100
AcDbLine
  8
0
 62
1
370
-1
  6
CONTINUOUS
 10
21.1476243093921781
 20
0.0705732044198903
 30
0.0
 11
21.1476243093921781
 21
-0.6894267955801112
 31
0.0
  0
LINE
  5
2E2
100
AcDbEntity
100
AcDbLine
  8
0
 62
1
370
-1
  6
CONTINUOUS
 10
21.9076243093921761
 20
-0.6894267955801112
 30
0.0
 11
21.9076243093921761
 21
0.0705732044198903
 31
0.0
  0
INSERT
  5
2E3
100
AcDbEntity
100
AcDbBlockReference
  8
0
 62
256
370
-1
  6
ByLayer
  2
elongated_hole-4
 10
-15.4723756906078265
 20
-0.3094267955801087
 30
0.0
  0
INSERT
  5
2E4
100
AcDbEntity
100
AcDbBlockReference
  8
0
 62
256
370
-1
  6
ByLayer
  2
elongated_hole-5
 10
-11.4723756906078265
 20
-0.3094267955801087
 30
0.0
  0
INSERT
  5
2E5
100
AcDbEntity
100
AcDbBlockReference
  8
0
 62
256
370
-1
  6
ByLayer
  2
elongated_hole-8
 10
24.5276243093921735
 20
-0.3094267955801087
 30
0.0
  0
CIRCLE
  5
2E6
100
AcDbEntity
100
AcDbCircle
  8
0
 62
256
370
-1
  6
ByLayer
 10
12.0
 20
-0.3262122599840751
 30
0.0
 40
0.5
  0
CIRCLE
  5
2E7
100
AcDbEntity
100
AcDbCircle
  8
0
 62
256
370
-1
  6
ByLayer
 10
9.0
 20
-0.3317171202088431
 30
0.0
 40
0.5
  0
CIRCLE
  5
2E8
100
AcDbEntity
100
AcDbCircle
  8
0
 62
256
370
-1
  6
ByLayer
 10
5.0
 20
-0.3390569338418636
 30
0.0
 40
0.5
  0
ENDBLK
  5
2E9
100
AcDbEntity
  8
0
100
AcDbBlockEnd
  0
BLOCK
  5
2EA
100
AcDbEntity
  8
0
100
AcDbBlockBegin
  2
L-F3-6
 70
0
 10
0.0
 20
0.0
 30
0.0
  3
L-F3-6
  1

  0
LINE
  5
2EB
100
AcDbEntity
100
AcDbLine
  8
0
 62
5
370
-1
  6
CONTINUOUS
 10
26.0276243093921735
 20
-1.7094267955801072
 30
0.0
 11
26.0276243093921735
 21
1.2905732044198928
 31
0.0
  0
LINE
  5
2EC
100
AcDbEntity
100
AcDbLine
  8
0
 62
5
370
-1
  6
CONTINUOUS
 10
26.0276243093921735
 20
1.2905732044198928
 30
0.0
 11
20.2276243093921764
 21
1.2905732044198928
 31
0.0
  0
LINE
  5
2ED
100
AcDbEntity
100
AcDbLine
  8
0
 62
5
370
-1
  6
CONTINUOUS
 10
26.0276243093921735
 20
-1.7094267955801108
 30
0.0
 11
-17.4723756906078265
 21
-1.7094267955801072
 31
0.0
  0
LINE
  5
2EE
100
AcDbEntity
100
AcDbLine
  8
0
 62
5
370
-1
  6
CONTINUOUS
 10
13.8276243093921707
 20
1.2905732044198928
 30
0.0
 11
-17.47237569060783
 21
1.2905732044198963
 31
0.0
  0
LINE
  5
2EF
100
AcDbEntity
100
AcDbLine
  8
0
 62
5
370
-1
  6
CONTINUOUS
 10
-17.4723756906078265
 20
-1.7094267955801072
 30
0.0
 11
-17.4723756906078265
 21
1.2905732044198928
 31
0.0
  0
LINE
  5
2F0
100
AcDbEntity
100
AcDbLine
  8
0
 62
5
370
-1
  6
CONTINUOUS
 10
13.8276243093921742
 20
0.8905732044198871
 30
0.0
 11
13.8276243093921742
 21
1.2905732044198928
 31
0.0
  0
LINE
  5
2F1
100
AcDbEntity
100
AcDbLine
  8
0
 62
5
370
-1
  6
CONTINUOUS
 10
20.2276243093921764
 20
1.2905732044198928
 30
0.0
 11
20.2276243093921764
 21
0.8905732044198871
 31
0.0
  0
LINE
  5
2F2
100
AcDbEntity
100
AcDbLine
  8
0
 62
5
370
-1
  6
CONTINUOUS
 10
20.2276243093921693
 20
0.8905732044198871
 30
0.0
 11
13.8276243093921707
 21
0.8905732044198871
 31
0.0
  0
ARC
  5
2F3
100
AcDbEntity
  8
0
 62
1
370
-1
  6
CONTINUOUS
100
AcDbCircle
 10
21.5276243093921735
 20
0.0705732044198903
 30
0.0
 40
0.3799999999999955
100
AcDbArc
 50
0.0
 51
179.999999999999801
  0
ARC
  5
2F4
100
AcDbEntity
  8
0
 62
1
370
-1
  6
CONTINUOUS
100
AcDbCircle
 10
21.5276243093921735
 20
-0.6894267955801112
 30
0.0
 40
0.3799999999999955
100
AcDbArc
 50
180.000000000000199
 51
0.0
  0
LINE
  5
2F5
100
AcDbEntity
100
AcDbLine
  8
0
 62
1
370
-1
  6
CONTINUOUS
 10
21.1476243093921781
 20
0.0705732044198903
 30
0.0
 11
21.1476243093921781
 21
-0.6894267955801112
 31
0.0
  0
LINE
  5
2F6
100
AcDbEntity
100
AcDbLine
  8
0
 62
1
370
-1
  6
CONTINUOUS
 10
21.9076243093921761
 20
-0.6894267955801112
 30
0.0
 11
21.9076243093921761
 21
0.0705732044198903
 31
0.0
  0
INSERT
  5
2F7
100
AcDbEntity
100
AcDbBlockReference
  8
0
 62
256
370
-1
  6
ByLayer
  2
elongated_hole-4
 10
-15.4723756906078282
 20
-0.3094267955801087
 30
0.0
  0
INSERT
  5
2F8
100
AcDbEntity
100
AcDbBlockReference
  8
0
 62
256
370
-1
  6
ByLayer
  2
elongated_hole-5
 10
-11.4723756906078265
 20
-0.3094267955801087
 30
0.0
  0
INSERT
  5
2F9
100
AcDbEntity
100
AcDbBlockReference
  8
0
 62
256
370
-1
  6
ByLayer
  2
elongated_hole-8
 10
24.5276243093921735
 20
-0.3094267955801087
 30
0.0
  0
CIRCLE
  5
2FA
100
AcDbEntity
100
AcDbCircle
  8
0
 62
256
370
-1
  6
ByLayer
 10
12.0
 20
-0.3262122599840751
 30
0.0
 40
0.5
  0
CIRCLE
  5
2FB
100
AcDbEntity
100
AcDbCircle
  8
0
 62
256
370
-1
  6
ByLayer
 10
9.0
 20
-0.3317171202088431
 30
0.0
 40
0.5
  0
CIRCLE
  5
2FC
100
AcDbEntity
100
AcDbCircle
  8
0
 62
256
370
-1
  6
ByLayer
 10
5.0
 20
-0.3390569338418636
 30
0.0
 40
0.5
  0
ENDBLK
  5
2FD
100
AcDbEntity
  8
0
100
AcDbBlockEnd
  0
BLOCK
  5
2FE
100
AcDbEntity
  8
0
100
AcDbBlockBegin
  2
L-F3-7
 70
0
 10
0.0
 20
0.0
 30
0.0
  3
L-F3-7
  1

  0
LINE
  5
2FF
100
AcDbEntity
100
AcDbLine
  8
0
 62
5
370
-1
  6
CONTINUOUS
 10
26.0276243093921735
 20
-1.7094267955801072
 30
0.0
 11
26.0276243093921735
 21
1.2905732044198928
 31
0.0
  0
LINE
  5
300
100
AcDbEntity
100
AcDbLine
  8
0
 62
5
370
-1
  6
CONTINUOUS
 10
26.0276243093921735
 20
1.2905732044198928
 30
0.0
 11
20.2276243093921764
 21
1.2905732044198928
 31
0.0
  0
LINE
  5
301
100
AcDbEntity
100
AcDbLine
  8
0
 62
5
370
-1
  6
CONTINUOUS
 10
26.0276243093921735
 20
-1.7094267955801108
 30
0.0
 11
-17.4723756906078265
 21
-1.7094267955801037
 31
0.0
  0
LINE
  5
302
100
AcDbEntity
100
AcDbLine
  8
0
 62
5
370
-1
  6
CONTINUOUS
 10
13.8276243093921707
 20
1.2905732044198928
 30
0.0
 11
-17.47237569060783
 21
1.2905732044198963
 31
0.0
  0
LINE
  5
303
100
AcDbEntity
100
AcDbLine
  8
0
 62
5
370
-1
  6
CONTINUOUS
 10
-17.4723756906078265
 20
-1.7094267955801108
 30
0.0
 11
-17.4723756906078265
 21
1.2905732044198892
 31
0.0
  0
LINE
  5
304
100
AcDbEntity
100
AcDbLine
  8
0
 62
5
370
-1
  6
CONTINUOUS
 10
13.8276243093921742
 20
0.8905732044198906
 30
0.0
 11
13.8276243093921742
 21
1.2905732044198928
 31
0.0
  0
LINE
  5
305
100
AcDbEntity
100
AcDbLine
  8
0
 62
5
370
-1
  6
CONTINUOUS
 10
20.2276243093921764
 20
1.2905732044198928
 30
0.0
 11
20.2276243093921764
 21
0.8905732044198906
 31
0.0
  0
LINE
  5
306
100
AcDbEntity
100
AcDbLine
  8
0
 62
5
370
-1
  6
CONTINUOUS
 10
20.2276243093921693
 20
0.8905732044198835
 30
0.0
 11
13.8276243093921707
 21
0.8905732044198835
 31
0.0
  0
ARC
  5
307
100
AcDbEntity
  8
0
 62
1
370
-1
  6
CONTINUOUS
100
AcDbCircle
 10
21.5276243093921735
 20
0.0705732044198903
 30
0.0
 40
0.3799999999999955
100
AcDbArc
 50
0.0
 51
179.999999999999801
  0
ARC
  5
308
100
AcDbEntity
  8
0
 62
1
370
-1
  6
CONTINUOUS
100
AcDbCircle
 10
21.5276243093921735
 20
-0.6894267955801077
 30
0.0
 40
0.3799999999999955
100
AcDbArc
 50
180.000000000000199
 51
0.0
  0
LINE
  5
309
100
AcDbEntity
100
AcDbLine
  8
0
 62
1
370
-1
  6
CONTINUOUS
 10
21.1476243093921781
 20
0.0705732044198903
 30
0.0
 11
21.1476243093921781
 21
-0.6894267955801112
 31
0.0
  0
LINE
  5
30A
100
AcDbEntity
100
AcDbLine
  8
0
 62
1
370
-1
  6
CONTINUOUS
 10
21.9076243093921761
 20
-0.6894267955801077
 30
0.0
 11
21.9076243093921761
 21
0.0705732044198903
 31
0.0
  0
INSERT
  5
30B
100
AcDbEntity
100
AcDbBlockReference
  8
0
 62
256
370
-1
  6
ByLayer
  2
elongated_hole-4
 10
-15.4723756906078265
 20
-0.3094267955801087
 30
0.0
  0
INSERT
  5
30C
100
AcDbEntity
100
AcDbBlockReference
  8
0
 62
256
370
-1
  6
ByLayer
  2
elongated_hole-5
 10
-11.4723756906078265
 20
-0.3094267955801087
 30
0.0
  0
INSERT
  5
30D
100
AcDbEntity
100
AcDbBlockReference
  8
0
 62
256
370
-1
  6
ByLayer
  2
elongated_hole-8
 10
24.5276243093921735
 20
-0.3094267955801087
 30
0.0
  0
CIRCLE
  5
30E
100
AcDbEntity
100
AcDbCircle
  8
0
 62
256
370
-1
  6
ByLayer
 10
12.0
 20
-0.3262122599840751
 30
0.0
 40
0.5
  0
CIRCLE
  5
30F
100
AcDbEntity
100
AcDbCircle
  8
0
 62
256
370
-1
  6
ByLayer
 10
9.0
 20
-0.3317171202088431
 30
0.0
 40
0.5
  0
CIRCLE
  5
310
100
AcDbEntity
100
AcDbCircle
  8
0
 62
256
370
-1
  6
ByLayer
 10
5.0
 20
-0.3390569338418636
 30
0.0
 40
0.5
  0
ENDBLK
  5
311
100
AcDbEntity
  8
0
100
AcDbBlockEnd
  0
BLOCK
  5
312
100
AcDbEntity
  8
0
100
AcDbBlockBegin
  2
L-F4-2
 70
0
 10
0.0
 20
0.0
 30
0.0
  3
L-F4-2
  1

  0
LINE
  5
313
100
AcDbEntity
100
AcDbLine
  8
front cuts
 62
256
370
-1
  6
ByLayer
 10
-23.5000000000000036
 20
3.0
 30
0.0
 11
20.0
 21
3.0
 31
0.0
  0
LINE
  5
314
100
AcDbEntity
100
AcDbLine
  8
front cuts
 62
256
370
-1
  6
ByLayer
 10
20.0
 20
3.0
 30
0.0
 11
20.0
 21
-3.0
 31
0.0
  0
LINE
  5
315
100
AcDbEntity
100
AcDbLine
  8
front cuts
 62
256
370
-1
  6
ByLayer
 10
20.0
 20
-3.0
 30
0.0
 11
-23.5000000000000036
 21
-3.0
 31
0.0
  0
LINE
  5
316
100
AcDbEntity
100
AcDbLine
  8
front cuts
 62
256
370
-1
  6
ByLayer
 10
-23.5000000000000036
 20
-3.0
 30
0.0
 11
-23.5000000000000036
 21
3.0
 31
0.0
  0
LINE
  5
317
100
AcDbEntity
100
AcDbLine
  8
front cuts
 62
256
370
-1
  6
ByLayer
 10
4.2500000000000009
 20
0.5010000000000012
 30
0.0
 11
4.5000000000000009
 21
0.5010000000000012
 31
0.0
  0
LINE
  5
318
100
AcDbEntity
100
AcDbLine
  8
front cuts
 62
256
370
-1
  6
ByLayer
 10
4.2500000000000009
 20
-0.4989999999999988
 30
0.0
 11
4.5000000000000009
 21
-0.4989999999999988
 31
0.0
  0
ARC
  5
319
100
AcDbEntity
  8
front cuts
 62
256
370
-1
  6
ByLayer
100
AcDbCircle
 10
4.5
 20
0.0010000000000012
 30
0.0
 40
0.5
100
AcDbArc
 50
270.0000000000001137
 51
89.9999999999999005
  0
ARC
  5
31A
100
AcDbEntity
  8
front cuts
 62
256
370
-1
  6
ByLayer
100
AcDbCircle
 10
4.25
 20
0.0010000000000012
 30
0.0
 40
0.5
100
AcDbArc
 50
89.9999999999999005
 51
270.0000000000001137
  0
LINE
  5
31B
100
AcDbEntity
100
AcDbLine
  8
front cuts
 62
256
370
-1
  6
ByLayer
 10
0.0000000000000018
 20
0.5010000000000012
 30
0.0
 11
0.25
 21
0.5010000000000012
 31
0.0
  0
LINE
  5
31C
100
AcDbEntity
100
AcDbLine
  8
front cuts
 62
256
370
-1
  6
ByLayer
 10
0.0000000000000018
 20
-0.4989999999999988
 30
0.0
 11
0.25
 21
-0.4989999999999988
 31
0.0
  0
ARC
  5
31D
100
AcDbEntity
  8
front cuts
 62
256
370
-1
  6
ByLayer
100
AcDbCircle
 10
0.25
 20
0.0010000000000012
 30
0.0
 40
0.5
100
AcDbArc
 50
270.0000000000001137
 51
89.9999999999999005
  0
ARC
  5
31E
100
AcDbEntity
  8
front cuts
 62
256
370
-1
  6
ByLayer
100
AcDbCircle
 10
0.0
 20
0.0010000000000012
 30
0.0
 40
0.5
100
AcDbArc
 50
89.9999999999999005
 51
270.0000000000001137
  0
ENDBLK
  5
31F
100
AcDbEntity
  8
0
100
AcDbBlockEnd
  0
BLOCK
  5
320
100
AcDbEntity
  8
0
100
AcDbBlockBegin
  2
L-F4-3
 70
0
 10
0.0
 20
0.0
 30
0.0
  3
L-F4-3
  1

  0
LINE
  5
321
100
AcDbEntity
100
AcDbLine
  8
front cuts
 62
256
370
-1
  6
ByLayer
 10
-23.5000000000000036
 20
3.0
 30
0.0
 11
20.0
 21
3.0
 31
0.0
  0
LINE
  5
322
100
AcDbEntity
100
AcDbLine
  8
front cuts
 62
256
370
-1
  6
ByLayer
 10
20.0
 20
3.0
 30
0.0
 11
20.0
 21
-3.0
 31
0.0
  0
LINE
  5
323
100
AcDbEntity
100
AcDbLine
  8
front cuts
 62
256
370
-1
  6
ByLayer
 10
20.0
 20
-3.0
 30
0.0
 11
-23.5000000000000036
 21
-3.0
 31
0.0
  0
LINE
  5
324
100
AcDbEntity
100
AcDbLine
  8
front cuts
 62
256
370
-1
  6
ByLayer
 10
-23.5000000000000036
 20
-3.0
 30
0.0
 11
-23.5000000000000036
 21
3.0
 31
0.0
  0
LINE
  5
325
100
AcDbEntity
100
AcDbLine
  8
front cuts
 62
256
370
-1
  6
ByLayer
 10
4.2500000000000009
 20
0.5010000000000012
 30
0.0
 11
4.5000000000000009
 21
0.5010000000000012
 31
0.0
  0
LINE
  5
326
100
AcDbEntity
100
AcDbLine
  8
front cuts
 62
256
370
-1
  6
ByLayer
 10
4.2500000000000009
 20
-0.4989999999999988
 30
0.0
 11
4.5000000000000009
 21
-0.4989999999999988
 31
0.0
  0
ARC
  5
327
100
AcDbEntity
  8
front cuts
 62
256
370
-1
  6
ByLayer
100
AcDbCircle
 10
4.5
 20
0.0010000000000012
 30
0.0
 40
0.5
100
AcDbArc
 50
270.0000000000001137
 51
89.9999999999999005
  0
ARC
  5
328
100
AcDbEntity
  8
front cuts
 62
256
370
-1
  6
ByLayer
100
AcDbCircle
 10
4.25
 20
0.0010000000000012
 30
0.0
 40
0.5
100
AcDbArc
 50
89.9999999999999005
 51
270.0000000000001137
  0
LINE
  5
329
100
AcDbEntity
100
AcDbLine
  8
front cuts
 62
256
370
-1
  6
ByLayer
 10
0.0000000000000018
 20
0.5010000000000012
 30
0.0
 11
0.25
 21
0.5010000000000012
 31
0.0
  0
LINE
  5
32A
100
AcDbEntity
100
AcDbLine
  8
front cuts
 62
256
370
-1
  6
ByLayer
 10
0.0000000000000018
 20
-0.4989999999999988
 30
0.0
 11
0.25
 21
-0.4989999999999988
 31
0.0
  0
ARC
  5
32B
100
AcDbEntity
  8
front cuts
 62
256
370
-1
  6
ByLayer
100
AcDbCircle
 10
0.25
 20
0.0010000000000012
 30
0.0
 40
0.5
100
AcDbArc
 50
270.0000000000001137
 51
89.9999999999999005
  0
ARC
  5
32C
100
AcDbEntity
  8
front cuts
 62
256
370
-1
  6
ByLayer
100
AcDbCircle
 10
0.0
 20
0.0010000000000012
 30
0.0
 40
0.5
100
AcDbArc
 50
89.9999999999999005
 51
270.0000000000001137
  0
ENDBLK
  5
32D
100
AcDbEntity
  8
0
100
AcDbBlockEnd
  0
BLOCK
  5
32E
100
AcDbEntity
  8
0
100
AcDbBlockBegin
  2
L-F5-0
 70
0
 10
0.0
 20
0.0
 30
0.0
  3
L-F5-0
  1

  0
LINE
  5
32F
100
AcDbEntity
100
AcDbLine
  8
0
 62
3
370
-1
  6
CONTINUOUS
 10
3.0
 20
7.4000000000000004
 30
0.0
 11
3.0
 21
7.4000000000000004
 31
0.0
  0
LINE
  5
330
100
AcDbEntity
100
AcDbLine
  8
dims verify
 62
256
370
-1
  6
ByLayer
 10
0.0
 20
10.0
 30
0.0
 11
0.0
 21
-13.2000000000000082
 31
0.0
  0
LINE
  5
331
100
AcDbEntity
100
AcDbLine
  8
dims verify
 62
256
370
-1
  6
ByLayer
 10
0.0
 20
-13.2000000000000082
 30
0.0
 11
3.0
 21
-13.2000000000000011
 31
0.0
  0
LINE
  5
332
100
AcDbEntity
100
AcDbLine
  8
dims verify
 62
256
370
-1
  6
ByLayer
 10
3.0
 20
-13.2000000000000011
 30
0.0
 11
3.0
 21
9.9999999999999982
 31
0.0
  0
CIRCLE
  5
333
100
AcDbEntity
100
AcDbCircle
  8
dims verify
 62
256
370
-1
  6
ByLayer
 10
1.5
 20
4.899999999999995
 30
0.0
 40
0.5
  0
CIRCLE
  5
334
100
AcDbEntity
100
AcDbCircle
  8
dims verify
 62
256
370
-1
  6
ByLayer
 10
1.5
 20
-8.100000000000005
 30
0.0
 40
0.5
  0
LINE
  5
335
100
AcDbEntity
100
AcDbLine
  8
dims verify
 62
256
370
-1
  6
ByLayer
 10
0.0
 20
10.0
 30
0.0
 11
3.0
 21
9.9999999999999982
 31
0.0
  0
ENDBLK
  5
336
100
AcDbEntity
  8
0
100
AcDbBlockEnd
  0
BLOCK
  5
337
100
AcDbEntity
  8
0
100
AcDbBlockBegin
  2
L-F5-1
 70
0
 10
0.0
 20
0.0
 30
0.0
  3
L-F5-1
  1

  0
LINE
  5
338
100
AcDbEntity
100
AcDbLine
  8
0
 62
3
370
-1
  6
CONTINUOUS
 10
3.0
 20
7.4000000000000004
 30
0.0
 11
3.0
 21
7.4000000000000004
 31
0.0
  0
LINE
  5
339
100
AcDbEntity
100
AcDbLine
  8
dims verify
 62
256
370
-1
  6
ByLayer
 10
0.0
 20
10.0
 30
0.0
 11
0.0
 21
-13.2000000000000082
 31
0.0
  0
LINE
  5
33A
100
AcDbEntity
100
AcDbLine
  8
dims verify
 62
256
370
-1
  6
ByLayer
 10
0.0
 20
-13.2000000000000082
 30
0.0
 11
3.0
 21
-13.2000000000000011
 31
0.0
  0
LINE
  5
33B
100
AcDbEntity
100
AcDbLine
  8
dims verify
 62
256
370
-1
  6
ByLayer
 10
3.0
 20
-13.2000000000000011
 30
0.0
 11
3.0
 21
9.9999999999999982
 31
0.0
  0
CIRCLE
  5
33C
100
AcDbEntity
100
AcDbCircle
  8
dims verify
 62
256
370
-1
  6
ByLayer
 10
1.5
 20
4.899999999999995
 30
0.0
 40
0.5
  0
CIRCLE
  5
33D
100
AcDbEntity
100
AcDbCircle
  8
dims verify
 62
256
370
-1
  6
ByLayer
 10
1.5
 20
-8.100000000000005
 30
0.0
 40
0.5
  0
LINE
  5
33E
100
AcDbEntity
100
AcDbLine
  8
dims verify
 62
256
370
-1
  6
ByLayer
 10
0.0
 20
10.0
 30
0.0
 11
3.0
 21
9.9999999999999982
 31
0.0
  0
ENDBLK
  5
33F
100
AcDbEntity
  8
0
100
AcDbBlockEnd
  0
BLOCK
  5
340
100
AcDbEntity
  8
0
100
AcDbBlockBegin
  2
L-F6-0
 70
0
 10
0.0
 20
0.0
 30
0.0
  3
L-F6-0
  1

  0
LINE
  5
341
100
AcDbEntity
100
AcDbLine
  8
dims verify
 62
256
370
-1
  6
ByLayer
 10
3.0
 20
9.0
 30
0.0
 11
0.0
 21
9.0
 31
0.0
  0
LINE
  5
342
100
AcDbEntity
100
AcDbLine
  8
dims verify
 62
256
370
-1
  6
ByLayer
 10
3.0
 20
-12.0
 30
0.0
 11
3.0
 21
9.0
 31
0.0
  0
LINE
  5
343
100
AcDbEntity
100
AcDbLine
  8
dims verify
 62
256
370
-1
  6
ByLayer
 10
0.0
 20
-12.0
 30
0.0
 11
3.0
 21
-12.0
 31
0.0
  0
LINE
  5
344
100
AcDbEntity
100
AcDbLine
  8
dims verify
 62
256
370
-1
  6
ByLayer
 10
0.0
 20
-12.0
 30
0.0
 11
0.0
 21
9.0
 31
0.0
  0
ENDBLK
  5
345
100
AcDbEntity
  8
0
100
AcDbBlockEnd
  0
BLOCK
  5
346
100
AcDbEntity
  8
0
100
AcDbBlockBegin
  2
L-F6-1
 70
0
 10
0.0
 20
0.0
 30
0.0
  3
L-F6-1
  1

  0
LINE
  5
347
100
AcDbEntity
100
AcDbLine
  8
dims verify
 62
256
370
-1
  6
ByLayer
 10
3.0
 20
9.0
 30
0.0
 11
0.0
 21
9.0
 31
0.0
  0
LINE
  5
348
100
AcDbEntity
100
AcDbLine
  8
dims verify
 62
256
370
-1
  6
ByLayer
 10
3.0
 20
-12.0
 30
0.0
 11
3.0
 21
9.0
 31
0.0
  0
LINE
  5
349
100
AcDbEntity
100
AcDbLine
  8
dims verify
 62
256
370
-1
  6
ByLayer
 10
0.0
 20
-12.0
 30
0.0
 11
3.0
 21
-12.0
 31
0.0
  0
LINE
  5
34A
100
AcDbEntity
100
AcDbLine
  8
dims verify
 62
256
370
-1
  6
ByLayer
 10
0.0
 20
-12.0
 30
0.0
 11
0.0
 21
9.0
 31
0.0
  0
ENDBLK
  5
34B
100
AcDbEntity
  8
0
100
AcDbBlockEnd
  0
BLOCK
  5
34C
100
AcDbEntity
  8
0
100
AcDbBlockBegin
  2
L-F6-2
 70
0
 10
0.0
 20
0.0
 30
0.0
  3
L-F6-2
  1

  0
LINE
  5
34D
100
AcDbEntity
100
AcDbLine
  8
dims verify
 62
256
370
-1
  6
ByLayer
 10
3.0
 20
9.0
 30
0.0
 11
0.0
 21
9.0
 31
0.0
  0
LINE
  5
34E
100
AcDbEntity
100
AcDbLine
  8
dims verify
 62
256
370
-1
  6
ByLayer
 10
3.0
 20
-12.0
 30
0.0
 11
3.0
 21
9.0
 31
0.0
  0
LINE
  5
34F
100
AcDbEntity
100
AcDbLine
  8
dims verify
 62
256
370
-1
  6
ByLayer
 10
0.0
 20
-12.0
 30
0.0
 11
3.0
 21
-12.0
 31
0.0
  0
LINE
  5
350
100
AcDbEntity
100
AcDbLine
  8
dims verify
 62
256
370
-1
  6
ByLayer
 10
0.0
 20
-12.0
 30
0.0
 11
0.0
 21
9.0
 31
0.0
  0
ENDBLK
  5
351
100
AcDbEntity
  8
0
100
AcDbBlockEnd
  0
BLOCK
  5
352
100
AcDbEntity
  8
0
100
AcDbBlockBegin
  2
L-F6-3
 70
0
 10
0.0
 20
0.0
 30
0.0
  3
L-F6-3
  1

  0
LINE
  5
353
100
AcDbEntity
100
AcDbLine
  8
dims verify
 62
256
370
-1
  6
ByLayer
 10
3.0
 20
9.0
 30
0.0
 11
0.0
 21
9.0
 31
0.0
  0
LINE
  5
354
100
AcDbEntity
100
AcDbLine
  8
dims verify
 62
256
370
-1
  6
ByLayer
 10
3.0
 20
-12.0
 30
0.0
 11
3.0
 21
9.0
 31
0.0
  0
LINE
  5
355
100
AcDbEntity
100
AcDbLine
  8
dims verify
 62
256
370
-1
  6
ByLayer
 10
0.0
 20
-12.0
 30
0.0
 11
3.0
 21
-12.0
 31
0.0
  0
LINE
  5
356
100
AcDbEntity
100
AcDbLine
  8
dims verify
 62
256
370
-1
  6
ByLayer
 10
0.0
 20
-12.0
 30
0.0
 11
0.0
 21
9.0
 31
0.0
  0
ENDBLK
  5
357
100
AcDbEntity
  8
0
100
AcDbBlockEnd
  0
BLOCK
  5
358
100
AcDbEntity
  8
0
100
AcDbBlockBegin
  2
L-F6-4
 70
0
 10
0.0
 20
0.0
 30
0.0
  3
L-F6-4
  1

  0
LINE
  5
359
100
AcDbEntity
100
AcDbLine
  8
dims verify
 62
256
370
-1
  6
ByLayer
 10
3.0
 20
9.0
 30
0.0
 11
0.0
 21
9.0
 31
0.0
  0
LINE
  5
35A
100
AcDbEntity
100
AcDbLine
  8
dims verify
 62
256
370
-1
  6
ByLayer
 10
3.0
 20
-12.0
 30
0.0
 11
3.0
 21
9.0
 31
0.0
  0
LINE
  5
35B
100
AcDbEntity
100
AcDbLine
  8
dims verify
 62
256
370
-1
  6
ByLayer
 10
0.0
 20
-12.0
 30
0.0
 11
3.0
 21
-12.0
 31
0.0
  0
LINE
  5
35C
100
AcDbEntity
100
AcDbLine
  8
dims verify
 62
256
370
-1
  6
ByLayer
 10
0.0
 20
-12.0
 30
0.0
 11
0.0
 21
9.0
 31
0.0
  0
ENDBLK
  5
35D
100
AcDbEntity
  8
0
100
AcDbBlockEnd
  0
BLOCK
  5
35E
100
AcDbEntity
  8
0
100
AcDbBlockBegin
  2
L-F6-5
 70
0
 10
0.0
 20
0.0
 30
0.0
  3
L-F6-5
  1

  0
LINE
  5
35F
100
AcDbEntity
100
AcDbLine
  8
dims verify
 62
256
370
-1
  6
ByLayer
 10
3.0
 20
9.0
 30
0.0
 11
0.0
 21
9.0
 31
0.0
  0
LINE
  5
360
100
AcDbEntity
100
AcDbLine
  8
dims verify
 62
256
370
-1
  6
ByLayer
 10
3.0
 20
-12.0
 30
0.0
 11
3.0
 21
9.0
 31
0.0
  0
LINE
  5
361
100
AcDbEntity
100
AcDbLine
  8
dims verify
 62
256
370
-1
  6
ByLayer
 10
0.0
 20
-12.0
 30
0.0
 11
3.0
 21
-12.0
 31
0.0
  0
LINE
  5
362
100
AcDbEntity
100
AcDbLine
  8
dims verify
 62
256
370
-1
  6
ByLayer
 10
0.0
 20
-12.0
 30
0.0
 11
0.0
 21
9.0
 31
0.0
  0
ENDBLK
  5
363
100
AcDbEntity
  8
0
100
AcDbBlockEnd
  0
BLOCK
  5
364
100
AcDbEntity
  8
0
100
AcDbBlockBegin
  2
L-F7-0
 70
0
 10
0.0
 20
0.0
 30
0.0
  3
L-F7-0
  1

  0
LINE
  5
365
100
AcDbEntity
100
AcDbLine
  8
dims verify
 62
256
370
-1
  6
ByLayer
 10
-2.7734022411262345
 20
1.1093608964504948
 30
0.0
 11
3.1265977588737641
 21
1.1093608964504948
 31
0.0
  0
LINE
  5
366
100
AcDbEntity
100
AcDbLine
  8
dims verify
 62
256
370
-1
  6
ByLayer
 10
3.1265977588737641
 20
1.1093608964504948
 30
0.0
 11
3.1265977588737641
 21
-0.8906391035495052
 31
0.0
  0
LINE
  5
367
100
AcDbEntity
100
AcDbLine
  8
dims verify
 62
256
370
-1
  6
ByLayer
 10
3.1265977588737641
 20
-0.8906391035495052
 30
0.0
 11
-2.7734022411262345
 21
-0.8906391035495052
 31
0.0
  0
LINE
  5
368
100
AcDbEntity
100
AcDbLine
  8
dims verify
 62
256
370
-1
  6
ByLayer
 10
-2.7734022411262345
 20
-0.8906391035495052
 30
0.0
 11
-2.7734022411262345
 21
1.1093608964504948
 31
0.0
  0
ENDBLK
  5
369
100
AcDbEntity
  8
0
100
AcDbBlockEnd
  0
BLOCK
  5
36A
100
AcDbEntity
  8
0
100
AcDbBlockBegin
  2
L-F7-1
 70
0
 10
0.0
 20
0.0
 30
0.0
  3
L-F7-1
  1

  0
LINE
  5
36B
100
AcDbEntity
100
AcDbLine
  8
dims verify
 62
256
370
-1
  6
ByLayer
 10
-2.7734022411262345
 20
1.1093608964504931
 30
0.0
 11
3.1265977588737641
 21
1.1093608964504931
 31
0.0
  0
LINE
  5
36C
100
AcDbEntity
100
AcDbLine
  8
dims verify
 62
256
370
-1
  6
ByLayer
 10
3.1265977588737641
 20
1.1093608964504931
 30
0.0
 11
3.1265977588737641
 21
-0.8906391035495069
 31
0.0
  0
LINE
  5
36D
100
AcDbEntity
100
AcDbLine
  8
dims verify
 62
256
370
-1
  6
ByLayer
 10
3.1265977588737641
 20
-0.8906391035495069
 30
0.0
 11
-2.7734022411262345
 21
-0.8906391035495069
 31
0.0
  0
LINE
  5
36E
100
AcDbEntity
100
AcDbLine
  8
dims verify
 62
256
370
-1
  6
ByLayer
 10
-2.7734022411262345
 20
-0.8906391035495069
 30
0.0
 11
-2.7734022411262345
 21
1.1093608964504931
 31
0.0
  0
ENDBLK
  5
36F
100
AcDbEntity
  8
0
100
AcDbBlockEnd
  0
BLOCK
  5
370
100
AcDbEntity
  8
0
100
AcDbBlockBegin
  2
L-F8-0
 70
0
 10
0.0
 20
0.0
 30
0.0
  3
L-F8-0
  1

  0
LINE
  5
371
100
AcDbEntity
100
AcDbLine
  8
dims verify
 62
256
370
-1
  6
ByLayer
 10
-10.3301844083143024
 20
-6.4165839903042823
 30
0.0
 11
9.6698155916856976
 21
-6.4165839903042823
 31
0.0
  0
LINE
  5
372
100
AcDbEntity
100
AcDbLine
  8
dims verify
 62
256
370
-1
  6
ByLayer
 10
-10.3301844083143024
 20
-6.4165839903042823
 30
0.0
 11
-10.3301844083143024
 21
5.5834160096957177
 31
0.0
  0
LINE
  5
373
100
AcDbEntity
100
AcDbLine
  8
dims verify
 62
256
370
-1
  6
ByLayer
 10
9.6698155916856976
 20
-6.4165839903042823
 30
0.0
 11
9.6698155916856976
 21
5.5834160096957177
 31
0.0
  0
LINE
  5
374
100
AcDbEntity
100
AcDbLine
  8
dims verify
 62
256
370
-1
  6
ByLayer
 10
-10.3301844083143024
 20
5.5834160096957177
 30
0.0
 11
9.6698155916856976
 21
5.5834160096957177
 31
0.0
  0
LINE
  5
375
100
AcDbEntity
100
AcDbLine
  8
dims verify
 62
256
370
-1
  6
ByLayer
 10
-6.5801844083143024
 20
2.8334160096957177
 30
0.0
 11
5.9198155916856976
 21
2.8334160096957177
 31
0.0
  0
LINE
  5
376
100
AcDbEntity
100
AcDbLine
  8
dims verify
 62
256
370
-1
  6
ByLayer
 10
5.9198155916856976
 20
2.8334160096957177
 30
0.0
 11
5.9198155916856976
 21
-3.6665839903042823
 31
0.0
  0
LINE
  5
377
100
AcDbEntity
100
AcDbLine
  8
dims verify
 62
256
370
-1
  6
ByLayer
 10
5.9198155916856976
 20
-3.6665839903042823
 30
0.0
 11
-6.5801844083143024
 21
-3.6665839903042823
 31
0.0
  0
LINE
  5
378
100
AcDbEntity
100
AcDbLine
  8
dims verify
 62
256
370
-1
  6
ByLayer
 10
-6.5801844083143024
 20
-3.6665839903042823
 30
0.0
 11
-6.5801844083143024
 21
2.8334160096957177
 31
0.0
  0
LINE
  5
379
100
AcDbEntity
100
AcDbLine
  8
dims verify
 62
256
370
-1
  6
ByLayer
 10
-6.5801844083143024
 20
2.8334160096957177
 30
0.0
 11
-6.5801844083143024
 21
2.8334160096957177
 31
0.0
  0
LINE
  5
37A
100
AcDbEntity
100
AcDbLine
  8
dims verify
 62
256
370
-1
  6
ByLayer
 10
-6.5801844083143024
 20
2.8334160096957177
 30
0.0
 11
-6.5801844083143024
 21
2.8334160096957177
 31
0.0
  0
CIRCLE
  5
37B
100
AcDbEntity
100
AcDbCircle
  8
dims verify
 62
256
370
-1
  6
ByLayer
 10
-6.8301844083143024
 20
4.5834160096957177
 30
0.0
 40
0.5
  0
CIRCLE
  5
37C
100
AcDbEntity
100
AcDbCircle
  8
dims verify
 62
256
370
-1
  6
ByLayer
 10
6.1698155916856976
 20
4.5834160096957177
 30
0.0
 40
0.5
  0
CIRCLE
  5
37D
100
AcDbEntity
100
AcDbCircle
  8
dims verify
 62
256
370
-1
  6
ByLayer
 10
6.1698155916856976
 20
-5.4165839903042823
 30
0.0
 40
0.5
  0
CIRCLE
  5
37E
100
AcDbEntity
100
AcDbCircle
  8
dims verify
 62
256
370
-1
  6
ByLayer
 10
-6.8301844083143024
 20
-5.4165839903042823
 30
0.0
 40
0.5
  0
ENDBLK
  5
37F
100
AcDbEntity
  8
0
100
AcDbBlockEnd
  0
BLOCK
  5
380
100
AcDbEntity
  8
0
100
AcDbBlockBegin
  2
L-F9-0
 70
0
 10
0.0
 20
0.0
 30
0.0
  3
L-F9-0
  1

  0
LINE
  5
381
100
AcDbEntity
100
AcDbLine
  8
dims verify
 62
256
370
-1
  6
ByLayer
 10
-3.0000000000000009
 20
-1.0
 30
0.0
 11
-3.0000000000000018
 21
-7.0
 31
0.0
  0
LINE
  5
382
100
AcDbEntity
100
AcDbLine
  8
dims verify
 62
256
370
-1
  6
ByLayer
 10
19.0
 20
-1.0
 30
0.0
 11
19.0
 21
-7.0
 31
0.0
  0
LINE
  5
383
100
AcDbEntity
100
AcDbLine
  8
dims verify
 62
256
370
-1
  6
ByLayer
 10
-3.0000000000000018
 20
-7.0
 30
0.0
 11
19.0
 21
-7.0
 31
0.0
  0
CIRCLE
  5
384
100
AcDbEntity
100
AcDbCircle
  8
dims verify
 62
256
370
-1
  6
ByLayer
 10
-2.0
 20
3.0
 30
0.0
 40
0.5
  0
CIRCLE
  5
385
100
AcDbEntity
100
AcDbCircle
  8
dims verify
 62
256
370
-1
  6
ByLayer
 10
-2.0
 20
0.0
 30
0.0
 40
0.5
  0
CIRCLE
  5
386
100
AcDbEntity
100
AcDbCircle
  8
dims verify
 62
256
370
-1
  6
ByLayer
 10
-2.0
 20
-4.0
 30
0.0
 40
0.5
  0
CIRCLE
  5
387
100
AcDbEntity
100
AcDbCircle
  8
dims verify
 62
256
370
-1
  6
ByLayer
 10
18.0
 20
-4.0
 30
0.0
 40
0.5
  0
CIRCLE
  5
388
100
AcDbEntity
100
AcDbCircle
  8
dims verify
 62
256
370
-1
  6
ByLayer
 10
18.0
 20
0.0
 30
0.0
 40
0.5
  0
CIRCLE
  5
389
100
AcDbEntity
100
AcDbCircle
  8
dims verify
 62
256
370
-1
  6
ByLayer
 10
18.0
 20
3.0
 30
0.0
 40
0.5
  0
LINE
  5
38A
100
AcDbEntity
100
AcDbLine
  8
dims verify
 62
256
370
-1
  6
ByLayer
 10
-6.9021613943395836
 20
4.8002298504009886
 30
0.0
 11
-6.9021613943395836
 21
5.0002298504009914
 31
0.0
  0
LINE
  5
38B
100
AcDbEntity
100
AcDbLine
  8
dims verify
 62
256
370
-1
  6
ByLayer
 10
-6.9021613943395836
 20
4.8002298504009886
 30
0.0
 11
-3.0000000000000009
 21
-1.0
 31
0.0
  0
LINE
  5
38C
100
AcDbEntity
100
AcDbLine
  8
dims verify
 62
256
370
-1
  6
ByLayer
 10
22.8999999999999986
 20
5.0
 30
0.0
 11
22.8999999999999986
 21
4.8000000000000043
 31
0.0
  0
LINE
  5
38D
100
AcDbEntity
100
AcDbLine
  8
dims verify
 62
256
370
-1
  6
ByLayer
 10
22.8999999999999986
 20
4.8000000000000043
 30
0.0
 11
19.0
 21
-1.0
 31
0.0
  0
LINE
  5
38E
100
AcDbEntity
100
AcDbLine
  8
dims verify
 62
256
370
-1
  6
ByLayer
 10
-6.9021613943395836
 20
5.0002298504009914
 30
0.0
 11
22.8999999999999986
 21
5.0
 31
0.0
  0
ENDBLK
  5
38F
100
AcDbEntity
  8
0
100
AcDbBlockEnd
  0
BLOCK
  5
390
100
AcDbEntity
  8
0
100
AcDbBlockBegin
  2
L-F9-1
 70
0
 10
0.0
 20
0.0
 30
0.0
  3
L-F9-1
  1

  0
LINE
  5
391
100
AcDbEntity
100
AcDbLine
  8
dims verify
 62
256
370
-1
  6
ByLayer
 10
-3.0
 20
-1.0
 30
0.0
 11
-3.0000000000000036
 21
-7.0
 31
0.0
  0
LINE
  5
392
100
AcDbEntity
100
AcDbLine
  8
dims verify
 62
256
370
-1
  6
ByLayer
 10
19.0
 20
-1.0
 30
0.0
 11
19.0
 21
-7.0
 31
0.0
  0
LINE
  5
393
100
AcDbEntity
100
AcDbLine
  8
dims verify
 62
256
370
-1
  6
ByLayer
 10
-3.0000000000000036
 20
-7.0
 30
0.0
 11
19.0
 21
-7.0
 31
0.0
  0
CIRCLE
  5
394
100
AcDbEntity
100
AcDbCircle
  8
dims verify
 62
256
370
-1
  6
ByLayer
 10
-2.0
 20
3.0
 30
0.0
 40
0.5
  0
CIRCLE
  5
395
100
AcDbEntity
100
AcDbCircle
  8
dims verify
 62
256
370
-1
  6
ByLayer
 10
-2.0
 20
0.0
 30
0.0
 40
0.5
  0
CIRCLE
  5
396
100
AcDbEntity
100
AcDbCircle
  8
dims verify
 62
256
370
-1
  6
ByLayer
 10
-2.0
 20
-4.0
 30
0.0
 40
0.5
  0
CIRCLE
  5
397
100
AcDbEntity
100
AcDbCircle
  8
dims verify
 62
256
370
-1
  6
ByLayer
 10
18.0
 20
-4.0
 30
0.0
 40
0.5
  0
CIRCLE
  5
398
100
AcDbEntity
100
AcDbCircle
  8
dims verify
 62
256
370
-1
  6
ByLayer
 10
18.0
 20
0.0
 30
0.0
 40
0.5
  0
CIRCLE
  5
399
100
AcDbEntity
100
AcDbCircle
  8
dims verify
 62
256
370
-1
  6
ByLayer
 10
18.0
 20
3.0
 30
0.0
 40
0.5
  0
LINE
  5
39A
100
AcDbEntity
100
AcDbLine
  8
dims verify
 62
256
370
-1
  6
ByLayer
 10
-6.9021613943395828
 20
4.8002298504009886
 30
0.0
 11
-6.9021613943395828
 21
5.0002298504009914
 31
0.0
  0
LINE
  5
39B
100
AcDbEntity
100
AcDbLine
  8
dims verify
 62
256
370
-1
  6
ByLayer
 10
-6.9021613943395828
 20
4.8002298504009886
 30
0.0
 11
-3.0
 21
-1.0
 31
0.0
  0
LINE
  5
39C
100
AcDbEntity
100
AcDbLine
  8
dims verify
 62
256
370
-1
  6
ByLayer
 10
22.9000000000000021
 20
5.0
 30
0.0
 11
22.9000000000000021
 21
4.8000000000000043
 31
0.0
  0
LINE
  5
39D
100
AcDbEntity
100
AcDbLine
  8
dims verify
 62
256
370
-1
  6
ByLayer
 10
22.9000000000000021
 20
4.8000000000000043
 30
0.0
 11
19.0
 21
-1.0
 31
0.0
  0
LINE
  5
39E
100
AcDbEntity
100
AcDbLine
  8
dims verify
 62
256
370
-1
  6
ByLayer
 10
-6.9021613943395828
 20
5.0002298504009914
 30
0.0
 11
22.9000000000000021
 21
5.0
 31
0.0
  0
ENDBLK
  5
39F
100
AcDbEntity
  8
0
100
AcDbBlockEnd
  0
BLOCK
  5
3A0
100
AcDbEntity
  8
0
100
AcDbBlockBegin
  2
L-F10-0
 70
0
 10
0.0
 20
0.0
 30
0.0
  3
L-F10-0
  1

  0
LINE
  5
3A1
100
AcDbEntity
100
AcDbLine
  8
dims verify
 62
256
370
-1
  6
ByLayer
 10
-15.0
 20
2.0
 30
0.0
 11
15.0
 21
2.0
 31
0.0
  0
LINE
  5
3A2
100
AcDbEntity
100
AcDbLine
  8
dims verify
 62
256
370
-1
  6
ByLayer
 10
15.0
 20
2.0
 30
0.0
 11
15.0
 21
-1.0
 31
0.0
  0
LINE
  5
3A3
100
AcDbEntity
100
AcDbLine
  8
dims verify
 62
256
370
-1
  6
ByLayer
 10
15.0
 20
-1.0
 30
0.0
 11
-15.0
 21
-1.0
 31
0.0
  0
LINE
  5
3A4
100
AcDbEntity
100
AcDbLine
  8
dims verify
 62
256
370
-1
  6
ByLayer
 10
-15.0
 20
-1.0
 30
0.0
 11
-15.0
 21
2.0
 31
0.0
  0
ARC
  5
3A5
100
AcDbEntity
  8
dims verify
 62
256
370
-1
  6
ByLayer
100
AcDbCircle
 10
-13.7000000000000028
 20
0.5
 30
0.0
 40
0.4999999999999989
100
AcDbArc
 50
90.0
 51
270.0
  0
ARC
  5
3A6
100
AcDbEntity
  8
dims verify
 62
256
370
-1
  6
ByLayer
100
AcDbCircle
 10
-12.7000000000000028
 20
0.5
 30
0.0
 40
0.5000000000000002
100
AcDbArc
 50
270.0
 51
90.0
  0
LINE
  5
3A7
100
AcDbEntity
100
AcDbLine
  8
dims verify
 62
256
370
-1
  6
ByLayer
 10
-13.7000000000000028
 20
1.0
 30
0.0
 11
-12.7000000000000028
 21
1.0
 31
0.0
  0
LINE
  5
3A8
100
AcDbEntity
100
AcDbLine
  8
dims verify
 62
256
370
-1
  6
ByLayer
 10
-13.7000000000000028
 20
0.0
 30
0.0
 11
-12.7000000000000028
 21
0.0
 31
0.0
  0
ARC
  5
3A9
100
AcDbEntity
  8
dims verify
 62
256
370
-1
  6
ByLayer
100
AcDbCircle
 10
13.7000000000000028
 20
0.5
 30
0.0
 40
0.5
100
AcDbArc
 50
270.0
 51
90.0
  0
ARC
  5
3AA
100
AcDbEntity
  8
dims verify
 62
256
370
-1
  6
ByLayer
100
AcDbCircle
 10
12.7000000000000028
 20
0.5
 30
0.0
 40
0.5
100
AcDbArc
 50
90.0
 51
270.0
  0
LINE
  5
3AB
100
AcDbEntity
100
AcDbLine
  8
dims verify
 62
256
370
-1
  6
ByLayer
 10
12.7000000000000028
 20
1.0
 30
0.0
 11
13.7000000000000028
 21
1.0
 31
0.0
  0
LINE
  5
3AC
100
AcDbEntity
100
AcDbLine
  8
dims verify
 62
256
370
-1
  6
ByLayer
 10
12.7000000000000028
 20
0.0
 30
0.0
 11
13.7000000000000028
 21
0.0
 31
0.0
  0
ENDBLK
  5
3AD
100
AcDbEntity
  8
0
100
AcDbBlockEnd
  0
BLOCK
  5
3AE
100
AcDbEntity
  8
0
100
AcDbBlockBegin
  2
L-F10-1
 70
0
 10
0.0
 20
0.0
 30
0.0
  3
L-F10-1
  1

  0
LINE
  5
3AF
100
AcDbEntity
100
AcDbLine
  8
dims verify
 62
256
370
-1
  6
ByLayer
 10
-15.0
 20
2.0
 30
0.0
 11
15.0
 21
2.0
 31
0.0
  0
LINE
  5
3B0
100
AcDbEntity
100
AcDbLine
  8
dims verify
 62
256
370
-1
  6
ByLayer
 10
15.0
 20
2.0
 30
0.0
 11
15.0
 21
-1.0
 31
0.0
  0
LINE
  5
3B1
100
AcDbEntity
100
AcDbLine
  8
dims verify
 62
256
370
-1
  6
ByLayer
 10
15.0
 20
-1.0
 30
0.0
 11
-15.0
 21
-1.0
 31
0.0
  0
LINE
  5
3B2
100
AcDbEntity
100
AcDbLine
  8
dims verify
 62
256
370
-1
  6
ByLayer
 10
-15.0
 20
-1.0
 30
0.0
 11
-15.0
 21
2.0
 31
0.0
  0
ARC
  5
3B3
100
AcDbEntity
  8
dims verify
 62
256
370
-1
  6
ByLayer
100
AcDbCircle
 10
-13.7000000000000028
 20
0.5
 30
0.0
 40
0.4999999999999989
100
AcDbArc
 50
90.0
 51
270.0
  0
ARC
  5
3B4
100
AcDbEntity
  8
dims verify
 62
256
370
-1
  6
ByLayer
100
AcDbCircle
 10
-12.7000000000000028
 20
0.5
 30
0.0
 40
0.5000000000000002
100
AcDbArc
 50
270.0
 51
90.0
  0
LINE
  5
3B5
100
AcDbEntity
100
AcDbLine
  8
dims verify
 62
256
370
-1
  6
ByLayer
 10
-13.7000000000000028
 20
1.0
 30
0.0
 11
-12.7000000000000028
 21
1.0
 31
0.0
  0
LINE
  5
3B6
100
AcDbEntity
100
AcDbLine
  8
dims verify
 62
256
370
-1
  6
ByLayer
 10
-13.7000000000000028
 20
0.0
 30
0.0
 11
-12.7000000000000028
 21
0.0
 31
0.0
  0
ARC
  5
3B7
100
AcDbEntity
  8
dims verify
 62
256
370
-1
  6
ByLayer
100
AcDbCircle
 10
13.7000000000000028
 20
0.5
 30
0.0
 40
0.5
100
AcDbArc
 50
270.0
 51
90.0
  0
ARC
  5
3B8
100
AcDbEntity
  8
dims verify
 62
256
370
-1
  6
ByLayer
100
AcDbCircle
 10
12.7000000000000028
 20
0.5
 30
0.0
 40
0.5
100
AcDbArc
 50
90.0
 51
270.0
  0
LINE
  5
3B9
100
AcDbEntity
100
AcDbLine
  8
dims verify
 62
256
370
-1
  6
ByLayer
 10
12.7000000000000028
 20
1.0
 30
0.0
 11
13.7000000000000028
 21
1.0
 31
0.0
  0
LINE
  5
3BA
100
AcDbEntity
100
AcDbLine
  8
dims verify
 62
256
370
-1
  6
ByLayer
 10
12.7000000000000028
 20
0.0
 30
0.0
 11
13.7000000000000028
 21
0.0
 31
0.0
  0
ENDBLK
  5
3BB
100
AcDbEntity
  8
0
100
AcDbBlockEnd
  0
BLOCK
  5
3BC
100
AcDbEntity
  8
0
100
AcDbBlockBegin
  2
L-F11-0
 70
0
 10
0.0
 20
0.0
 30
0.0
  3
L-F11-0
  1

  0
CIRCLE
  5
3BD
100
AcDbEntity
100
AcDbCircle
  8
faces
 62
256
370
-1
  6
ByLayer
 10
-0.0048931440252744
 20
-0.0231464604668457
 30
0.0
 40
1.125
  0
LINE
  5
3BE
100
AcDbEntity
100
AcDbLine
  8
faces
 62
256
370
-1
  6
ByLayer
 10
2.1451068559747313
 20
1.9768535395331543
 30
0.0
 11
2.1451068559747313
 21
-2.0231464604668457
 31
0.0
  0
LINE
  5
3BF
100
AcDbEntity
100
AcDbLine
  8
faces
 62
256
370
-1
  6
ByLayer
 10
2.1451068559747313
 20
-2.0231464604668457
 30
0.0
 11
-2.154893144025273
 21
-2.0231464604668457
 31
0.0
  0
LINE
  5
3C0
100
AcDbEntity
100
AcDbLine
  8
faces
 62
256
370
-1
  6
ByLayer
 10
-2.154893144025273
 20
1.9768535395331543
 30
0.0
 11
2.1451068559747313
 21
1.9768535395331543
 31
0.0
  0
LINE
  5
3C1
100
AcDbEntity
100
AcDbLine
  8
faces
 62
256
370
-1
  6
ByLayer
 10
-2.154893144025273
 20
-2.0231464604668457
 30
0.0
 11
-2.154893144025273
 21
1.9768535395331543
 31
0.0
  0
ENDBLK
  5
3C2
100
AcDbEntity
  8
0
100
AcDbBlockEnd
  0
BLOCK
  5
3C3
100
AcDbEntity
  8
0
100
AcDbBlockBegin
  2
L-F11-1
 70
0
 10
0.0
 20
0.0
 30
0.0
  3
L-F11-1
  1

  0
CIRCLE
  5
3C4
100
AcDbEntity
100
AcDbCircle
  8
faces
 62
256
370
-1
  6
ByLayer
 10
-0.0048931440252744
 20
-0.0231464604668474
 30
0.0
 40
1.125
  0
LINE
  5
3C5
100
AcDbEntity
100
AcDbLine
  8
faces
 62
256
370
-1
  6
ByLayer
 10
2.1451068559747313
 20
1.9768535395331526
 30
0.0
 11
2.1451068559747313
 21
-2.0231464604668474
 31
0.0
  0
LINE
  5
3C6
100
AcDbEntity
100
AcDbLine
  8
faces
 62
256
370
-1
  6
ByLayer
 10
2.1451068559747313
 20
-2.0231464604668474
 30
0.0
 11
-2.154893144025273
 21
-2.0231464604668474
 31
0.0
  0
LINE
  5
3C7
100
AcDbEntity
100
AcDbLine
  8
faces
 62
256
370
-1
  6
ByLayer
 10
-2.154893144025273
 20
1.9768535395331561
 30
0.0
 11
2.1451068559747313
 21
1.9768535395331526
 31
0.0
  0
LINE
  5
3C8
100
AcDbEntity
100
AcDbLine
  8
faces
 62
256
370
-1
  6
ByLayer
 10
-2.154893144025273
 20
-2.0231464604668474
 30
0.0
 11
-2.154893144025273
 21
1.9768535395331561
 31
0.0
  0
ENDBLK
  5
3C9
100
AcDbEntity
  8
0
100
AcDbBlockEnd
  0
ENDSEC
  0
SECTION
  2
ENTITIES
  0
INSERT
  5
3CA
100
AcDbEntity
100
AcDbBlockReference
  8
dims verify
 62
256
370
-1
  6
ByLayer
  2
L-F1-0
 10
-2.6437327348066297
 20
0.0
 30
0.0
  0
INSERT
  5
3CB
100
AcDbEntity
100
AcDbBlockReference
  8
dims verify
 62
256
370
-1
  6
ByLayer
  2
L-F2-0
 10
4.0465296961325965
 20
-0.2697686464088397
 30
0.0
  0
INSERT
  5
3CC
100
AcDbEntity
100
AcDbBlockReference
  8
dims verify
 62
256
370
-1
  6
ByLayer
  2
L-F1-1
 10
-9.4840539753107738
 20
0.4215135100138122
 30
0.0
  0
INSERT
  5
3CD
100
AcDbEntity
100
AcDbBlockReference
  8
dims verify
 62
256
370
-1
  6
ByLayer
  2
L-F2-1
 10
12.8561620554212706
 20
-0.105378377503453
 30
0.0
  0
INSERT
  5
3CE
100
AcDbEntity
100
AcDbBlockReference
  8
front cuts
 62
256
370
-1
  6
ByLayer
  2
L-F3-4
 10
4.0150056967957397
 20
-13.2997063706358869
 30
0.0
  0
INSERT
  5
3CF
100
AcDbEntity
100
AcDbBlockReference
  8
front cuts
 62
256
370
-1
  6
ByLayer
  2
L-F3-5
 10
4.2659435528454734
 20
-17.4401809954564939
 30
0.0
  0
INSERT
  5
3D0
100
AcDbEntity
100
AcDbBlockReference
  8
front cuts
 62
256
370
-1
  6
ByLayer
  2
L-F3-6
 10
3.8895367687708728
 20
-22.0825313323765684
 30
0.0
  0
INSERT
  5
3D1
100
AcDbEntity
100
AcDbBlockReference
  8
front cuts
 62
256
370
-1
  6
ByLayer
  2
L-F3-7
 10
4.3914124808703399
 20
-25.972068101147439
 30
0.0
  0
INSERT
  5
3D2
100
AcDbEntity
100
AcDbBlockReference
  8
front cuts
 62
256
370
-1
  6
ByLayer
  2
L-F4-2
 10
11.2725990022341414
 20
16.4187855032540746
 30
0.0
  0
INSERT
  5
3D3
100
AcDbEntity
100
AcDbBlockReference
  8
front cuts
 62
256
370
-1
  6
ByLayer
  2
L-F4-3
 10
11.2725990022341414
 20
23.0353110045654184
 30
0.0
  0
INSERT
  5
3D4
100
AcDbEntity
100
AcDbBlockReference
  8
front cuts
 62
256
370
-1
  6
ByLayer
  2
L-F5-0
 10
18.86935050373976
 20
1.7153955003399781
 30
0.0
  0
INSERT
  5
3D5
100
AcDbEntity
100
AcDbBlockReference
  8
front cuts
 62
256
370
-1
  6
ByLayer
  2
L-F5-1
 10
22.7902545045168523
 20
1.9604520003885464
 30
0.0
  0
INSERT
  5
3D6
100
AcDbEntity
100
AcDbBlockReference
  8
front cuts
 62
256
370
-1
  6
ByLayer
  2
L-F6-0
 10
26.221045505196809
 20
1.9604520003885464
 30
0.0
  0
INSERT
  5
3D7
100
AcDbEntity
100
AcDbBlockReference
  8
front cuts
 62
256
370
-1
  6
ByLayer
  2
L-F6-1
 10
30.1419495059739013
 20
1.7153955003399781
 30
0.0
  0
INSERT
  5
3D8
100
AcDbEntity
100
AcDbBlockReference
  8
front cuts
 62
256
370
-1
  6
ByLayer
  2
L-F6-2
 10
33.8177970067024276
 20
1.9604520003885464
 30
0.0
  0
INSERT
  5
3D9
100
AcDbEntity
100
AcDbBlockReference
  8
front cuts
 62
256
370
-1
  6
ByLayer
  2
L-F6-3
 10
37.4936445074309503
 20
1.7153955003399781
 30
0.0
  0
INSERT
  5
3DA
100
AcDbEntity
100
AcDbBlockReference
  8
front cuts
 62
256
370
-1
  6
ByLayer
  2
L-F6-4
 10
41.6596050082566123
 20
1.7153955003399781
 30
0.0
  0
INSERT
  5
3DB
100
AcDbEntity
100
AcDbBlockReference
  8
front cuts
 62
256
370
-1
  6
ByLayer
  2
L-F6-5
 10
45.335452508985135
 20
1.9604520003885464
 30
0.0
  0
INSERT
  5
3DC
100
AcDbEntity
100
AcDbBlockReference
  8
front cuts
 62
256
370
-1
  6
ByLayer
  2
L-F7-0
 10
34.0628535067509901
 20
-13.2330510026226875
 30
0.0
  0
INSERT
  5
3DD
100
AcDbEntity
100
AcDbBlockReference
  8
front cuts
 62
256
370
-1
  6
ByLayer
  2
L-F7-1
 10
33.8177970067024276
 20
-16.9088985033512138
 30
0.0
  0
INSERT
  5
3DE
100
AcDbEntity
100
AcDbBlockReference
  8
front cuts
 62
256
370
-1
  6
ByLayer
  2
L-F8-0
 10
42.8848875084994532
 20
19.8495765039340313
 30
0.0
  0
INSERT
  5
3DF
100
AcDbEntity
100
AcDbBlockReference
  8
front cuts
 62
256
370
-1
  6
ByLayer
  2
L-F9-0
 10
-5.6362995011170707
 20
-33.8177970067024276
 30
0.0
  0
INSERT
  5
3E0
100
AcDbEntity
100
AcDbBlockReference
  8
front cuts
 62
256
370
-1
  6
ByLayer
  2
L-F9-1
 10
24.7507065049053985
 20
-34.0628535067509901
 30
0.0
  0
INSERT
  5
3E1
100
AcDbEntity
100
AcDbBlockReference
  8
front cuts
 62
256
370
-1
  6
ByLayer
  2
L-F10-0
 10
46.0706220091308367
 20
-27.4463280054396499
 30
0.0
  0
INSERT
  5
3E2
100
AcDbEntity
100
AcDbBlockReference
  8
front cuts
 62
256
370
-1
  6
ByLayer
  2
L-F10-1
 10
46.0706220091308367
 20
-23.5254240046625576
 30
0.0
  0
INSERT
  5
3E3
100
AcDbEntity
100
AcDbBlockReference
  8
front cuts
 62
256
370
-1
  6
ByLayer
  2
L-F11-0
 10
40.679379008062341
 20
-13.7231640027198249
 30
0.0
  0
INSERT
  5
3E4
100
AcDbEntity
100
AcDbBlockReference
  8
front cuts
 62
256
370
-1
  6
ByLayer
  2
L-F11-1
 10
40.4343225080137714
 20
-18.3792375036426208
 30
0.0
  0
ENDSEC
  0
SECTION
  2
OBJECTS
  0
DICTIONARY
  5
C
100
AcDbDictionary
280
0
281
1
  3
ACAD_GROUP
350
D
  3
ACAD_LAYOUT
350
1A
  3
ACAD_MLINESTYLE
350
17
  3
ACAD_PLOTSETTINGS
350
19
  3
ACAD_PLOTSTYLENAME
350
E
  3
AcDbVariableDictionary
350
3E5
  0
DICTIONARY
  5
D
100
AcDbDictionary
280
0
281
1
  0
ACDBDICTIONARYWDFLT
  5
E
100
AcDbDictionary
281
1
  3
Normal
350
F
100
AcDbDictionaryWithDefault
340
F
  0
ACDBPLACEHOLDER
  5
F
  0
DICTIONARY
  5
17
100
AcDbDictionary
280
0
281
1
  3
Standard
350
18
  0
MLINESTYLE
  5
18
100
AcDbMlineStyle
  2
STANDARD
 70
0
  3

 62
256
 51
90.0
 52
90.0
 71
2
 49
0.5
 62
256
  6
BYLAYER
 49
-0.5
 62
256
  6
BYLAYER
  0
DICTIONARY
  5
19
100
AcDbDictionary
280
0
281
1
  0
DICTIONARY
  5
1A
100
AcDbDictionary
281
1
  3
Layout1
350
1E
  3
Layout2
350
26
  3
Model
350
22
  0
LAYOUT
  5
1E
100
AcDbPlotSettings
  1

  2
C:\Program Files\AutoCAD 2002\plotters\DWF ePlot (optimized for plotting).pc3
  4

  6

 40
0.0
 41
0.0
 42
0.0
 43
0.0
 44
0.0
 45
0.0
 46
0.0
 47
0.0
 48
0.0
 49
0.0
140
0.0
141
0.0
142
1.0
143
1.0
 70
688
 72
0
 73
0
 74
5
  7

 75
16
147
1.0
148
0.0
149
0.0
100
AcDbLayout
  1
Layout1
 70
1
 71
1
 10
0.0
 20
0.0
 11
420.0
 21
297.0
 12
0.0
 22
0.0
 32
0.0
 14
100000000000000000000.0
 24
100000000000000000000.0
 34
100000000000000000000.0
 15
-100000000000000000000.0
 25
-100000000000000000000.0
 35
-100000000000000000000.0
146
0.0
 13
0.0
 23
0.0
 33
0.0
 16
1.0
 26
0.0
 36
0.0
 17
0.0
 27
1.0
 37
0.0
 76
0
330
1B
  0
LAYOUT
  5
22
100
AcDbPlotSettings
  1

  2
C:\Program Files\AutoCAD 2002\plotters\DWF ePlot (optimized for plotting).pc3
  4

  6

 40
0.0
 41
0.0
 42
0.0
 43
0.0
 44
0.0
 45
0.0
 46
0.0
 47
0.0
 48
0.0
 49
0.0
140
0.0
141
0.0
142
1.0
143
1.0
 70
1712
 72
0
 73
0
 74
0
  7

 75
0
147
1.0
148
0.0
149
0.0
100
AcDbLayout
  1
Model
 70
1
 71
0
 10
0.0
 20
0.0
 11
12.0
 21
9.0
 12
0.0
 22
0.0
 32
0.0
 14
0.0
 24
0.0
 34
0.0
 15
0.0
 25
0.0
 35
0.0
146
0.0
 13
0.0
 23
0.0
 33
0.0
 16
1.0
 26
0.0
 36
0.0
 17
0.0
 27
1.0
 37
0.0
 76
0
330
1F
  0
LAYOUT
  5
26
100
AcDbPlotSettings
  1

  2
C:\Program Files\AutoCAD 2002\plotters\DWF ePlot (optimized for plotting).pc3
  4

  6

 40
0.0
 41
0.0
 42
0.0
 43
0.0
 44
0.0
 45
0.0
 46
0.0
 47
0.0
 48
0.0
 49
0.0
140
0.0
141
0.0
142
1.0
143
1.0
 70
688
 72
0
 73
0
 74
5
  7

 75
16
147
1.0
148
0.0
149
0.0
100
AcDbLayout
  1
Layout2
 70
1
 71
2
 10
0.0
 20
0.0
 11
12.0
 21
9.0
 12
0.0
 22
0.0
 32
0.0
 14
0.0
 24
0.0
 34
0.0
 15
0.0
 25
0.0
 35
0.0
146
0.0
 13
0.0
 23
0.0
 33
0.0
 16
1.0
 26
0.0
 36
0.0
 17
0.0
 27
1.0
 37
0.0
 76
0
330
23
  0
DICTIONARY
  5
3E5
100
AcDbDictionary
281
1
  3
DIMASSOC
350
3E7
  3
HIDETEXT
350
3E6
  0
DICTIONARYVAR
  5
3E6
100
DictionaryVariables
280
0
  1
2
  0
DICTIONARYVAR
  5
3E7
100
DictionaryVariables
280
0
  1
1
  0
ENDSEC
  0
EOF
