ISO-10303-21;
HEADER;
FILE_DESCRIPTION (( 'STEP AP203' ),
    '1' );
FILE_NAME ('InsidePlate.STEP',
    '2012-05-22T00:52:43',
    ( '' ),
    ( '' ),
    'SwSTEP 2.0',
    'SolidWorks 2010',
    '' );
FILE_SCHEMA (( 'CONFIG_CONTROL_DESIGN' ));
ENDSEC;

DATA;
#1 = LINE ( 'NONE', #220, #121 ) ;
#2 = VECTOR ( 'NONE', #236, 1000.000000000000000 ) ;
#3 = CIRCLE ( 'NONE', #110, 15.90000000000000700 ) ;
#4 = LINE ( 'NONE', #137, #2 ) ;
#5 = CIRCLE ( 'NONE', #70, 15.90000000000000700 ) ;
#6 = ADVANCED_BREP_SHAPE_REPRESENTATION ( 'InsidePlate', ( #7, #94 ), #56 ) ;
#7 = MANIFOLD_SOLID_BREP ( 'Cut-Extrude1', #47 ) ;
#8 = UNCERTAINTY_MEASURE_WITH_UNIT (LENGTH_MEASURE( 1.000000000000000100E-005 ), #183, 'distance_accuracy_value', 'NONE');
#9 = ORIENTED_EDGE ( 'NONE', *, *, #109, .T. ) ;
#10 = ORIENTED_EDGE ( 'NONE', *, *, #113, .T. ) ;
#11 = ORIENTED_EDGE ( 'NONE', *, *, #112, .F. ) ;
#12 = ORIENTED_EDGE ( 'NONE', *, *, #104, .F. ) ;
#13 = ORIENTED_EDGE ( 'NONE', *, *, #103, .T. ) ;
#14 = ORIENTED_EDGE ( 'NONE', *, *, #111, .F. ) ;
#15 = ORIENTED_EDGE ( 'NONE', *, *, #114, .T. ) ;
#16 = ORIENTED_EDGE ( 'NONE', *, *, #116, .F. ) ;
#17 = ORIENTED_EDGE ( 'NONE', *, *, #118, .T. ) ;
#18 = ORIENTED_EDGE ( 'NONE', *, *, #71, .F. ) ;
#19 = ORIENTED_EDGE ( 'NONE', *, *, #118, .F. ) ;
#20 = ORIENTED_EDGE ( 'NONE', *, *, #73, .T. ) ;
#21 = ORIENTED_EDGE ( 'NONE', *, *, #108, .T. ) ;
#22 = ORIENTED_EDGE ( 'NONE', *, *, #115, .T. ) ;
#23 = ORIENTED_EDGE ( 'NONE', *, *, #114, .F. ) ;
#24 = ORIENTED_EDGE ( 'NONE', *, *, #88, .T. ) ;
#25 = ORIENTED_EDGE ( 'NONE', *, *, #106, .F. ) ;
#26 = ORIENTED_EDGE ( 'NONE', *, *, #115, .F. ) ;
#27 = ORIENTED_EDGE ( 'NONE', *, *, #117, .T. ) ;
#28 = ORIENTED_EDGE ( 'NONE', *, *, #103, .F. ) ;
#29 = ORIENTED_EDGE ( 'NONE', *, *, #104, .T. ) ;
#30 = ORIENTED_EDGE ( 'NONE', *, *, #88, .F. ) ;
#31 = EDGE_LOOP ( 'NONE', ( #11, #53, #44, #42 ) ) ;
#32 = EDGE_LOOP ( 'NONE', ( #13, #45, #15, #10 ) ) ;
#33 = EDGE_LOOP ( 'NONE', ( #46, #9 ) ) ;
#34 = EDGE_LOOP ( 'NONE', ( #18, #48, #38, #29 ) ) ;
#35 = EDGE_LOOP ( 'NONE', ( #21, #19, #23, #22 ) ) ;
#36 = EDGE_LOOP ( 'NONE', ( #27, #26, #25, #24 ) ) ;
#37 = ORIENTED_EDGE ( 'NONE', *, *, #113, .F. ) ;
#38 = ORIENTED_EDGE ( 'NONE', *, *, #107, .T. ) ;
#39 = EDGE_LOOP ( 'NONE', ( #12, #14 ) ) ;
#40 = ORIENTED_EDGE ( 'NONE', *, *, #116, .T. ) ;
#41 = LINE ( 'NONE', #134, #309 ) ;
#42 = ORIENTED_EDGE ( 'NONE', *, *, #117, .F. ) ;
#43 = EDGE_LOOP ( 'NONE', ( #301, #30, #28, #40 ) ) ;
#44 = ORIENTED_EDGE ( 'NONE', *, *, #108, .F. ) ;
#45 = ORIENTED_EDGE ( 'NONE', *, *, #106, .T. ) ;
#46 = ORIENTED_EDGE ( 'NONE', *, *, #105, .T. ) ;
#47 = CLOSED_SHELL ( 'NONE', ( #263, #264, #262, #259, #261, #257, #260, #258 ) ) ;
#48 = ORIENTED_EDGE ( 'NONE', *, *, #105, .F. ) ;
#49 = EDGE_LOOP ( 'NONE', ( #308, #307, #51, #303 ) ) ;
#50 = VECTOR ( 'NONE', #230, 1000.000000000000000 ) ;
#51 = ORIENTED_EDGE ( 'NONE', *, *, #111, .T. ) ;
#52 = EDGE_LOOP ( 'NONE', ( #20, #16, #37, #17 ) ) ;
#53 = ORIENTED_EDGE ( 'NONE', *, *, #73, .F. ) ;
#54 = PRODUCT ( 'InsidePlate', 'InsidePlate', '', ( #175 ) ) ;
#55 = PERSON ( 'UNSPECIFIED', 'UNSPECIFIED', 'UNSPECIFIED', ('UNSPECIFIED'), ('UNSPECIFIED'), ('UNSPECIFIED') ) ;
#56 =( GEOMETRIC_REPRESENTATION_CONTEXT ( 3 ) GLOBAL_UNCERTAINTY_ASSIGNED_CONTEXT ( ( #8 ) ) GLOBAL_UNIT_ASSIGNED_CONTEXT ( ( #183, #197, #203 ) ) REPRESENTATION_CONTEXT ( 'NONE', 'WORKASPACE' ) );
#57 = SHAPE_DEFINITION_REPRESENTATION ( #243, #6 ) ;
#58 = ORGANIZATION ( 'UNSPECIFIED', 'UNSPECIFIED', '' ) ;
#59 = PERSON_AND_ORGANIZATION ( #55, #58 ) ;
#60 = PERSON_AND_ORGANIZATION ( #55, #58 ) ;
#61 = APPROVAL_PERSON_ORGANIZATION ( #60, #89, #210 ) ;
#62 = COORDINATED_UNIVERSAL_TIME_OFFSET ( 6, 0, .BEHIND. ) ;
#63 = LOCAL_TIME ( 19, 52, 43.00000000000000000, #62 ) ;
#64 = CALENDAR_DATE ( 2012, 21, 5 ) ;
#65 = DATE_AND_TIME ( #64, #63 ) ;
#66 = APPROVAL_DATE_TIME ( #65, #89 ) ;
#67 = PERSON_AND_ORGANIZATION ( #55, #58 ) ;
#68 = COORDINATED_UNIVERSAL_TIME_OFFSET ( 6, 0, .BEHIND. ) ;
#69 = LOCAL_TIME ( 19, 52, 43.00000000000000000, #68 ) ;
#70 = AXIS2_PLACEMENT_3D ( 'NONE', #127, #215, #125 ) ;
#71 = EDGE_CURVE ( 'NONE', #130, #149, #302, .T. ) ;
#72 = PRODUCT_RELATED_PRODUCT_CATEGORY ( 'detail', '', ( #54 ) ) ;
#73 = EDGE_CURVE ( 'NONE', #198, #146, #310, .T. ) ;
#74 = CC_DESIGN_SECURITY_CLASSIFICATION ( #79, ( #84 ) ) ;
#75 = CC_DESIGN_APPROVAL ( #76, ( #79 ) ) ;
#76 = APPROVAL ( #222, 'UNSPECIFIED' ) ;
#77 = CC_DESIGN_DATE_AND_TIME_ASSIGNMENT ( #282, #223, ( #79 ) ) ;
#78 = CC_DESIGN_PERSON_AND_ORGANIZATION_ASSIGNMENT ( #278, #224, ( #79 ) ) ;
#79 = SECURITY_CLASSIFICATION ( '', '', #229 ) ;
#80 = CC_DESIGN_PERSON_AND_ORGANIZATION_ASSIGNMENT ( #277, #225, ( #84 ) ) ;
#81 = CC_DESIGN_PERSON_AND_ORGANIZATION_ASSIGNMENT ( #276, #235, ( #84 ) ) ;
#82 = CC_DESIGN_APPROVAL ( #83, ( #84 ) ) ;
#83 = APPROVAL ( #233, 'UNSPECIFIED' ) ;
#84 = PRODUCT_DEFINITION_FORMATION_WITH_SPECIFIED_SOURCE ( 'ANY', '', #54, .NOT_KNOWN. ) ;
#85 = CC_DESIGN_DATE_AND_TIME_ASSIGNMENT ( #268, #211, ( #90 ) ) ;
#86 = CC_DESIGN_PERSON_AND_ORGANIZATION_ASSIGNMENT ( #67, #200, ( #90 ) ) ;
#87 = CC_DESIGN_APPROVAL ( #89, ( #90 ) ) ;
#88 = EDGE_CURVE ( 'NONE', #140, #148, #305, .T. ) ;
#89 = APPROVAL ( #209, 'UNSPECIFIED' ) ;
#90 = PRODUCT_DEFINITION ( 'UNKNOWN', '', #84, #242 ) ;
#91 = AXIS2_PLACEMENT_3D ( 'NONE', #159, #201, #202 ) ;
#92 = AXIS2_PLACEMENT_3D ( 'NONE', #218, #232, #217 ) ;
#93 = AXIS2_PLACEMENT_3D ( 'NONE', #179, #191, #188 ) ;
#94 = AXIS2_PLACEMENT_3D ( 'NONE', #204, #182, #205 ) ;
#95 = AXIS2_PLACEMENT_3D ( 'NONE', #155, #157, #152 ) ;
#96 = AXIS2_PLACEMENT_3D ( 'NONE', #151, #192, #193 ) ;
#97 = AXIS2_PLACEMENT_3D ( 'NONE', #184, #194, #158 ) ;
#98 = AXIS2_PLACEMENT_3D ( 'NONE', #174, #206, #207 ) ;
#99 = CC_DESIGN_PERSON_AND_ORGANIZATION_ASSIGNMENT ( #59, #185, ( #54 ) ) ;
#100 = AXIS2_PLACEMENT_3D ( 'NONE', #154, #171, #162 ) ;
#101 = AXIS2_PLACEMENT_3D ( 'NONE', #172, #177, #164 ) ;
#102 = AXIS2_PLACEMENT_3D ( 'NONE', #228, #214, #196 ) ;
#103 = EDGE_CURVE ( 'NONE', #139, #140, #41, .T. ) ;
#104 = EDGE_CURVE ( 'NONE', #143, #149, #3, .T. ) ;
#105 = EDGE_CURVE ( 'NONE', #147, #130, #5, .T. ) ;
#106 = EDGE_CURVE ( 'NONE', #140, #131, #4, .T. ) ;
#107 = EDGE_CURVE ( 'NONE', #147, #143, #296, .T. ) ;
#108 = EDGE_CURVE ( 'NONE', #135, #198, #297, .T. ) ;
#109 = EDGE_CURVE ( 'NONE', #130, #147, #122, .T. ) ;
#110 = AXIS2_PLACEMENT_3D ( 'NONE', #145, #126, #128 ) ;
#111 = EDGE_CURVE ( 'NONE', #149, #143, #299, .T. ) ;
#112 = EDGE_CURVE ( 'NONE', #146, #148, #292, .T. ) ;
#113 = EDGE_CURVE ( 'NONE', #133, #139, #300, .T. ) ;
#114 = EDGE_CURVE ( 'NONE', #131, #133, #266, .T. ) ;
#115 = EDGE_CURVE ( 'NONE', #131, #135, #120, .T. ) ;
#116 = EDGE_CURVE ( 'NONE', #139, #146, #294, .T. ) ;
#117 = EDGE_CURVE ( 'NONE', #148, #135, #1, .T. ) ;
#118 = EDGE_CURVE ( 'NONE', #133, #198, #244, .T. ) ;
#119 = VECTOR ( 'NONE', #173, 1000.000000000000000 ) ;
#120 = LINE ( 'NONE', #161, #119 ) ;
#121 = VECTOR ( 'NONE', #219, 1000.000000000000000 ) ;
#122 = CIRCLE ( 'NONE', #102, 15.90000000000000700 ) ;
#123 = CARTESIAN_POINT ( 'NONE',  ( 37.50000000000000000, 0.0000000000000000000, -21.59999999999999100 ) ) ;
#124 = DIRECTION ( 'NONE',  ( 0.0000000000000000000, 0.0000000000000000000, -1.000000000000000000 ) ) ;
#125 = DIRECTION ( 'NONE',  ( 0.0000000000000000000, 0.0000000000000000000, 1.000000000000000000 ) ) ;
#126 = DIRECTION ( 'NONE',  ( 0.0000000000000000000, 1.000000000000000000, -0.0000000000000000000 ) ) ;
#127 = CARTESIAN_POINT ( 'NONE',  ( 37.50000000000000000, 0.0000000000000000000, -37.50000000000000000 ) ) ;
#128 = DIRECTION ( 'NONE',  ( 0.0000000000000000000, 0.0000000000000000000, 1.000000000000000000 ) ) ;
#129 = CARTESIAN_POINT ( 'NONE',  ( 75.00000000000000000, 0.0000000000000000000, -75.00000000000000000 ) ) ;
#130 = VERTEX_POINT ( 'NONE', #163 ) ;
#131 = VERTEX_POINT ( 'NONE', #187 ) ;
#132 = CARTESIAN_POINT ( 'NONE',  ( 0.0000000000000000000, 0.0000000000000000000, -75.00000000000000000 ) ) ;
#133 = VERTEX_POINT ( 'NONE', #240 ) ;
#134 = CARTESIAN_POINT ( 'NONE',  ( 0.0000000000000000000, 12.69999999999999900, 0.0000000000000000000 ) ) ;
#135 = VERTEX_POINT ( 'NONE', #150 ) ;
#136 = DIRECTION ( 'NONE',  ( -1.000000000000000000, -0.0000000000000000000, -0.0000000000000000000 ) ) ;
#137 = CARTESIAN_POINT ( 'NONE',  ( 0.0000000000000000000, 12.69999999999999900, 0.0000000000000000000 ) ) ;
#138 = DIRECTION ( 'NONE',  ( -0.0000000000000000000, 1.000000000000000000, -0.0000000000000000000 ) ) ;
#139 = VERTEX_POINT ( 'NONE', #166 ) ;
#140 = VERTEX_POINT ( 'NONE', #169 ) ;
#141 = CARTESIAN_POINT ( 'NONE',  ( 37.50000000000000000, 0.0000000000000000000, -53.40000000000000600 ) ) ;
#142 = DIRECTION ( 'NONE',  ( -0.0000000000000000000, -1.000000000000000000, -0.0000000000000000000 ) ) ;
#143 = VERTEX_POINT ( 'NONE', #231 ) ;
#144 = DIRECTION ( 'NONE',  ( -0.0000000000000000000, -0.0000000000000000000, 1.000000000000000000 ) ) ;
#145 = CARTESIAN_POINT ( 'NONE',  ( 37.50000000000000000, 12.69999999999999900, -37.50000000000000000 ) ) ;
#146 = VERTEX_POINT ( 'NONE', #199 ) ;
#147 = VERTEX_POINT ( 'NONE', #123 ) ;
#148 = VERTEX_POINT ( 'NONE', #165 ) ;
#149 = VERTEX_POINT ( 'NONE', #153 ) ;
#150 = CARTESIAN_POINT ( 'NONE',  ( 75.00000000000000000, 0.0000000000000000000, 0.0000000000000000000 ) ) ;
#151 = CARTESIAN_POINT ( 'NONE',  ( 37.50000000000000000, 0.0000000000000000000, -37.50000000000000000 ) ) ;
#152 = DIRECTION ( 'NONE',  ( 0.0000000000000000000, -0.0000000000000000000, -1.000000000000000000 ) ) ;
#153 = CARTESIAN_POINT ( 'NONE',  ( 37.50000000000000000, 12.69999999999999900, -53.40000000000000600 ) ) ;
#154 = CARTESIAN_POINT ( 'NONE',  ( 75.00000000000000000, 12.69999999999999900, 0.0000000000000000000 ) ) ;
#155 = CARTESIAN_POINT ( 'NONE',  ( 0.0000000000000000000, 12.69999999999999900, -75.00000000000000000 ) ) ;
#156 = PLANE ( 'NONE',  #100 ) ;
#157 = DIRECTION ( 'NONE',  ( 0.0000000000000000000, -1.000000000000000000, 0.0000000000000000000 ) ) ;
#158 = DIRECTION ( 'NONE',  ( 1.000000000000000000, 0.0000000000000000000, -0.0000000000000000000 ) ) ;
#159 = CARTESIAN_POINT ( 'NONE',  ( 0.0000000000000000000, 12.69999999999999900, 0.0000000000000000000 ) ) ;
#160 = APPLICATION_PROTOCOL_DEFINITION ( 'international standard', 'config_control_design', 1994, #167 ) ;
#161 = CARTESIAN_POINT ( 'NONE',  ( 75.00000000000000000, 12.69999999999999900, 0.0000000000000000000 ) ) ;
#162 = DIRECTION ( 'NONE',  ( 0.0000000000000000000, 0.0000000000000000000, 1.000000000000000000 ) ) ;
#163 = CARTESIAN_POINT ( 'NONE',  ( 37.50000000000000000, 0.0000000000000000000, -53.40000000000000600 ) ) ;
#164 = DIRECTION ( 'NONE',  ( 0.0000000000000000000, -0.0000000000000000000, -1.000000000000000000 ) ) ;
#165 = CARTESIAN_POINT ( 'NONE',  ( 0.0000000000000000000, 0.0000000000000000000, 0.0000000000000000000 ) ) ;
#166 = CARTESIAN_POINT ( 'NONE',  ( 0.0000000000000000000, 12.69999999999999900, -75.00000000000000000 ) ) ;
#167 = APPLICATION_CONTEXT ( 'configuration controlled 3d designs of mechanical parts and assemblies' ) ;
#168 = DIRECTION ( 'NONE',  ( -0.0000000000000000000, -1.000000000000000000, -0.0000000000000000000 ) ) ;
#169 = CARTESIAN_POINT ( 'NONE',  ( 0.0000000000000000000, 12.69999999999999900, 0.0000000000000000000 ) ) ;
#170 = CARTESIAN_POINT ( 'NONE',  ( 0.0000000000000000000, 12.69999999999999900, 0.0000000000000000000 ) ) ;
#171 = DIRECTION ( 'NONE',  ( -1.000000000000000000, 0.0000000000000000000, 0.0000000000000000000 ) ) ;
#172 = CARTESIAN_POINT ( 'NONE',  ( 0.0000000000000000000, 0.0000000000000000000, -75.00000000000000000 ) ) ;
#173 = DIRECTION ( 'NONE',  ( -0.0000000000000000000, -1.000000000000000000, -0.0000000000000000000 ) ) ;
#174 = CARTESIAN_POINT ( 'NONE',  ( 0.0000000000000000000, 12.69999999999999900, 0.0000000000000000000 ) ) ;
#175 = MECHANICAL_CONTEXT ( 'NONE', #167, 'mechanical' ) ;
#176 = APPLICATION_CONTEXT ( 'configuration controlled 3d designs of mechanical parts and assemblies' ) ;
#177 = DIRECTION ( 'NONE',  ( 0.0000000000000000000, -1.000000000000000000, 0.0000000000000000000 ) ) ;
#178 = CARTESIAN_POINT ( 'NONE',  ( 75.00000000000000000, 12.69999999999999900, -75.00000000000000000 ) ) ;
#179 = CARTESIAN_POINT ( 'NONE',  ( 37.50000000000000000, 0.0000000000000000000, -37.50000000000000000 ) ) ;
#180 = PLANE ( 'NONE',  #91 ) ;
#181 = PLANE ( 'NONE',  #97 ) ;
#182 = DIRECTION ( 'NONE',  ( 0.0000000000000000000, 0.0000000000000000000, 1.000000000000000000 ) ) ;
#183 =( LENGTH_UNIT ( ) NAMED_UNIT ( * ) SI_UNIT ( .MILLI., .METRE. ) );
#184 = CARTESIAN_POINT ( 'NONE',  ( 0.0000000000000000000, 12.69999999999999900, -75.00000000000000000 ) ) ;
#185 = PERSON_AND_ORGANIZATION_ROLE ( 'design_owner' ) ;
#186 = PLANE ( 'NONE',  #101 ) ;
#187 = CARTESIAN_POINT ( 'NONE',  ( 75.00000000000000000, 12.69999999999999900, 0.0000000000000000000 ) ) ;
#188 = DIRECTION ( 'NONE',  ( 0.0000000000000000000, 0.0000000000000000000, 1.000000000000000000 ) ) ;
#189 = PLANE ( 'NONE',  #95 ) ;
#190 = PLANE ( 'NONE',  #98 ) ;
#191 = DIRECTION ( 'NONE',  ( -0.0000000000000000000, 1.000000000000000000, -0.0000000000000000000 ) ) ;
#192 = DIRECTION ( 'NONE',  ( -0.0000000000000000000, 1.000000000000000000, -0.0000000000000000000 ) ) ;
#193 = DIRECTION ( 'NONE',  ( 0.0000000000000000000, 0.0000000000000000000, 1.000000000000000000 ) ) ;
#194 = DIRECTION ( 'NONE',  ( 0.0000000000000000000, 0.0000000000000000000, 1.000000000000000000 ) ) ;
#195 = APPROVAL_ROLE ( '' ) ;
#196 = DIRECTION ( 'NONE',  ( 0.0000000000000000000, 0.0000000000000000000, 1.000000000000000000 ) ) ;
#197 =( NAMED_UNIT ( * ) PLANE_ANGLE_UNIT ( ) SI_UNIT ( $, .RADIAN. ) );
#198 = VERTEX_POINT ( 'NONE', #129 ) ;
#199 = CARTESIAN_POINT ( 'NONE',  ( 0.0000000000000000000, 0.0000000000000000000, -75.00000000000000000 ) ) ;
#200 = PERSON_AND_ORGANIZATION_ROLE ( 'creator' ) ;
#201 = DIRECTION ( 'NONE',  ( 1.000000000000000000, -0.0000000000000000000, 0.0000000000000000000 ) ) ;
#202 = DIRECTION ( 'NONE',  ( 0.0000000000000000000, 0.0000000000000000000, -1.000000000000000000 ) ) ;
#203 =( NAMED_UNIT ( * ) SI_UNIT ( $, .STERADIAN. ) SOLID_ANGLE_UNIT ( ) );
#204 = CARTESIAN_POINT ( 'NONE',  ( 0.0000000000000000000, 0.0000000000000000000, 0.0000000000000000000 ) ) ;
#205 = DIRECTION ( 'NONE',  ( 1.000000000000000000, 0.0000000000000000000, 0.0000000000000000000 ) ) ;
#206 = DIRECTION ( 'NONE',  ( 0.0000000000000000000, 0.0000000000000000000, -1.000000000000000000 ) ) ;
#207 = DIRECTION ( 'NONE',  ( -1.000000000000000000, 0.0000000000000000000, -0.0000000000000000000 ) ) ;
#208 = APPLICATION_PROTOCOL_DEFINITION ( 'international standard', 'config_control_design', 1994, #176 ) ;
#209 = APPROVAL_STATUS ( 'not_yet_approved' ) ;
#210 = APPROVAL_ROLE ( '' ) ;
#211 = DATE_TIME_ROLE ( 'creation_date' ) ;
#212 = CARTESIAN_POINT ( 'NONE',  ( 0.0000000000000000000, 12.69999999999999900, -75.00000000000000000 ) ) ;
#213 = CARTESIAN_POINT ( 'NONE',  ( 0.0000000000000000000, 0.0000000000000000000, 0.0000000000000000000 ) ) ;
#214 = DIRECTION ( 'NONE',  ( 0.0000000000000000000, 1.000000000000000000, -0.0000000000000000000 ) ) ;
#215 = DIRECTION ( 'NONE',  ( 0.0000000000000000000, 1.000000000000000000, -0.0000000000000000000 ) ) ;
#216 = CARTESIAN_POINT ( 'NONE',  ( 0.0000000000000000000, 12.69999999999999900, -75.00000000000000000 ) ) ;
#217 = DIRECTION ( 'NONE',  ( 0.0000000000000000000, 0.0000000000000000000, 1.000000000000000000 ) ) ;
#218 = CARTESIAN_POINT ( 'NONE',  ( 37.50000000000000000, 12.69999999999999900, -37.50000000000000000 ) ) ;
#219 = DIRECTION ( 'NONE',  ( 1.000000000000000000, 0.0000000000000000000, 0.0000000000000000000 ) ) ;
#220 = CARTESIAN_POINT ( 'NONE',  ( 0.0000000000000000000, 0.0000000000000000000, 0.0000000000000000000 ) ) ;
#221 = APPROVAL_ROLE ( '' ) ;
#222 = APPROVAL_STATUS ( 'not_yet_approved' ) ;
#223 = DATE_TIME_ROLE ( 'classification_date' ) ;
#224 = PERSON_AND_ORGANIZATION_ROLE ( 'classification_officer' ) ;
#225 = PERSON_AND_ORGANIZATION_ROLE ( 'design_supplier' ) ;
#226 = DIRECTION ( 'NONE',  ( 0.0000000000000000000, 0.0000000000000000000, -1.000000000000000000 ) ) ;
#227 = CARTESIAN_POINT ( 'NONE',  ( 75.00000000000000000, 12.69999999999999900, 0.0000000000000000000 ) ) ;
#228 = CARTESIAN_POINT ( 'NONE',  ( 37.50000000000000000, 0.0000000000000000000, -37.50000000000000000 ) ) ;
#229 = SECURITY_CLASSIFICATION_LEVEL ( 'unclassified' ) ;
#230 = DIRECTION ( 'NONE',  ( -0.0000000000000000000, -1.000000000000000000, -0.0000000000000000000 ) ) ;
#231 = CARTESIAN_POINT ( 'NONE',  ( 37.50000000000000000, 12.69999999999999900, -21.59999999999999100 ) ) ;
#232 = DIRECTION ( 'NONE',  ( 0.0000000000000000000, 1.000000000000000000, -0.0000000000000000000 ) ) ;
#233 = APPROVAL_STATUS ( 'not_yet_approved' ) ;
#234 = DIRECTION ( 'NONE',  ( -1.000000000000000000, -0.0000000000000000000, -0.0000000000000000000 ) ) ;
#235 = PERSON_AND_ORGANIZATION_ROLE ( 'creator' ) ;
#236 = DIRECTION ( 'NONE',  ( 1.000000000000000000, 0.0000000000000000000, 0.0000000000000000000 ) ) ;
#237 = CARTESIAN_POINT ( 'NONE',  ( 75.00000000000000000, 0.0000000000000000000, 0.0000000000000000000 ) ) ;
#238 = CARTESIAN_POINT ( 'NONE',  ( 37.50000000000000000, 0.0000000000000000000, -21.59999999999999100 ) ) ;
#239 = DIRECTION ( 'NONE',  ( -0.0000000000000000000, 1.000000000000000000, -0.0000000000000000000 ) ) ;
#240 = CARTESIAN_POINT ( 'NONE',  ( 75.00000000000000000, 12.69999999999999900, -75.00000000000000000 ) ) ;
#241 = DIRECTION ( 'NONE',  ( -0.0000000000000000000, -0.0000000000000000000, 1.000000000000000000 ) ) ;
#242 = DESIGN_CONTEXT ( 'detailed design', #176, 'design' ) ;
#243 = PRODUCT_DEFINITION_SHAPE ( 'NONE', 'NONE',  #90 ) ;
#244 = LINE ( 'NONE', #178, #245 ) ;
#245 = VECTOR ( 'NONE', #168, 1000.000000000000000 ) ;
#246 = FACE_OUTER_BOUND ( 'NONE', #34, .T. ) ;
#247 = FACE_OUTER_BOUND ( 'NONE', #32, .T. ) ;
#248 = FACE_OUTER_BOUND ( 'NONE', #35, .T. ) ;
#249 = FACE_OUTER_BOUND ( 'NONE', #52, .T. ) ;
#250 = FACE_BOUND ( 'NONE', #33, .T. ) ;
#251 = CYLINDRICAL_SURFACE ( 'NONE', #96, 15.90000000000000700 ) ;
#252 = FACE_OUTER_BOUND ( 'NONE', #49, .T. ) ;
#253 = FACE_OUTER_BOUND ( 'NONE', #31, .T. ) ;
#254 = FACE_OUTER_BOUND ( 'NONE', #36, .T. ) ;
#255 = FACE_OUTER_BOUND ( 'NONE', #43, .T. ) ;
#256 = CYLINDRICAL_SURFACE ( 'NONE', #93, 15.90000000000000700 ) ;
#257 = ADVANCED_FACE ( 'NONE', ( #290, #247 ), #189, .F. ) ;
#258 = ADVANCED_FACE ( 'NONE', ( #246 ), #251, .F. ) ;
#259 = ADVANCED_FACE ( 'NONE', ( #248 ), #156, .F. ) ;
#260 = ADVANCED_FACE ( 'NONE', ( #250, #253 ), #186, .T. ) ;
#261 = ADVANCED_FACE ( 'NONE', ( #249 ), #181, .F. ) ;
#262 = ADVANCED_FACE ( 'NONE', ( #254 ), #190, .F. ) ;
#263 = ADVANCED_FACE ( 'NONE', ( #252 ), #256, .F. ) ;
#264 = ADVANCED_FACE ( 'NONE', ( #255 ), #180, .F. ) ;
#265 = VECTOR ( 'NONE', #226, 1000.000000000000000 ) ;
#266 = LINE ( 'NONE', #227, #265 ) ;
#267 = CALENDAR_DATE ( 2012, 21, 5 ) ;
#268 = DATE_AND_TIME ( #267, #69 ) ;
#269 = PERSON_AND_ORGANIZATION ( #55, #58 ) ;
#270 = APPROVAL_PERSON_ORGANIZATION ( #269, #83, #195 ) ;
#271 = COORDINATED_UNIVERSAL_TIME_OFFSET ( 6, 0, .BEHIND. ) ;
#272 = LOCAL_TIME ( 19, 52, 43.00000000000000000, #271 ) ;
#273 = CALENDAR_DATE ( 2012, 21, 5 ) ;
#274 = DATE_AND_TIME ( #273, #272 ) ;
#275 = APPROVAL_DATE_TIME ( #274, #83 ) ;
#276 = PERSON_AND_ORGANIZATION ( #55, #58 ) ;
#277 = PERSON_AND_ORGANIZATION ( #55, #58 ) ;
#278 = PERSON_AND_ORGANIZATION ( #55, #58 ) ;
#279 = COORDINATED_UNIVERSAL_TIME_OFFSET ( 6, 0, .BEHIND. ) ;
#280 = LOCAL_TIME ( 19, 52, 43.00000000000000000, #279 ) ;
#281 = CALENDAR_DATE ( 2012, 21, 5 ) ;
#282 = DATE_AND_TIME ( #281, #280 ) ;
#283 = PERSON_AND_ORGANIZATION ( #55, #58 ) ;
#284 = APPROVAL_PERSON_ORGANIZATION ( #283, #76, #221 ) ;
#285 = COORDINATED_UNIVERSAL_TIME_OFFSET ( 6, 0, .BEHIND. ) ;
#286 = LOCAL_TIME ( 19, 52, 43.00000000000000000, #285 ) ;
#287 = CALENDAR_DATE ( 2012, 21, 5 ) ;
#288 = DATE_AND_TIME ( #287, #286 ) ;
#289 = APPROVAL_DATE_TIME ( #288, #76 ) ;
#290 = FACE_BOUND ( 'NONE', #39, .T. ) ;
#291 = VECTOR ( 'NONE', #124, 1000.000000000000000 ) ;
#292 = LINE ( 'NONE', #213, #298 ) ;
#293 = VECTOR ( 'NONE', #234, 1000.000000000000000 ) ;
#294 = LINE ( 'NONE', #212, #50 ) ;
#295 = VECTOR ( 'NONE', #239, 1000.000000000000000 ) ;
#296 = LINE ( 'NONE', #238, #295 ) ;
#297 = LINE ( 'NONE', #237, #291 ) ;
#298 = VECTOR ( 'NONE', #241, 1000.000000000000000 ) ;
#299 = CIRCLE ( 'NONE', #92, 15.90000000000000700 ) ;
#300 = LINE ( 'NONE', #216, #293 ) ;
#301 = ORIENTED_EDGE ( 'NONE', *, *, #112, .T. ) ;
#302 = LINE ( 'NONE', #141, #306 ) ;
#303 = ORIENTED_EDGE ( 'NONE', *, *, #107, .F. ) ;
#304 = VECTOR ( 'NONE', #142, 1000.000000000000000 ) ;
#305 = LINE ( 'NONE', #170, #304 ) ;
#306 = VECTOR ( 'NONE', #138, 1000.000000000000000 ) ;
#307 = ORIENTED_EDGE ( 'NONE', *, *, #71, .T. ) ;
#308 = ORIENTED_EDGE ( 'NONE', *, *, #109, .F. ) ;
#309 = VECTOR ( 'NONE', #144, 1000.000000000000000 ) ;
#310 = LINE ( 'NONE', #132, #311 ) ;
#311 = VECTOR ( 'NONE', #136, 1000.000000000000000 ) ;
ENDSEC;
END-ISO-10303-21;
