  0
SECTION
  2
HEADER
  9
$ACADVER
  1
AC1009
  9
$INSBASE
 10
0.0
 20
0.0
 30
0.0
  9
$EXTMIN
 10
0.0
 20
0.0
 30
0.0
  9
$EXTMAX
 10
0.0
 20
0.0
 30
0.0
  0
ENDSEC
  0
SECTION
  2
TABLES
  0
TABLE
  2
VPORT
 70
0
  0
ENDTAB
  0
TABLE
  2
LTYPE
 70
1
  0
LTYPE
  2
CONTINUOUS
 70
0
  3
Solid line
 72
65
 73
0
 40
0.0
  0
ENDTAB
  0
TABLE
  2
LAYER
 70
1
  0
LAYER
  2
0
 70
64
 62
7
  6
continuous
  0
ENDTAB
  0
TABLE
  2
STYLE
 70
1
  0
STYLE
  2
STANDARD
 70
0
 40
0
 41
1.0
 50
0.0
 71
0
 42
1
 3
ARIAL.TTF
 4

  0
ENDTAB
  0
TABLE
  2
VIEW
 70
0
  0
ENDTAB
  0
ENDSEC
  0
SECTION
  2
BLOCKS
  0
BLOCK
  8
0
  2
PAD
 70
0
 10
0.0
 20
0.0
 30
0.0
  3
PAD
  0
LINE
  8
0
 62
0
 10
-297.18
 20
-73.025
 30
0.0
 11
-297.18
 21
-88.9
 31
0.0
  0
LINE
  8
0
 62
0
 10
-297.18
 20
-88.9
 30
0.0
 11
-398.78
 21
-88.9
 31
0.0
  0
LINE
  8
0
 62
0
 10
-398.78
 20
-88.9
 30
0.0
 11
-398.78
 21
0.0
 31
0.0
  0
LINE
  8
0
 62
0
 10
-398.78
 20
0.0
 30
0.0
 11
398.78
 21
0.0
 31
0.0
  0
LINE
  8
0
 62
0
 10
398.78
 20
0.0
 30
0.0
 11
398.78
 21
-88.9
 31
0.0
  0
LINE
  8
0
 62
0
 10
398.78
 20
-88.9
 30
0.0
 11
297.18
 21
-88.9
 31
0.0
  0
LINE
  8
0
 62
0
 10
297.18
 20
-88.9
 30
0.0
 11
297.18
 21
-73.025
 31
0.0
  0
LINE
  8
0
 62
0
 10
297.18
 20
-73.025
 30
0.0
 11
271.78
 21
-73.025
 31
0.0
  0
LINE
  8
0
 62
0
 10
271.78
 20
-73.025
 30
0.0
 11
271.78
 21
-76.2
 31
0.0
  0
LINE
  8
0
 62
0
 10
271.78
 20
-76.2
 30
0.0
 11
246.38
 21
-76.2
 31
0.0
  0
LINE
  8
0
 62
0
 10
246.38
 20
-76.2
 30
0.0
 11
246.38
 21
-73.025
 31
0.0
  0
LINE
  8
0
 62
0
 10
246.38
 20
-73.025
 30
0.0
 11
76.2
 21
-73.025
 31
0.0
  0
LINE
  8
0
 62
0
 10
76.2
 20
-73.025
 30
0.0
 11
76.2
 21
-76.2
 31
0.0
  0
LINE
  8
0
 62
0
 10
76.2
 20
-76.2
 30
0.0
 11
50.8
 21
-76.2
 31
0.0
  0
LINE
  8
0
 62
0
 10
50.8
 20
-76.2
 30
0.0
 11
50.8
 21
-73.025
 31
0.0
  0
LINE
  8
0
 62
0
 10
50.8
 20
-73.025
 30
0.0
 11
25.4
 21
-73.025
 31
0.0
  0
LINE
  8
0
 62
0
 10
25.4
 20
-73.025
 30
0.0
 11
25.4
 21
-88.9
 31
0.0
  0
LINE
  8
0
 62
0
 10
25.4
 20
-88.9
 30
0.0
 11
-25.4
 21
-88.9
 31
0.0
  0
LINE
  8
0
 62
0
 10
-25.4
 20
-88.9
 30
0.0
 11
-25.4
 21
-73.025
 31
0.0
  0
LINE
  8
0
 62
0
 10
-25.4
 20
-73.025
 30
0.0
 11
-50.8
 21
-73.025
 31
0.0
  0
LINE
  8
0
 62
0
 10
-50.8
 20
-73.025
 30
0.0
 11
-50.8
 21
-76.2
 31
0.0
  0
LINE
  8
0
 62
0
 10
-50.8
 20
-76.2
 30
0.0
 11
-76.2
 21
-76.2
 31
0.0
  0
LINE
  8
0
 62
0
 10
-76.2
 20
-76.2
 30
0.0
 11
-76.2
 21
-73.025
 31
0.0
  0
LINE
  8
0
 62
0
 10
-76.2
 20
-73.025
 30
0.0
 11
-246.38
 21
-73.025
 31
0.0
  0
LINE
  8
0
 62
0
 10
-246.38
 20
-73.025
 30
0.0
 11
-246.38
 21
-76.2
 31
0.0
  0
LINE
  8
0
 62
0
 10
-246.38
 20
-76.2
 30
0.0
 11
-271.78
 21
-76.2
 31
0.0
  0
LINE
  8
0
 62
0
 10
-271.78
 20
-76.2
 30
0.0
 11
-271.78
 21
-73.025
 31
0.0
  0
LINE
  8
0
 62
0
 10
-297.18
 20
-73.025
 30
0.0
 11
-271.78
 21
-73.025
 31
0.0
  0
ARC
  8
0
 62
0
 10
335.28
 20
-38.1
 30
0.0
 40
12.7
 50
90.0
 51
-90.0
  0
LINE
  8
0
 62
0
 10
335.28
 20
-50.8
 30
0.0
 11
360.68
 21
-50.8
 31
0.0
  0
ARC
  8
0
 62
0
 10
360.68
 20
-38.1
 30
0.0
 40
12.7
 50
-90.0
 51
90.0
  0
LINE
  8
0
 62
0
 10
335.28
 20
-25.4
 30
0.0
 11
360.68
 21
-25.4
 31
0.0
  0
ARC
  8
0
 62
0
 10
-360.68
 20
-38.1
 30
0.0
 40
12.7
 50
90.0
 51
-90.0
  0
LINE
  8
0
 62
0
 10
-360.68
 20
-50.8
 30
0.0
 11
-335.28
 21
-50.8
 31
0.0
  0
ARC
  8
0
 62
0
 10
-335.28
 20
-38.1
 30
0.0
 40
12.7
 50
-90.0
 51
90.0
  0
LINE
  8
0
 62
0
 10
-360.68
 20
-25.4
 30
0.0
 11
-335.28
 21
-25.4
 31
0.0
  0
ENDBLK
  0
ENDSEC
  0
SECTION
  2
ENTITIES
  0
INSERT
  2
PAD
  8
0
 62
0
 10
0.0
 20
0.0
 30
0.0
  0
ENDSEC
  0
EOF
