ISO-10303-21;
HEADER;
FILE_DESCRIPTION (( 'STEP AP203' ),
    '1' );
FILE_NAME ('Shaft.STEP',
    '2012-05-21T19:35:58',
    ( '' ),
    ( '' ),
    'SwSTEP 2.0',
    'SolidWorks 2010',
    '' );
FILE_SCHEMA (( 'CONFIG_CONTROL_DESIGN' ));
ENDSEC;

DATA;
#1 = ADVANCED_FACE ( 'NONE', ( #34 ), #37, .T. ) ;
#2 = ADVANCED_FACE ( 'NONE', ( #32 ), #94, .T. ) ;
#3 = ADVANCED_FACE ( 'NONE', ( #33 ), #17, .T. ) ;
#4 = ADVANCED_FACE ( 'NONE', ( #25 ), #59, .F. ) ;
#5 =( GEOMETRIC_REPRESENTATION_CONTEXT ( 3 ) GLOBAL_UNCERTAINTY_ASSIGNED_CONTEXT ( ( #136 ) ) GLOBAL_UNIT_ASSIGNED_CONTEXT ( ( #48, #61, #66 ) ) REPRESENTATION_CONTEXT ( 'NONE', 'WORKASPACE' ) );
#6 = ORIENTED_EDGE ( 'NONE', *, *, #171, .F. ) ;
#7 = VECTOR ( 'NONE', #73, 1000.000000000000000 ) ;
#8 = ORIENTED_EDGE ( 'NONE', *, *, #169, .F. ) ;
#9 = CIRCLE ( 'NONE', #172, 6.000000000000002700 ) ;
#10 = SHAPE_DEFINITION_REPRESENTATION ( #140, #138 ) ;
#11 = ORIENTED_EDGE ( 'NONE', *, *, #174, .F. ) ;
#12 = CIRCLE ( 'NONE', #167, 6.000000000000002700 ) ;
#13 = EDGE_LOOP ( 'NONE', ( #18, #8 ) ) ;
#14 = ORIENTED_EDGE ( 'NONE', *, *, #170, .F. ) ;
#15 = ORIENTED_EDGE ( 'NONE', *, *, #168, .F. ) ;
#16 = LINE ( 'NONE', #82, #19 ) ;
#17 = CYLINDRICAL_SURFACE ( 'NONE', #164, 6.000000000000002700 ) ;
#18 = ORIENTED_EDGE ( 'NONE', *, *, #175, .F. ) ;
#19 = VECTOR ( 'NONE', #80, 1000.000000000000000 ) ;
#20 = CIRCLE ( 'NONE', #173, 6.000000000000002700 ) ;
#21 = EDGE_LOOP ( 'NONE', ( #6, #15, #35, #31 ) ) ;
#22 = CIRCLE ( 'NONE', #162, 6.000000000000002700 ) ;
#23 = ORIENTED_EDGE ( 'NONE', *, *, #170, .T. ) ;
#24 = ORIENTED_EDGE ( 'NONE', *, *, #168, .T. ) ;
#25 = FACE_OUTER_BOUND ( 'NONE', #13, .T. ) ;
#26 = EDGE_LOOP ( 'NONE', ( #14, #29, #30, #11 ) ) ;
#27 = CLOSED_SHELL ( 'NONE', ( #1, #3, #2, #4 ) ) ;
#28 = EDGE_LOOP ( 'NONE', ( #24, #23 ) ) ;
#29 = ORIENTED_EDGE ( 'NONE', *, *, #171, .T. ) ;
#30 = ORIENTED_EDGE ( 'NONE', *, *, #169, .T. ) ;
#31 = ORIENTED_EDGE ( 'NONE', *, *, #175, .T. ) ;
#32 = FACE_OUTER_BOUND ( 'NONE', #28, .T. ) ;
#33 = FACE_OUTER_BOUND ( 'NONE', #21, .T. ) ;
#34 = FACE_OUTER_BOUND ( 'NONE', #26, .T. ) ;
#35 = ORIENTED_EDGE ( 'NONE', *, *, #174, .T. ) ;
#36 = LINE ( 'NONE', #68, #7 ) ;
#37 = CYLINDRICAL_SURFACE ( 'NONE', #166, 6.000000000000002700 ) ;
#38 = APPROVAL_STATUS ( 'not_yet_approved' ) ;
#39 = DIRECTION ( 'NONE',  ( 1.000000000000000000, 0.0000000000000000000, -0.0000000000000000000 ) ) ;
#40 = DIRECTION ( 'NONE',  ( 1.000000000000000000, 0.0000000000000000000, 0.0000000000000000000 ) ) ;
#41 = VERTEX_POINT ( 'NONE', #96 ) ;
#42 = APPROVAL_STATUS ( 'not_yet_approved' ) ;
#43 = DATE_TIME_ROLE ( 'classification_date' ) ;
#44 = PERSON_AND_ORGANIZATION_ROLE ( 'classification_officer' ) ;
#45 = VERTEX_POINT ( 'NONE', #91 ) ;
#46 = DIRECTION ( 'NONE',  ( 1.000000000000000000, 0.0000000000000000000, 0.0000000000000000000 ) ) ;
#47 = APPROVAL_ROLE ( '' ) ;
#48 =( LENGTH_UNIT ( ) NAMED_UNIT ( * ) SI_UNIT ( .MILLI., .METRE. ) );
#49 = DIRECTION ( 'NONE',  ( 1.000000000000000000, 0.0000000000000000000, -0.0000000000000000000 ) ) ;
#50 = SECURITY_CLASSIFICATION_LEVEL ( 'unclassified' ) ;
#51 = DATE_TIME_ROLE ( 'creation_date' ) ;
#52 = PERSON_AND_ORGANIZATION_ROLE ( 'creator' ) ;
#53 = CARTESIAN_POINT ( 'NONE',  ( 0.0000000000000000000, 0.0000000000000000000, 250.0000000000000000 ) ) ;
#54 = DIRECTION ( 'NONE',  ( 0.0000000000000000000, 0.0000000000000000000, 1.000000000000000000 ) ) ;
#55 = DIRECTION ( 'NONE',  ( -0.0000000000000000000, -0.0000000000000000000, -1.000000000000000000 ) ) ;
#56 = APPROVAL_STATUS ( 'not_yet_approved' ) ;
#57 = VERTEX_POINT ( 'NONE', #98 ) ;
#58 = CARTESIAN_POINT ( 'NONE',  ( 0.0000000000000000000, 0.0000000000000000000, 250.0000000000000000 ) ) ;
#59 = PLANE ( 'NONE',  #163 ) ;
#60 = PERSON_AND_ORGANIZATION_ROLE ( 'creator' ) ;
#61 =( NAMED_UNIT ( * ) PLANE_ANGLE_UNIT ( ) SI_UNIT ( $, .RADIAN. ) );
#62 = DIRECTION ( 'NONE',  ( 0.0000000000000000000, 0.0000000000000000000, 1.000000000000000000 ) ) ;
#63 = APPLICATION_PROTOCOL_DEFINITION ( 'international standard', 'config_control_design', 1994, #69 ) ;
#64 = PERSON_AND_ORGANIZATION_ROLE ( 'design_supplier' ) ;
#65 = APPROVAL_ROLE ( '' ) ;
#66 =( NAMED_UNIT ( * ) SI_UNIT ( $, .STERADIAN. ) SOLID_ANGLE_UNIT ( ) );
#67 = DIRECTION ( 'NONE',  ( -0.0000000000000000000, -0.0000000000000000000, -1.000000000000000000 ) ) ;
#68 = CARTESIAN_POINT ( 'NONE',  ( 6.000000000000002700, 7.347880794884122700E-016, 250.0000000000000000 ) ) ;
#69 = APPLICATION_CONTEXT ( 'configuration controlled 3d designs of mechanical parts and assemblies' ) ;
#70 = DIRECTION ( 'NONE',  ( 1.000000000000000000, 0.0000000000000000000, 0.0000000000000000000 ) ) ;
#71 = PERSON_AND_ORGANIZATION_ROLE ( 'design_owner' ) ;
#72 = DIRECTION ( 'NONE',  ( -1.000000000000000000, 0.0000000000000000000, 0.0000000000000000000 ) ) ;
#73 = DIRECTION ( 'NONE',  ( -0.0000000000000000000, -0.0000000000000000000, -1.000000000000000000 ) ) ;
#74 = CARTESIAN_POINT ( 'NONE',  ( 0.0000000000000000000, 0.0000000000000000000, 0.0000000000000000000 ) ) ;
#75 = MECHANICAL_CONTEXT ( 'NONE', #81, 'mechanical' ) ;
#76 = CARTESIAN_POINT ( 'NONE',  ( 0.0000000000000000000, 0.0000000000000000000, 0.0000000000000000000 ) ) ;
#77 = DIRECTION ( 'NONE',  ( 0.0000000000000000000, 0.0000000000000000000, 1.000000000000000000 ) ) ;
#78 = APPLICATION_PROTOCOL_DEFINITION ( 'international standard', 'config_control_design', 1994, #81 ) ;
#79 = DIRECTION ( 'NONE',  ( 1.000000000000000000, 0.0000000000000000000, 0.0000000000000000000 ) ) ;
#80 = DIRECTION ( 'NONE',  ( -0.0000000000000000000, -0.0000000000000000000, -1.000000000000000000 ) ) ;
#81 = APPLICATION_CONTEXT ( 'configuration controlled 3d designs of mechanical parts and assemblies' ) ;
#82 = CARTESIAN_POINT ( 'NONE',  ( -6.000000000000002700, 0.0000000000000000000, 250.0000000000000000 ) ) ;
#83 = APPROVAL_ROLE ( '' ) ;
#84 = DIRECTION ( 'NONE',  ( 0.0000000000000000000, 0.0000000000000000000, 1.000000000000000000 ) ) ;
#85 = DIRECTION ( 'NONE',  ( -1.000000000000000000, 0.0000000000000000000, 0.0000000000000000000 ) ) ;
#86 = DIRECTION ( 'NONE',  ( 1.000000000000000000, 0.0000000000000000000, 0.0000000000000000000 ) ) ;
#87 = DIRECTION ( 'NONE',  ( 0.0000000000000000000, 0.0000000000000000000, 1.000000000000000000 ) ) ;
#88 = VERTEX_POINT ( 'NONE', #93 ) ;
#89 = CARTESIAN_POINT ( 'NONE',  ( 0.0000000000000000000, 0.0000000000000000000, 250.0000000000000000 ) ) ;
#90 = CARTESIAN_POINT ( 'NONE',  ( 0.0000000000000000000, 0.0000000000000000000, 250.0000000000000000 ) ) ;
#91 = CARTESIAN_POINT ( 'NONE',  ( 6.000000000000002700, 7.347880794884122700E-016, 250.0000000000000000 ) ) ;
#92 = DIRECTION ( 'NONE',  ( 0.0000000000000000000, 0.0000000000000000000, 1.000000000000000000 ) ) ;
#93 = CARTESIAN_POINT ( 'NONE',  ( 6.000000000000002700, 7.347880794884122700E-016, 0.0000000000000000000 ) ) ;
#94 = PLANE ( 'NONE',  #165 ) ;
#95 = CARTESIAN_POINT ( 'NONE',  ( 0.0000000000000000000, 0.0000000000000000000, 0.0000000000000000000 ) ) ;
#96 = CARTESIAN_POINT ( 'NONE',  ( -6.000000000000002700, 0.0000000000000000000, 250.0000000000000000 ) ) ;
#97 = DIRECTION ( 'NONE',  ( 0.0000000000000000000, 0.0000000000000000000, 1.000000000000000000 ) ) ;
#98 = CARTESIAN_POINT ( 'NONE',  ( -6.000000000000002700, 0.0000000000000000000, 0.0000000000000000000 ) ) ;
#99 = CARTESIAN_POINT ( 'NONE',  ( 0.0000000000000000000, 0.0000000000000000000, 250.0000000000000000 ) ) ;
#100 = CARTESIAN_POINT ( 'NONE',  ( 0.0000000000000000000, 0.0000000000000000000, 0.0000000000000000000 ) ) ;
#101 = LOCAL_TIME ( 14, 35, 58.00000000000000000, #118 ) ;
#102 = COORDINATED_UNIVERSAL_TIME_OFFSET ( 6, 0, .BEHIND. ) ;
#103 = DATE_AND_TIME ( #114, #134 ) ;
#104 = APPROVAL_DATE_TIME ( #103, #146 ) ;
#105 = PERSON_AND_ORGANIZATION ( #141, #111 ) ;
#106 = PERSON_AND_ORGANIZATION ( #141, #111 ) ;
#107 = APPROVAL_PERSON_ORGANIZATION ( #105, #158, #83 ) ;
#108 = APPROVAL_DATE_TIME ( #121, #158 ) ;
#109 = CALENDAR_DATE ( 2012, 21, 5 ) ;
#110 = PERSON_AND_ORGANIZATION ( #141, #111 ) ;
#111 = ORGANIZATION ( 'UNSPECIFIED', 'UNSPECIFIED', '' ) ;
#112 = DATE_AND_TIME ( #135, #133 ) ;
#113 = APPROVAL_PERSON_ORGANIZATION ( #130, #146, #65 ) ;
#114 = CALENDAR_DATE ( 2012, 21, 5 ) ;
#115 = APPROVAL_DATE_TIME ( #126, #153 ) ;
#116 = COORDINATED_UNIVERSAL_TIME_OFFSET ( 6, 0, .BEHIND. ) ;
#117 = LOCAL_TIME ( 14, 35, 58.00000000000000000, #102 ) ;
#118 = COORDINATED_UNIVERSAL_TIME_OFFSET ( 6, 0, .BEHIND. ) ;
#119 = COORDINATED_UNIVERSAL_TIME_OFFSET ( 6, 0, .BEHIND. ) ;
#120 = PERSON_AND_ORGANIZATION ( #141, #111 ) ;
#121 = DATE_AND_TIME ( #125, #101 ) ;
#122 = CALENDAR_DATE ( 2012, 21, 5 ) ;
#123 = COORDINATED_UNIVERSAL_TIME_OFFSET ( 6, 0, .BEHIND. ) ;
#124 = PERSON_AND_ORGANIZATION ( #141, #111 ) ;
#125 = CALENDAR_DATE ( 2012, 21, 5 ) ;
#126 = DATE_AND_TIME ( #109, #117 ) ;
#127 = DATE_AND_TIME ( #122, #132 ) ;
#128 = PERSON_AND_ORGANIZATION ( #141, #111 ) ;
#129 = APPROVAL_PERSON_ORGANIZATION ( #128, #153, #47 ) ;
#130 = PERSON_AND_ORGANIZATION ( #141, #111 ) ;
#131 = PERSON_AND_ORGANIZATION ( #141, #111 ) ;
#132 = LOCAL_TIME ( 14, 35, 58.00000000000000000, #119 ) ;
#133 = LOCAL_TIME ( 14, 35, 58.00000000000000000, #116 ) ;
#134 = LOCAL_TIME ( 14, 35, 58.00000000000000000, #123 ) ;
#135 = CALENDAR_DATE ( 2012, 21, 5 ) ;
#136 = UNCERTAINTY_MEASURE_WITH_UNIT (LENGTH_MEASURE( 1.000000000000000100E-005 ), #48, 'distance_accuracy_value', 'NONE');
#137 = MANIFOLD_SOLID_BREP ( 'Boss-Extrude1', #27 ) ;
#138 = ADVANCED_BREP_SHAPE_REPRESENTATION ( 'Shaft', ( #137, #161 ), #5 ) ;
#139 = DESIGN_CONTEXT ( 'detailed design', #69, 'design' ) ;
#140 = PRODUCT_DEFINITION_SHAPE ( 'NONE', 'NONE',  #159 ) ;
#141 = PERSON ( 'UNSPECIFIED', 'UNSPECIFIED', 'UNSPECIFIED', ('UNSPECIFIED'), ('UNSPECIFIED'), ('UNSPECIFIED') ) ;
#142 = PRODUCT ( 'Shaft', 'Shaft', '', ( #75 ) ) ;
#143 = PRODUCT_RELATED_PRODUCT_CATEGORY ( 'detail', '', ( #142 ) ) ;
#144 = CC_DESIGN_SECURITY_CLASSIFICATION ( #149, ( #154 ) ) ;
#145 = CC_DESIGN_APPROVAL ( #146, ( #149 ) ) ;
#146 = APPROVAL ( #38, 'UNSPECIFIED' ) ;
#147 = CC_DESIGN_DATE_AND_TIME_ASSIGNMENT ( #127, #43, ( #149 ) ) ;
#148 = CC_DESIGN_PERSON_AND_ORGANIZATION_ASSIGNMENT ( #120, #44, ( #149 ) ) ;
#149 = SECURITY_CLASSIFICATION ( '', '', #50 ) ;
#150 = CC_DESIGN_PERSON_AND_ORGANIZATION_ASSIGNMENT ( #131, #64, ( #154 ) ) ;
#151 = CC_DESIGN_PERSON_AND_ORGANIZATION_ASSIGNMENT ( #124, #60, ( #154 ) ) ;
#152 = CC_DESIGN_APPROVAL ( #153, ( #154 ) ) ;
#153 = APPROVAL ( #56, 'UNSPECIFIED' ) ;
#154 = PRODUCT_DEFINITION_FORMATION_WITH_SPECIFIED_SOURCE ( 'ANY', '', #142, .NOT_KNOWN. ) ;
#155 = CC_DESIGN_DATE_AND_TIME_ASSIGNMENT ( #112, #51, ( #159 ) ) ;
#156 = CC_DESIGN_PERSON_AND_ORGANIZATION_ASSIGNMENT ( #106, #52, ( #159 ) ) ;
#157 = CC_DESIGN_APPROVAL ( #158, ( #159 ) ) ;
#158 = APPROVAL ( #42, 'UNSPECIFIED' ) ;
#159 = PRODUCT_DEFINITION ( 'UNKNOWN', '', #154, #139 ) ;
#160 = CC_DESIGN_PERSON_AND_ORGANIZATION_ASSIGNMENT ( #110, #71, ( #142 ) ) ;
#161 = AXIS2_PLACEMENT_3D ( 'NONE', #74, #77, #79 ) ;
#162 = AXIS2_PLACEMENT_3D ( 'NONE', #100, #87, #86 ) ;
#163 = AXIS2_PLACEMENT_3D ( 'NONE', #95, #54, #39 ) ;
#164 = AXIS2_PLACEMENT_3D ( 'NONE', #99, #67, #72 ) ;
#165 = AXIS2_PLACEMENT_3D ( 'NONE', #90, #84, #49 ) ;
#166 = AXIS2_PLACEMENT_3D ( 'NONE', #58, #55, #85 ) ;
#167 = AXIS2_PLACEMENT_3D ( 'NONE', #89, #92, #40 ) ;
#168 = EDGE_CURVE ( 'NONE', #41, #45, #20, .T. ) ;
#169 = EDGE_CURVE ( 'NONE', #88, #57, #22, .T. ) ;
#170 = EDGE_CURVE ( 'NONE', #45, #41, #12, .T. ) ;
#171 = EDGE_CURVE ( 'NONE', #45, #88, #36, .T. ) ;
#172 = AXIS2_PLACEMENT_3D ( 'NONE', #76, #62, #70 ) ;
#173 = AXIS2_PLACEMENT_3D ( 'NONE', #53, #97, #46 ) ;
#174 = EDGE_CURVE ( 'NONE', #41, #57, #16, .T. ) ;
#175 = EDGE_CURVE ( 'NONE', #57, #88, #9, .T. ) ;
ENDSEC;
END-ISO-10303-21;
