ISO-10303-21;
HEADER;
FILE_DESCRIPTION (( 'STEP AP203' ),
    '1' );
FILE_NAME ('XYShaft.STEP',
    '2012-04-06T17:55:37',
    ( '' ),
    ( '' ),
    'SwSTEP 2.0',
    'SolidWorks 2010',
    '' );
FILE_SCHEMA (( 'CONFIG_CONTROL_DESIGN' ));
ENDSEC;

DATA;
#1 = ADVANCED_FACE ( 'NONE', ( #82 ), #130, .F. ) ;
#2 = ADVANCED_FACE ( 'NONE', ( #65 ), #134, .T. ) ;
#3 = ADVANCED_FACE ( 'NONE', ( #85 ), #79, .T. ) ;
#4 = ADVANCED_FACE ( 'NONE', ( #66 ), #80, .T. ) ;
#5 = CARTESIAN_POINT ( 'NONE',  ( 0.0000000000000000000, 0.0000000000000000000, 400.0000000000000000 ) ) ;
#6 = DIRECTION ( 'NONE',  ( 0.0000000000000000000, 0.0000000000000000000, 1.000000000000000000 ) ) ;
#7 = DIRECTION ( 'NONE',  ( 1.000000000000000000, 0.0000000000000000000, 0.0000000000000000000 ) ) ;
#8 = SECURITY_CLASSIFICATION ( '', '', #117 ) ;
#9 = CC_DESIGN_PERSON_AND_ORGANIZATION_ASSIGNMENT ( #31, #118, ( #8 ) ) ;
#10 = CC_DESIGN_DATE_AND_TIME_ASSIGNMENT ( #27, #119, ( #8 ) ) ;
#11 = APPROVAL ( #120, 'UNSPECIFIED' ) ;
#12 = CC_DESIGN_APPROVAL ( #11, ( #8 ) ) ;
#13 = CC_DESIGN_SECURITY_CLASSIFICATION ( #8, ( #18 ) ) ;
#14 = PRODUCT_RELATED_PRODUCT_CATEGORY ( 'detail', '', ( #124 ) ) ;
#15 = CC_DESIGN_APPROVAL ( #157, ( #169 ) ) ;
#16 = CC_DESIGN_PERSON_AND_ORGANIZATION_ASSIGNMENT ( #47, #111, ( #169 ) ) ;
#17 = CC_DESIGN_DATE_AND_TIME_ASSIGNMENT ( #43, #112, ( #169 ) ) ;
#18 = PRODUCT_DEFINITION_FORMATION_WITH_SPECIFIED_SOURCE ( 'ANY', '', #124, .NOT_KNOWN. ) ;
#19 = APPROVAL ( #113, 'UNSPECIFIED' ) ;
#20 = CC_DESIGN_APPROVAL ( #19, ( #18 ) ) ;
#21 = CC_DESIGN_PERSON_AND_ORGANIZATION_ASSIGNMENT ( #34, #115, ( #18 ) ) ;
#22 = CC_DESIGN_PERSON_AND_ORGANIZATION_ASSIGNMENT ( #33, #116, ( #18 ) ) ;
#23 = COORDINATED_UNIVERSAL_TIME_OFFSET ( 5, 0, .BEHIND. ) ;
#24 = APPROVAL_PERSON_ORGANIZATION ( #26, #11, #121 ) ;
#25 = ORIENTED_EDGE ( 'NONE', *, *, #158, .F. ) ;
#26 = PERSON_AND_ORGANIZATION ( #159, #62 ) ;
#27 = DATE_AND_TIME ( #28, #29 ) ;
#28 = CALENDAR_DATE ( 2012, 6, 4 ) ;
#29 = LOCAL_TIME ( 13, 55, 37.00000000000000000, #30 ) ;
#30 = COORDINATED_UNIVERSAL_TIME_OFFSET ( 5, 0, .BEHIND. ) ;
#31 = PERSON_AND_ORGANIZATION ( #159, #62 ) ;
#32 = ORIENTED_EDGE ( 'NONE', *, *, #167, .T. ) ;
#33 = PERSON_AND_ORGANIZATION ( #159, #62 ) ;
#34 = PERSON_AND_ORGANIZATION ( #159, #62 ) ;
#35 = APPROVAL_DATE_TIME ( #37, #19 ) ;
#36 = ORIENTED_EDGE ( 'NONE', *, *, #165, .T. ) ;
#37 = DATE_AND_TIME ( #38, #39 ) ;
#38 = CALENDAR_DATE ( 2012, 6, 4 ) ;
#39 = LOCAL_TIME ( 13, 55, 37.00000000000000000, #40 ) ;
#40 = COORDINATED_UNIVERSAL_TIME_OFFSET ( 5, 0, .BEHIND. ) ;
#41 = APPROVAL_PERSON_ORGANIZATION ( #42, #19, #114 ) ;
#42 = PERSON_AND_ORGANIZATION ( #159, #62 ) ;
#43 = DATE_AND_TIME ( #44, #45 ) ;
#44 = CALENDAR_DATE ( 2012, 6, 4 ) ;
#45 = LOCAL_TIME ( 13, 55, 37.00000000000000000, #46 ) ;
#46 = COORDINATED_UNIVERSAL_TIME_OFFSET ( 5, 0, .BEHIND. ) ;
#47 = PERSON_AND_ORGANIZATION ( #159, #62 ) ;
#48 = APPROVAL_DATE_TIME ( #49, #157 ) ;
#49 = DATE_AND_TIME ( #50, #53 ) ;
#50 = CALENDAR_DATE ( 2012, 6, 4 ) ;
#51 = ORIENTED_EDGE ( 'NONE', *, *, #168, .F. ) ;
#52 = ORIENTED_EDGE ( 'NONE', *, *, #90, .T. ) ;
#53 = LOCAL_TIME ( 13, 55, 37.00000000000000000, #54 ) ;
#54 = COORDINATED_UNIVERSAL_TIME_OFFSET ( 5, 0, .BEHIND. ) ;
#55 = APPROVAL_PERSON_ORGANIZATION ( #59, #157, #110 ) ;
#56 = ORIENTED_EDGE ( 'NONE', *, *, #166, .T. ) ;
#57 = ORIENTED_EDGE ( 'NONE', *, *, #168, .T. ) ;
#58 = ORIENTED_EDGE ( 'NONE', *, *, #167, .F. ) ;
#59 = PERSON_AND_ORGANIZATION ( #159, #62 ) ;
#60 = LOCAL_TIME ( 13, 55, 37.00000000000000000, #23 ) ;
#61 = PERSON_AND_ORGANIZATION ( #159, #62 ) ;
#62 = ORGANIZATION ( 'UNSPECIFIED', 'UNSPECIFIED', '' ) ;
#63 = ORIENTED_EDGE ( 'NONE', *, *, #90, .F. ) ;
#64 = CLOSED_SHELL ( 'NONE', ( #4, #3, #2, #1 ) ) ;
#65 = FACE_OUTER_BOUND ( 'NONE', #86, .T. ) ;
#66 = FACE_OUTER_BOUND ( 'NONE', #87, .T. ) ;
#67 = ORIENTED_EDGE ( 'NONE', *, *, #158, .T. ) ;
#68 = ORIENTED_EDGE ( 'NONE', *, *, #165, .F. ) ;
#69 = ORIENTED_EDGE ( 'NONE', *, *, #166, .F. ) ;
#70 =( GEOMETRIC_REPRESENTATION_CONTEXT ( 3 ) GLOBAL_UNCERTAINTY_ASSIGNED_CONTEXT ( ( #127 ) ) GLOBAL_UNIT_ASSIGNED_CONTEXT ( ( #96, #95, #99 ) ) REPRESENTATION_CONTEXT ( 'NONE', 'WORKASPACE' ) );
#71 = SHAPE_DEFINITION_REPRESENTATION ( #89, #126 ) ;
#72 = CIRCLE ( 'NONE', #164, 6.000000000000000900 ) ;
#73 = CIRCLE ( 'NONE', #162, 6.000000000000000900 ) ;
#74 = LINE ( 'NONE', #144, #81 ) ;
#75 = CIRCLE ( 'NONE', #163, 6.000000000000000900 ) ;
#76 = LINE ( 'NONE', #138, #78 ) ;
#77 = CIRCLE ( 'NONE', #170, 6.000000000000000900 ) ;
#78 = VECTOR ( 'NONE', #92, 1000.000000000000000 ) ;
#79 = CYLINDRICAL_SURFACE ( 'NONE', #122, 6.000000000000000900 ) ;
#80 = CYLINDRICAL_SURFACE ( 'NONE', #160, 6.000000000000000900 ) ;
#81 = VECTOR ( 'NONE', #94, 1000.000000000000000 ) ;
#82 = FACE_OUTER_BOUND ( 'NONE', #84, .T. ) ;
#83 = EDGE_LOOP ( 'NONE', ( #58, #51, #36, #52 ) ) ;
#84 = EDGE_LOOP ( 'NONE', ( #63, #25 ) ) ;
#85 = FACE_OUTER_BOUND ( 'NONE', #83, .T. ) ;
#86 = EDGE_LOOP ( 'NONE', ( #57, #56 ) ) ;
#87 = EDGE_LOOP ( 'NONE', ( #69, #32, #67, #68 ) ) ;
#88 = DESIGN_CONTEXT ( 'detailed design', #107, 'design' ) ;
#89 = PRODUCT_DEFINITION_SHAPE ( 'NONE', 'NONE',  #169 ) ;
#90 = EDGE_CURVE ( 'NONE', #155, #135, #77, .T. ) ;
#91 = CARTESIAN_POINT ( 'NONE',  ( 0.0000000000000000000, 0.0000000000000000000, 400.0000000000000000 ) ) ;
#92 = DIRECTION ( 'NONE',  ( -0.0000000000000000000, -0.0000000000000000000, -1.000000000000000000 ) ) ;
#93 = DIRECTION ( 'NONE',  ( 1.000000000000000000, 0.0000000000000000000, 0.0000000000000000000 ) ) ;
#94 = DIRECTION ( 'NONE',  ( -0.0000000000000000000, -0.0000000000000000000, -1.000000000000000000 ) ) ;
#95 =( NAMED_UNIT ( * ) PLANE_ANGLE_UNIT ( ) SI_UNIT ( $, .RADIAN. ) );
#96 =( LENGTH_UNIT ( ) NAMED_UNIT ( * ) SI_UNIT ( .MILLI., .METRE. ) );
#97 = DIRECTION ( 'NONE',  ( 0.0000000000000000000, 0.0000000000000000000, 1.000000000000000000 ) ) ;
#98 = DIRECTION ( 'NONE',  ( 1.000000000000000000, 0.0000000000000000000, 0.0000000000000000000 ) ) ;
#99 =( NAMED_UNIT ( * ) SI_UNIT ( $, .STERADIAN. ) SOLID_ANGLE_UNIT ( ) );
#100 = CARTESIAN_POINT ( 'NONE',  ( 0.0000000000000000000, 0.0000000000000000000, 0.0000000000000000000 ) ) ;
#101 = DIRECTION ( 'NONE',  ( 0.0000000000000000000, 0.0000000000000000000, 1.000000000000000000 ) ) ;
#102 = DIRECTION ( 'NONE',  ( 1.000000000000000000, 0.0000000000000000000, 0.0000000000000000000 ) ) ;
#103 = APPLICATION_CONTEXT ( 'configuration controlled 3d designs of mechanical parts and assemblies' ) ;
#104 = APPLICATION_PROTOCOL_DEFINITION ( 'international standard', 'config_control_design', 1994, #103 ) ;
#105 = MECHANICAL_CONTEXT ( 'NONE', #103, 'mechanical' ) ;
#106 = PERSON_AND_ORGANIZATION_ROLE ( 'design_owner' ) ;
#107 = APPLICATION_CONTEXT ( 'configuration controlled 3d designs of mechanical parts and assemblies' ) ;
#108 = APPLICATION_PROTOCOL_DEFINITION ( 'international standard', 'config_control_design', 1994, #107 ) ;
#109 = APPROVAL_STATUS ( 'not_yet_approved' ) ;
#110 = APPROVAL_ROLE ( '' ) ;
#111 = PERSON_AND_ORGANIZATION_ROLE ( 'creator' ) ;
#112 = DATE_TIME_ROLE ( 'creation_date' ) ;
#113 = APPROVAL_STATUS ( 'not_yet_approved' ) ;
#114 = APPROVAL_ROLE ( '' ) ;
#115 = PERSON_AND_ORGANIZATION_ROLE ( 'creator' ) ;
#116 = PERSON_AND_ORGANIZATION_ROLE ( 'design_supplier' ) ;
#117 = SECURITY_CLASSIFICATION_LEVEL ( 'unclassified' ) ;
#118 = PERSON_AND_ORGANIZATION_ROLE ( 'classification_officer' ) ;
#119 = DATE_TIME_ROLE ( 'classification_date' ) ;
#120 = APPROVAL_STATUS ( 'not_yet_approved' ) ;
#121 = APPROVAL_ROLE ( '' ) ;
#122 = AXIS2_PLACEMENT_3D ( 'NONE', #149, #150, #146 ) ;
#123 = AXIS2_PLACEMENT_3D ( 'NONE', #142, #151, #152 ) ;
#124 = PRODUCT ( 'XYShaft', 'XYShaft', '', ( #105 ) ) ;
#125 = MANIFOLD_SOLID_BREP ( 'Boss-Extrude1', #64 ) ;
#126 = ADVANCED_BREP_SHAPE_REPRESENTATION ( 'XYShaft', ( #125, #161 ), #70 ) ;
#127 = UNCERTAINTY_MEASURE_WITH_UNIT (LENGTH_MEASURE( 1.000000000000000100E-005 ), #96, 'distance_accuracy_value', 'NONE');
#128 = DIRECTION ( 'NONE',  ( 0.0000000000000000000, 0.0000000000000000000, 1.000000000000000000 ) ) ;
#129 = CARTESIAN_POINT ( 'NONE',  ( 0.0000000000000000000, 0.0000000000000000000, 0.0000000000000000000 ) ) ;
#130 = PLANE ( 'NONE',  #171 ) ;
#131 = VERTEX_POINT ( 'NONE', #140 ) ;
#132 = VERTEX_POINT ( 'NONE', #137 ) ;
#133 = CARTESIAN_POINT ( 'NONE',  ( 0.0000000000000000000, 0.0000000000000000000, 0.0000000000000000000 ) ) ;
#134 = PLANE ( 'NONE',  #123 ) ;
#135 = VERTEX_POINT ( 'NONE', #141 ) ;
#136 = CARTESIAN_POINT ( 'NONE',  ( -6.000000000000000900, 0.0000000000000000000, 0.0000000000000000000 ) ) ;
#137 = CARTESIAN_POINT ( 'NONE',  ( 6.000000000000000900, 7.347880794884120700E-016, 400.0000000000000000 ) ) ;
#138 = CARTESIAN_POINT ( 'NONE',  ( -6.000000000000000900, 0.0000000000000000000, 400.0000000000000000 ) ) ;
#139 = DIRECTION ( 'NONE',  ( 1.000000000000000000, 0.0000000000000000000, 0.0000000000000000000 ) ) ;
#140 = CARTESIAN_POINT ( 'NONE',  ( -6.000000000000000900, 0.0000000000000000000, 400.0000000000000000 ) ) ;
#141 = CARTESIAN_POINT ( 'NONE',  ( 6.000000000000000900, 7.347880794884120700E-016, 0.0000000000000000000 ) ) ;
#142 = CARTESIAN_POINT ( 'NONE',  ( 0.0000000000000000000, 0.0000000000000000000, 400.0000000000000000 ) ) ;
#143 = CARTESIAN_POINT ( 'NONE',  ( 0.0000000000000000000, 0.0000000000000000000, 0.0000000000000000000 ) ) ;
#144 = CARTESIAN_POINT ( 'NONE',  ( 6.000000000000000900, 7.347880794884120700E-016, 400.0000000000000000 ) ) ;
#145 = CARTESIAN_POINT ( 'NONE',  ( 0.0000000000000000000, 0.0000000000000000000, 400.0000000000000000 ) ) ;
#146 = DIRECTION ( 'NONE',  ( -1.000000000000000000, 0.0000000000000000000, 0.0000000000000000000 ) ) ;
#147 = DIRECTION ( 'NONE',  ( -0.0000000000000000000, -0.0000000000000000000, -1.000000000000000000 ) ) ;
#148 = DIRECTION ( 'NONE',  ( 1.000000000000000000, 0.0000000000000000000, -0.0000000000000000000 ) ) ;
#149 = CARTESIAN_POINT ( 'NONE',  ( 0.0000000000000000000, 0.0000000000000000000, 400.0000000000000000 ) ) ;
#150 = DIRECTION ( 'NONE',  ( -0.0000000000000000000, -0.0000000000000000000, -1.000000000000000000 ) ) ;
#151 = DIRECTION ( 'NONE',  ( 0.0000000000000000000, 0.0000000000000000000, 1.000000000000000000 ) ) ;
#152 = DIRECTION ( 'NONE',  ( 1.000000000000000000, 0.0000000000000000000, -0.0000000000000000000 ) ) ;
#153 = DIRECTION ( 'NONE',  ( -1.000000000000000000, 0.0000000000000000000, 0.0000000000000000000 ) ) ;
#154 = DIRECTION ( 'NONE',  ( 0.0000000000000000000, 0.0000000000000000000, 1.000000000000000000 ) ) ;
#155 = VERTEX_POINT ( 'NONE', #136 ) ;
#156 = DIRECTION ( 'NONE',  ( 0.0000000000000000000, 0.0000000000000000000, 1.000000000000000000 ) ) ;
#157 = APPROVAL ( #109, 'UNSPECIFIED' ) ;
#158 = EDGE_CURVE ( 'NONE', #135, #155, #75, .T. ) ;
#159 = PERSON ( 'UNSPECIFIED', 'UNSPECIFIED', 'UNSPECIFIED', ('UNSPECIFIED'), ('UNSPECIFIED'), ('UNSPECIFIED') ) ;
#160 = AXIS2_PLACEMENT_3D ( 'NONE', #145, #147, #153 ) ;
#161 = AXIS2_PLACEMENT_3D ( 'NONE', #100, #101, #102 ) ;
#162 = AXIS2_PLACEMENT_3D ( 'NONE', #91, #6, #7 ) ;
#163 = AXIS2_PLACEMENT_3D ( 'NONE', #129, #128, #93 ) ;
#164 = AXIS2_PLACEMENT_3D ( 'NONE', #5, #97, #98 ) ;
#165 = EDGE_CURVE ( 'NONE', #131, #155, #76, .T. ) ;
#166 = EDGE_CURVE ( 'NONE', #132, #131, #73, .T. ) ;
#167 = EDGE_CURVE ( 'NONE', #132, #135, #74, .T. ) ;
#168 = EDGE_CURVE ( 'NONE', #131, #132, #72, .T. ) ;
#169 = PRODUCT_DEFINITION ( 'UNKNOWN', '', #18, #88 ) ;
#170 = AXIS2_PLACEMENT_3D ( 'NONE', #143, #154, #139 ) ;
#171 = AXIS2_PLACEMENT_3D ( 'NONE', #133, #156, #148 ) ;
#172 = CC_DESIGN_PERSON_AND_ORGANIZATION_ASSIGNMENT ( #61, #106, ( #124 ) ) ;
#173 = DATE_AND_TIME ( #174, #60 ) ;
#174 = CALENDAR_DATE ( 2012, 6, 4 ) ;
#175 = APPROVAL_DATE_TIME ( #173, #11 ) ;
ENDSEC;
END-ISO-10303-21;
