999
dxflib 2.0.4.8
  0
SECTION
  2
HEADER
  9
$ACADVER
  1
AC1015
  9
$HANDSEED
  5
FFFF
  9
$DIMASZ
 40
1.0
  9
$GRIDUNIT
 10
0.0
 20
0.0
  9
$DIMADEC
 70
2
  9
$DIMGAP
 40
0.25
  9
$SPLINESEGS
 70
8
  9
$AUPREC
 70
2
  9
$LUNITS
 70
2
  9
$DIMEXO
 40
0.25
  9
$INSUNITS
 70
2
  9
$DIMLUNIT
 70
2
  9
$DIMTXT
 40
1.0
  9
$GRIDMODE
 70
1
  9
$LUPREC
 70
1
  9
$DIMSTYLE
  2
Standard
  9
$PLIMMAX
 10
0.6889763779527559
 20
0.9744094488188976
  9
$PLIMMIN
 10
0.0
 20
0.0
  9
$DIMEXE
 40
0.5
  9
$DIMAUNIT
 70
0
  9
$AUNITS
 70
0
  0
ENDSEC
  0
SECTION
  2
TABLES
  0
TABLE
  2
VPORT
  5
8
100
AcDbSymbolTable
 70
1
  0
VPORT
  5
30
100
AcDbSymbolTableRecord
100
AcDbViewportTableRecord
  2
*Active
 70
0
 10
0.0
 20
0.0
 11
1.0
 21
1.0
 12
286.3055555555554861
 22
148.5
 13
0.0
 23
0.0
 14
10.0
 24
10.0
 15
10.0
 25
10.0
 16
0.0
 26
0.0
 36
1.0
 17
0.0
 27
0.0
 37
0.0
 40
297.0
 41
1.92798353909465
 42
50.0
 43
0.0
 44
0.0
 50
0.0
 51
0.0
 71
0
 72
100
 73
1
 74
3
 75
1
 76
1
 77
0
 78
0
281
0
 65
1
110
0.0
120
0.0
130
0.0
111
1.0
121
0.0
131
0.0
112
0.0
122
1.0
132
0.0
 79
0
146
0.0
  0
ENDTAB
  0
TABLE
  2
LTYPE
  5
5
100
AcDbSymbolTable
 70
21
  0
LTYPE
  5
14
100
AcDbSymbolTableRecord
100
AcDbLinetypeTableRecord
  2
ByBlock
 70
0
  3

 72
65
 73
0
 40
0.0
  0
LTYPE
  5
15
100
AcDbSymbolTableRecord
100
AcDbLinetypeTableRecord
  2
ByLayer
 70
0
  3

 72
65
 73
0
 40
0.0
  0
LTYPE
  5
16
100
AcDbSymbolTableRecord
100
AcDbLinetypeTableRecord
  2
CONTINUOUS
 70
0
  3
Solid line
 72
65
 73
0
 40
0.0
  0
LTYPE
  5
31
100
AcDbSymbolTableRecord
100
AcDbLinetypeTableRecord
  2
DOT
 70
0
  3
Dot . . . . . . . . . . . . . . . . . . . . . .
 72
65
 73
2
 40
6.3499999999999996
 49
0.0
 74
0
 49
-6.3499999999999996
 74
0
  0
LTYPE
  5
32
100
AcDbSymbolTableRecord
100
AcDbLinetypeTableRecord
  2
DOT2
 70
0
  3
Dot (.5x) .....................................
 72
65
 73
2
 40
3.1749999999999998
 49
0.0
 74
0
 49
-3.1749999999999998
 74
0
  0
LTYPE
  5
33
100
AcDbSymbolTableRecord
100
AcDbLinetypeTableRecord
  2
DOTX2
 70
0
  3
Dot (2x) .  .  .  .  .  .  .  .  .  .  .  .  .
 72
65
 73
2
 40
12.6999999999999993
 49
0.0
 74
0
 49
-12.6999999999999993
 74
0
  0
LTYPE
  5
34
100
AcDbSymbolTableRecord
100
AcDbLinetypeTableRecord
  2
DASHED
 70
0
  3
Dashed __ __ __ __ __ __ __ __ __ __ __ __ __ _
 72
65
 73
2
 40
19.0500000000000007
 49
12.6999999999999993
 74
0
 49
-6.3499999999999996
 74
0
  0
LTYPE
  5
35
100
AcDbSymbolTableRecord
100
AcDbLinetypeTableRecord
  2
DASHED2
 70
0
  3
Dashed (.5x) _ _ _ _ _ _ _ _ _ _ _ _ _ _ _ _ _
 72
65
 73
2
 40
9.5250000000000004
 49
6.3499999999999996
 74
0
 49
-3.1749999999999998
 74
0
  0
LTYPE
  5
36
100
AcDbSymbolTableRecord
100
AcDbLinetypeTableRecord
  2
DASHEDX2
 70
0
  3
Dashed (2x) ____  ____  ____  ____  ____  ___
 72
65
 73
2
 40
38.1000000000000014
 49
25.3999999999999986
 74
0
 49
-12.6999999999999993
 74
0
  0
LTYPE
  5
37
100
AcDbSymbolTableRecord
100
AcDbLinetypeTableRecord
  2
DASHDOT
 70
0
  3
Dash dot __ . __ . __ . __ . __ . __ . __ . __
 72
65
 73
4
 40
25.3999999999999986
 49
12.6999999999999993
 74
0
 49
-6.3499999999999996
 74
0
 49
0.0
 74
0
 49
-6.3499999999999996
 74
0
  0
LTYPE
  5
38
100
AcDbSymbolTableRecord
100
AcDbLinetypeTableRecord
  2
DASHDOT2
 70
0
  3
Dash dot (.5x) _._._._._._._._._._._._._._._.
 72
65
 73
4
 40
12.6999999999999993
 49
6.3499999999999996
 74
0
 49
-3.1749999999999998
 74
0
 49
0.0
 74
0
 49
-3.1749999999999998
 74
0
  0
LTYPE
  5
39
100
AcDbSymbolTableRecord
100
AcDbLinetypeTableRecord
  2
DASHDOTX2
 70
0
  3
Dash dot (2x) ____  .  ____  .  ____  .  ___
 72
65
 73
4
 40
50.7999999999999972
 49
25.3999999999999986
 74
0
 49
-12.6999999999999993
 74
0
 49
0.0
 74
0
 49
-12.6999999999999993
 74
0
  0
LTYPE
  5
3A
100
AcDbSymbolTableRecord
100
AcDbLinetypeTableRecord
  2
DIVIDE
 70
0
  3
Divide ____ . . ____ . . ____ . . ____ . . ____
 72
65
 73
6
 40
31.75
 49
12.6999999999999993
 74
0
 49
-6.3499999999999996
 74
0
 49
0.0
 74
0
 49
-6.3499999999999996
 74
0
 49
0.0
 74
0
 49
-6.3499999999999996
 74
0
  0
LTYPE
  5
3B
100
AcDbSymbolTableRecord
100
AcDbLinetypeTableRecord
  2
DIVIDE2
 70
0
  3
Divide (.5x) __..__..__..__..__..__..__..__.._
 72
65
 73
6
 40
15.875
 49
6.3499999999999996
 74
0
 49
-3.1749999999999998
 74
0
 49
0.0
 74
0
 49
-3.1749999999999998
 74
0
 49
0.0
 74
0
 49
-3.1749999999999998
 74
0
  0
LTYPE
  5
3C
100
AcDbSymbolTableRecord
100
AcDbLinetypeTableRecord
  2
DIVIDEX2
 70
0
  3
Divide (2x) ________  .  .  ________  .  .  _
 72
65
 73
6
 40
63.5
 49
25.3999999999999986
 74
0
 49
-12.6999999999999993
 74
0
 49
0.0
 74
0
 49
-12.6999999999999993
 74
0
 49
0.0
 74
0
 49
-12.6999999999999993
 74
0
  0
LTYPE
  5
3D
100
AcDbSymbolTableRecord
100
AcDbLinetypeTableRecord
  2
CENTER
 70
0
  3
Center ____ _ ____ _ ____ _ ____ _ ____ _ ____
 72
65
 73
4
 40
50.7999999999999972
 49
31.75
 74
0
 49
-6.3499999999999996
 74
0
 49
6.3499999999999996
 74
0
 49
-6.3499999999999996
 74
0
  0
LTYPE
  5
3E
100
AcDbSymbolTableRecord
100
AcDbLinetypeTableRecord
  2
CENTER2
 70
0
  3
Center (.5x) ___ _ ___ _ ___ _ ___ _ ___ _ ___
 72
65
 73
4
 40
28.5749999999999993
 49
19.0500000000000007
 74
0
 49
-3.1749999999999998
 74
0
 49
3.1749999999999998
 74
0
 49
-3.1749999999999998
 74
0
  0
LTYPE
  5
3F
100
AcDbSymbolTableRecord
100
AcDbLinetypeTableRecord
  2
CENTERX2
 70
0
  3
Center (2x) ________  __  ________  __  _____
 72
65
 73
4
 40
101.5999999999999943
 49
63.5
 74
0
 49
-12.6999999999999993
 74
0
 49
12.6999999999999993
 74
0
 49
-12.6999999999999993
 74
0
  0
LTYPE
  5
40
100
AcDbSymbolTableRecord
100
AcDbLinetypeTableRecord
  2
BORDER
 70
0
  3
Border __ __ . __ __ . __ __ . __ __ . __ __ .
 72
65
 73
6
 40
44.4500000000000028
 49
12.6999999999999993
 74
0
 49
-6.3499999999999996
 74
0
 49
12.6999999999999993
 74
0
 49
-6.3499999999999996
 74
0
 49
0.0
 74
0
 49
-6.3499999999999996
 74
0
  0
LTYPE
  5
41
100
AcDbSymbolTableRecord
100
AcDbLinetypeTableRecord
  2
BORDER2
 70
0
  3
Border (.5x) __.__.__.__.__.__.__.__.__.__.__.
 72
65
 73
6
 40
22.2250000000000014
 49
6.3499999999999996
 74
0
 49
-3.1749999999999998
 74
0
 49
6.3499999999999996
 74
0
 49
-3.1749999999999998
 74
0
 49
0.0
 74
0
 49
-3.1749999999999998
 74
0
  0
LTYPE
  5
42
100
AcDbSymbolTableRecord
100
AcDbLinetypeTableRecord
  2
BORDERX2
 70
0
  3
Border (2x) ____  ____  .  ____  ____  .  ___
 72
65
 73
6
 40
88.9000000000000057
 49
25.3999999999999986
 74
0
 49
-12.6999999999999993
 74
0
 49
25.3999999999999986
 74
0
 49
-12.6999999999999993
 74
0
 49
0.0
 74
0
 49
-12.6999999999999993
 74
0
  0
ENDTAB
  0
TABLE
  2
LAYER
  5
2
100
AcDbSymbolTable
 70
5
  0
LAYER
  5
10
100
AcDbSymbolTableRecord
100
AcDbLayerTableRecord
  2
0
 70
0
 62
7
  6
CONTINUOUS
370
0
390
F
  0
LAYER
  5
43
100
AcDbSymbolTableRecord
100
AcDbLayerTableRecord
  2
first
 70
0
 62
7
  6
CONTINUOUS
370
0
390
F
  0
LAYER
  5
44
100
AcDbSymbolTableRecord
100
AcDbLayerTableRecord
  2
Side view
 70
0
 62
7
  6
CONTINUOUS
370
0
390
F
  0
LAYER
  5
45
100
AcDbSymbolTableRecord
100
AcDbLayerTableRecord
  2
second roof layer
 70
0
 62
7
  6
CONTINUOUS
370
0
390
F
  0
LAYER
  5
46
100
AcDbSymbolTableRecord
100
AcDbLayerTableRecord
  2
Side View
 70
0
 62
7
  6
CONTINUOUS
370
0
390
F
  0
ENDTAB
  0
TABLE
  2
STYLE
  5
3
100
AcDbSymbolTable
 70
1
  0
STYLE
  5
11
100
AcDbSymbolTableRecord
100
AcDbTextStyleTableRecord
  2
Standard
 70
0
 40
0.0
 41
0.75
 50
0.0
 71
0
 42
2.5
  3
txt
  4

  0
ENDTAB
  0
TABLE
  2
VIEW
  5
6
100
AcDbSymbolTable
 70
0
  0
ENDTAB
  0
TABLE
  2
UCS
  5
7
100
AcDbSymbolTable
 70
0
  0
ENDTAB
  0
TABLE
  2
APPID
  5
9
100
AcDbSymbolTable
 70
1
  0
APPID
  5
12
100
AcDbSymbolTableRecord
100
AcDbRegAppTableRecord
  2
ACAD
 70
0
  0
ENDTAB
  0
TABLE
  2
DIMSTYLE
  5
A
100
AcDbSymbolTable
 70
1
100
AcDbDimStyleTable
 71
0
  0
DIMSTYLE
105
27
100
AcDbSymbolTableRecord
100
AcDbDimStyleTableRecord
  2
Standard
 41
1.0
 42
0.25
 43
3.75
 44
0.5
 70
0
 73
0
 74
0
 77
1
 78
8
140
1.0
141
2.5
143
0.03937007874016
147
0.25
171
3
172
1
271
2
272
2
274
3
278
44
283
0
284
8
340
11
  0
ENDTAB
  0
TABLE
  2
BLOCK_RECORD
  5
1
100
AcDbSymbolTable
 70
1
  0
BLOCK_RECORD
  5
1F
100
AcDbSymbolTableRecord
100
AcDbBlockTableRecord
  2
*Model_Space
340
22
  0
BLOCK_RECORD
  5
1B
100
AcDbSymbolTableRecord
100
AcDbBlockTableRecord
  2
*Paper_Space
340
1E
  0
BLOCK_RECORD
  5
23
100
AcDbSymbolTableRecord
100
AcDbBlockTableRecord
  2
*Paper_Space0
340
26
  0
ENDTAB
  0
ENDSEC
  0
SECTION
  2
BLOCKS
  0
BLOCK
  5
20
100
AcDbEntity
  8
0
100
AcDbBlockBegin
  2
*Model_Space
 70
0
 10
0.0
 20
0.0
 30
0.0
  3
*Model_Space
  1

  0
ENDBLK
  5
21
100
AcDbEntity
  8
0
100
AcDbBlockEnd
  0
BLOCK
  5
1C
100
AcDbEntity
 67
1
  8
0
100
AcDbBlockBegin
  2
*Paper_Space
 70
0
 10
0.0
 20
0.0
 30
0.0
  3
*Paper_Space
  1

  0
ENDBLK
  5
1D
100
AcDbEntity
 67
1
  8
0
100
AcDbBlockEnd
  0
BLOCK
  5
24
100
AcDbEntity
  8
0
100
AcDbBlockBegin
  2
*Paper_Space0
 70
0
 10
0.0
 20
0.0
 30
0.0
  3
*Paper_Space0
  1

  0
ENDBLK
  5
25
100
AcDbEntity
  8
0
100
AcDbBlockEnd
  0
ENDSEC
  0
SECTION
  2
ENTITIES
  0
LINE
  5
47
100
AcDbEntity
100
AcDbLine
  8
Side View
 62
256
370
-1
  6
ByLayer
 10
0.0
 20
4.0
 30
0.0
 11
4.0
 21
4.0
 31
0.0
  0
LINE
  5
48
100
AcDbEntity
100
AcDbLine
  8
Side View
 62
256
370
-1
  6
ByLayer
 10
4.0
 20
4.0
 30
0.0
 11
4.0
 21
0.0
 31
0.0
  0
LINE
  5
49
100
AcDbEntity
100
AcDbLine
  8
Side View
 62
256
370
-1
  6
ByLayer
 10
4.0
 20
0.0
 30
0.0
 11
0.0
 21
0.0
 31
0.0
  0
LINE
  5
4A
100
AcDbEntity
100
AcDbLine
  8
Side View
 62
256
370
-1
  6
ByLayer
 10
0.0
 20
0.0
 30
0.0
 11
0.0
 21
4.0
 31
0.0
  0
LINE
  5
4B
100
AcDbEntity
100
AcDbLine
  8
Side View
 62
256
370
-1
  6
ByLayer
 10
8.0
 20
4.0
 30
0.0
 11
12.0
 21
4.0
 31
0.0
  0
LINE
  5
4C
100
AcDbEntity
100
AcDbLine
  8
Side View
 62
256
370
-1
  6
ByLayer
 10
12.0
 20
4.0
 30
0.0
 11
12.0
 21
0.0
 31
0.0
  0
LINE
  5
4D
100
AcDbEntity
100
AcDbLine
  8
Side View
 62
256
370
-1
  6
ByLayer
 10
12.0
 20
0.0
 30
0.0
 11
8.0
 21
0.0
 31
0.0
  0
LINE
  5
4E
100
AcDbEntity
100
AcDbLine
  8
Side View
 62
256
370
-1
  6
ByLayer
 10
8.0
 20
0.0
 30
0.0
 11
8.0
 21
4.0
 31
0.0
  0
LINE
  5
4F
100
AcDbEntity
100
AcDbLine
  8
Side View
 62
256
370
-1
  6
ByLayer
 10
0.2572563427409515
 20
3.7346524239289858
 30
0.0
 11
3.7523942406697413
 21
3.7346524239289858
 31
0.0
  0
LINE
  5
50
100
AcDbEntity
100
AcDbLine
  8
Side View
 62
256
370
-1
  6
ByLayer
 10
3.7523942406697413
 20
3.7346524239289858
 30
0.0
 11
3.7523942406697413
 21
0.2483854343705739
 31
0.0
  0
LINE
  5
51
100
AcDbEntity
100
AcDbLine
  8
Side View
 62
256
370
-1
  6
ByLayer
 10
3.7523942406697413
 20
0.2483854343705739
 30
0.0
 11
0.2572563427409515
 21
0.2483854343705739
 31
0.0
  0
LINE
  5
52
100
AcDbEntity
100
AcDbLine
  8
Side View
 62
256
370
-1
  6
ByLayer
 10
0.2572563427409515
 20
0.2483854343705739
 30
0.0
 11
0.2572563427409515
 21
3.7346524239289858
 31
0.0
  0
LINE
  5
53
100
AcDbEntity
100
AcDbLine
  8
Side View
 62
256
370
-1
  6
ByLayer
 10
8.2588156928215817
 20
3.7435233322993637
 30
0.0
 11
11.7539535907503723
 21
3.7435233322993637
 31
0.0
  0
LINE
  5
54
100
AcDbEntity
100
AcDbLine
  8
Side View
 62
256
370
-1
  6
ByLayer
 10
11.7539535907503723
 20
3.7435233322993637
 30
0.0
 11
11.7539535907503723
 21
0.2395145260001962
 31
0.0
  0
LINE
  5
55
100
AcDbEntity
100
AcDbLine
  8
Side View
 62
256
370
-1
  6
ByLayer
 10
11.7539535907503723
 20
0.2395145260001962
 30
0.0
 11
8.2588156928215817
 21
0.2395145260001962
 31
0.0
  0
LINE
  5
56
100
AcDbEntity
100
AcDbLine
  8
Side View
 62
256
370
-1
  6
ByLayer
 10
8.2588156928215817
 20
0.2395145260001962
 30
0.0
 11
8.2588156928215817
 21
3.7435233322993637
 31
0.0
  0
LINE
  5
57
100
AcDbEntity
100
AcDbLine
  8
Side View
 62
3
370
-1
  6
ByLayer
 10
16.0
 20
4.0000000000000009
 30
0.0
 11
16.0
 21
4.5000000000000009
 31
0.0
  0
LINE
  5
58
100
AcDbEntity
100
AcDbLine
  8
Side View
 62
3
370
-1
  6
ByLayer
 10
16.0
 20
4.5000000000000009
 30
0.0
 11
-0.5000000000000004
 21
4.5
 31
0.0
  0
LINE
  5
59
100
AcDbEntity
100
AcDbLine
  8
Side View
 62
3
370
-1
  6
ByLayer
 10
-0.5000000000000004
 20
4.5
 30
0.0
 11
-0.4981222961881981
 21
-6.020782536535612
 31
0.0
  0
LINE
  5
5A
100
AcDbEntity
100
AcDbLine
  8
Side View
 62
3
370
-1
  6
ByLayer
 10
-0.4981222961881981
 20
-6.020782536535612
 30
0.0
 11
0.0
 21
-6.020782536535612
 31
0.0
  0
LINE
  5
5B
100
AcDbEntity
100
AcDbLine
  8
Side View
 62
3
370
-1
  6
ByLayer
 10
0.0
 20
-6.020782536535612
 30
0.0
 11
0.0
 21
-0.521165866759687
 31
0.0
  0
LINE
  5
5C
100
AcDbEntity
100
AcDbLine
  8
Side View
 62
3
370
-1
  6
ByLayer
 10
0.0
 20
-0.521165866759687
 30
0.0
 11
7.4934919339615904
 21
-0.5197797873268155
 31
0.0
  0
LINE
  5
5D
100
AcDbEntity
100
AcDbLine
  8
Side View
 62
3
370
-1
  6
ByLayer
 10
7.4934919339615904
 20
-0.5197797873268155
 30
0.0
 11
7.4934919339615904
 21
-6.0207825365356138
 31
0.0
  0
LINE
  5
5E
100
AcDbEntity
100
AcDbLine
  8
Side View
 62
3
370
-1
  6
ByLayer
 10
7.4934919339615904
 20
-6.0207825365356138
 30
0.0
 11
7.948299247872554
 21
-5.9991250453969958
 31
0.0
  0
LINE
  5
5F
100
AcDbEntity
100
AcDbLine
  8
Side View
 62
3
370
-1
  6
ByLayer
 10
7.948299247872554
 20
-5.9991250453969958
 30
0.0
 11
7.948299247872554
 21
-0.5197797873268155
 31
0.0
  0
LINE
  5
60
100
AcDbEntity
100
AcDbLine
  8
Side View
 62
3
370
-1
  6
ByLayer
 10
15.9918914567550274
 20
-0.5197797873268156
 30
0.0
 11
15.9918914567550274
 21
-0.0693039716435754
 31
0.0
  0
LINE
  5
61
100
AcDbEntity
100
AcDbLine
  8
Side View
 62
3
370
-1
  6
ByLayer
 10
15.9918914567550274
 20
-0.0693039716435754
 30
0.0
 11
-0.0519779787326816
 21
-0.0693039716435754
 31
0.0
  0
LINE
  5
62
100
AcDbEntity
100
AcDbLine
  8
Side View
 62
3
370
-1
  6
ByLayer
 10
-0.0519779787326816
 20
-0.0693039716435754
 30
0.0
 11
-0.0519779787326816
 21
4.054282341149162
 31
0.0
  0
LINE
  5
63
100
AcDbEntity
100
AcDbLine
  8
Side View
 62
3
370
-1
  6
ByLayer
 10
-0.0519779787326816
 20
4.054282341149162
 30
0.0
 11
15.9918914567550274
 21
4.054282341149162
 31
0.0
  0
LINE
  5
64
100
AcDbEntity
100
AcDbLine
  8
Side View
 62
3
370
-1
  6
ByLayer
 10
7.948299247872554
 20
-0.5197797873268155
 30
0.0
 11
11.9708398285716946
 21
-0.5075974485613439
 31
0.0
  0
LINE
  5
65
100
AcDbEntity
100
AcDbLine
  8
Side View
 62
5
370
-1
  6
ByLayer
 10
-0.5143654145421623
 20
-1.082874556930868
 30
0.0
 11
-0.9475152373145096
 21
-1.082874556930868
 31
0.0
  0
LINE
  5
66
100
AcDbEntity
100
AcDbLine
  8
Side View
 62
5
370
-1
  6
ByLayer
 10
-0.9475152373145096
 20
-1.082874556930868
 30
0.0
 11
-0.9475152373145096
 21
-5.8475226074266873
 31
0.0
  0
LINE
  5
67
100
AcDbEntity
100
AcDbLine
  8
Side View
 62
5
370
-1
  6
ByLayer
 10
-0.9475152373145096
 20
-5.8475226074266873
 30
0.0
 11
-0.5143654145421623
 21
-5.8475226074266873
 31
0.0
  0
LINE
  5
68
100
AcDbEntity
100
AcDbLine
  8
Side View
 62
5
370
-1
  6
ByLayer
 10
-0.5143654145421623
 20
-5.8475226074266873
 30
0.0
 11
-0.5143654145421623
 21
-1.082874556930868
 31
0.0
  0
LINE
  5
69
100
AcDbEntity
100
AcDbLine
  8
Side View
 62
5
370
-1
  6
ByLayer
 10
7.4718344428229893
 20
-1.082874556930868
 30
0.0
 11
7.0928283478971856
 21
-1.082874556930868
 31
0.0
  0
LINE
  5
6A
100
AcDbEntity
100
AcDbLine
  8
Side View
 62
5
370
-1
  6
ByLayer
 10
7.0928283478971856
 20
-1.082874556930868
 30
0.0
 11
7.0928283478971856
 21
-5.8475226074266873
 31
0.0
  0
LINE
  5
6B
100
AcDbEntity
100
AcDbLine
  8
Side View
 62
5
370
-1
  6
ByLayer
 10
7.0928283478971856
 20
-5.8475226074266873
 30
0.0
 11
7.4718344428229893
 21
-5.8475226074266873
 31
0.0
  0
LINE
  5
6C
100
AcDbEntity
100
AcDbLine
  8
Side View
 62
5
370
-1
  6
ByLayer
 10
7.4718344428229893
 20
-5.8475226074266873
 30
0.0
 11
7.4718344428229893
 21
-1.082874556930868
 31
0.0
  0
LINE
  5
6D
100
AcDbEntity
100
AcDbLine
  8
Side View
 62
3
370
-1
  6
ByLayer
 10
10.5513943234147547
 20
-0.5024537944159224
 30
0.0
 11
10.5513943234147547
 21
-6.0121195400801755
 31
0.0
  0
LINE
  5
6E
100
AcDbEntity
100
AcDbLine
  8
Side View
 62
3
370
-1
  6
ByLayer
 10
11.0018701390979956
 20
-5.9947935471692819
 30
0.0
 11
11.0018701390979956
 21
-0.5197797873268163
 31
0.0
  0
LINE
  5
6F
100
AcDbEntity
100
AcDbLine
  8
Side View
 62
5
370
-1
  6
ByLayer
 10
-10.101189226370753
 20
-4.4127138194932876
 30
0.0
 11
-10.101189226370753
 21
-2.4635396170177248
 31
0.0
  0
LINE
  5
70
100
AcDbEntity
100
AcDbLine
  8
Side View
 62
5
370
-1
  6
ByLayer
 10
-10.101189226370753
 20
-2.4635396170177248
 30
0.0
 11
10.2027087160830217
 21
-2.4364677530944534
 31
0.0
  0
LINE
  5
71
100
AcDbEntity
100
AcDbLine
  8
Side View
 62
5
370
-1
  6
ByLayer
 10
10.2027087160830217
 20
-2.4364677530944534
 30
0.0
 11
10.2027087160830217
 21
-4.3856419555700157
 31
0.0
  0
LINE
  5
72
100
AcDbEntity
100
AcDbLine
  8
Side View
 62
5
370
-1
  6
ByLayer
 10
10.2027087160830217
 20
-4.3856419555700157
 30
0.0
 11
-10.101189226370753
 21
-4.4127138194932876
 31
0.0
  0
LINE
  5
73
100
AcDbEntity
100
AcDbLine
  8
Side View
 62
1
370
-1
  6
ByLayer
 10
11.0402445062092429
 20
-1.7765910699647056
 30
0.0
 11
18.5696066598691871
 21
-1.7765910699647056
 31
0.0
  0
LINE
  5
74
100
AcDbEntity
100
AcDbLine
  8
Side View
 62
1
370
-1
  6
ByLayer
 10
18.5696066598691871
 20
-1.7765910699647056
 30
0.0
 11
18.5696066598691871
 21
-5.1605740603736692
 31
0.0
  0
LINE
  5
75
100
AcDbEntity
100
AcDbLine
  8
Side View
 62
1
370
-1
  6
ByLayer
 10
18.5696066598691871
 20
-5.1605740603736692
 30
0.0
 11
11.0402445062092429
 21
-5.1605740603736692
 31
0.0
  0
LINE
  5
76
100
AcDbEntity
100
AcDbLine
  8
Side View
 62
1
370
-1
  6
ByLayer
 10
11.0402445062092429
 20
-5.1605740603736692
 30
0.0
 11
11.0402445062092429
 21
-1.7765910699647056
 31
0.0
  0
LINE
  5
77
100
AcDbEntity
100
AcDbLine
  8
Side View
 62
1
370
-1
  6
ByLayer
 10
8.9252551372036404
 20
-2.9186853292277308
 30
0.0
 11
10.9133451440689075
 21
-2.9186853292277308
 31
0.0
  0
LINE
  5
78
100
AcDbEntity
100
AcDbLine
  8
Side View
 62
1
370
-1
  6
ByLayer
 10
10.9133451440689075
 20
-2.9186853292277308
 30
0.0
 11
10.9133451440689075
 21
-3.8915804389703079
 31
0.0
  0
LINE
  5
79
100
AcDbEntity
100
AcDbLine
  8
Side View
 62
1
370
-1
  6
ByLayer
 10
10.9133451440689075
 20
-3.8915804389703079
 30
0.0
 11
8.9252551372036404
 21
-3.8915804389703079
 31
0.0
  0
LINE
  5
7A
100
AcDbEntity
100
AcDbLine
  8
Side View
 62
1
370
-1
  6
ByLayer
 10
8.9252551372036404
 20
-3.8915804389703079
 30
0.0
 11
8.9252551372036404
 21
-2.9186853292277308
 31
0.0
  0
LINE
  5
7B
100
AcDbEntity
100
AcDbLine
  8
Side View
 62
3
370
-1
  6
ByLayer
 10
10.5326470576478979
 20
-6.0488695953560221
 30
0.0
 11
10.9979447188291299
 21
-6.0488695953560221
 31
0.0
  0
LINE
  5
7C
100
AcDbEntity
100
AcDbLine
  8
Side View
 62
3
370
-1
  6
ByLayer
 10
11.5478419547705879
 20
-0.5075974485613445
 30
0.0
 11
15.9918914567550488
 21
-0.5197797873268163
 31
0.0
  0
LINE
  5
7D
100
AcDbEntity
100
AcDbLine
  8
Side View
 62
3
370
-1
  6
ByLayer
 10
10.7441459945484592
 20
6.3026683196366937
 30
0.0
 11
10.7441459945484592
 21
5.9219702332156858
 31
0.0
  0
LINE
  5
7E
100
AcDbEntity
100
AcDbLine
  8
Side View
 62
3
370
-1
  6
ByLayer
 10
10.7441459945484592
 20
5.9219702332156858
 30
0.0
 11
12.1400389780921554
 21
5.9219702332156858
 31
0.0
  0
LINE
  5
7F
100
AcDbEntity
100
AcDbLine
  8
Side View
 62
3
370
-1
  6
ByLayer
 10
12.1400389780921554
 20
5.9219702332156858
 30
0.0
 11
12.0977391907120442
 21
-0.972895109742577
 31
0.0
  0
LINE
  5
80
100
AcDbEntity
100
AcDbLine
  8
Side View
 62
3
370
-1
  6
ByLayer
 10
12.0977391907120442
 20
-0.972895109742577
 30
0.0
 11
12.8168355761739488
 21
-1.015194897122689
 31
0.0
  0
LINE
  5
81
100
AcDbEntity
100
AcDbLine
  8
Side View
 62
3
370
-1
  6
ByLayer
 10
12.8168355761739488
 20
-1.015194897122689
 30
0.0
 11
12.8168355761739488
 21
6.3449681070168058
 31
0.0
  0
LINE
  5
82
100
AcDbEntity
100
AcDbLine
  8
Side View
 62
3
370
-1
  6
ByLayer
 10
12.8168355761739488
 20
6.3449681070168058
 30
0.0
 11
10.7864457819285704
 21
6.3449681070168058
 31
0.0
  0
LINE
  5
83
100
AcDbEntity
100
AcDbLine
  8
Side View
 62
3
370
-1
  6
ByLayer
 10
13.9589298354369742
 20
5.075974485613445
 30
0.0
 11
14.0012296228170854
 21
4.6106768244322121
 31
0.0
  0
LINE
  5
84
100
AcDbEntity
100
AcDbLine
  8
Side View
 62
3
370
-1
  6
ByLayer
 10
14.0012296228170854
 20
4.6106768244322121
 30
0.0
 11
14.3396279218579821
 21
4.6106768244322121
 31
0.0
  0
LINE
  5
85
100
AcDbEntity
100
AcDbLine
  8
Side View
 62
3
370
-1
  6
ByLayer
 10
14.3396279218579821
 20
4.6106768244322121
 30
0.0
 11
14.3396279218579821
 21
-1.3112934087834733
 31
0.0
  0
LINE
  5
86
100
AcDbEntity
100
AcDbLine
  8
Side View
 62
3
370
-1
  6
ByLayer
 10
14.3396279218579821
 20
-1.3112934087834733
 30
0.0
 11
15.0164245199397737
 21
-1.2689936214033612
 31
0.0
  0
LINE
  5
87
100
AcDbEntity
100
AcDbLine
  8
Side View
 62
3
370
-1
  6
ByLayer
 10
15.0164245199397737
 20
-1.2689936214033612
 30
0.0
 11
15.0164245199397737
 21
4.6106768244322121
 31
0.0
  0
LINE
  5
88
100
AcDbEntity
100
AcDbLine
  8
Side View
 62
3
370
-1
  6
ByLayer
 10
15.0164245199397737
 20
4.6106768244322121
 30
0.0
 11
15.3548228189806704
 21
4.6106768244322121
 31
0.0
  0
LINE
  5
89
100
AcDbEntity
100
AcDbLine
  8
Side View
 62
3
370
-1
  6
ByLayer
 10
15.3548228189806704
 20
4.6106768244322121
 30
0.0
 11
15.3971226063607833
 21
5.1182742729935571
 31
0.0
  0
LINE
  5
8A
100
AcDbEntity
100
AcDbLine
  8
Side View
 62
3
370
-1
  6
ByLayer
 10
15.3971226063607833
 20
5.1182742729935571
 30
0.0
 11
14.0012296228170854
 21
5.2028738477537813
 31
0.0
  0
LINE
  5
8B
100
AcDbEntity
100
AcDbLine
  8
Side View
 62
3
370
-1
  6
ByLayer
 10
13.9166300480568612
 20
-0.5498972359414566
 30
0.0
 11
13.9166300480568612
 21
-1.015194897122689
 31
0.0
  0
LINE
  5
8C
100
AcDbEntity
100
AcDbLine
  8
Side View
 62
3
370
-1
  6
ByLayer
 10
13.9166300480568612
 20
-1.015194897122689
 30
0.0
 11
15.4817221811210075
 21
-1.015194897122689
 31
0.0
  0
LINE
  5
8D
100
AcDbEntity
100
AcDbLine
  8
Side View
 62
3
370
-1
  6
ByLayer
 10
15.4817221811210075
 20
-1.015194897122689
 30
0.0
 11
15.4817221811210075
 21
-0.5498972359414566
 31
0.0
  0
MTEXT
  5
8E
100
AcDbEntity
100
AcDbMText
  8
Side View
 62
1
370
-1
  6
ByLayer
 10
11.8968152006565155
 20
-2.1480360778963155
 30
0.0
 40
1.0
 41
100.0
 71
1
 72
0
  1
Hydraulic\PMotor
  7
normallatin1
 50
0.0
 73
1
 44
1.0
  0
MTEXT
  5
8F
100
AcDbEntity
100
AcDbMText
  8
Side View
 62
5
370
-1
  6
ByLayer
 10
-6.0911693827361413
 20
-2.9186853292277344
 30
0.0
 40
1.0
 41
100.0
 71
1
 72
0
  1
Shaft
  7
normallatin1
 50
0.0
 73
1
 44
1.0
  0
LINE
  5
90
100
AcDbEntity
100
AcDbLine
  8
Side View
 62
5
370
-1
  6
ByLayer
 10
-1.4381927709238111
 20
-1.9457902194851562
 30
0.0
 11
-0.930595322362466
 21
-1.9457902194851562
 31
0.0
  0
LINE
  5
91
100
AcDbEntity
100
AcDbLine
  8
Side View
 62
5
370
-1
  6
ByLayer
 10
-0.930595322362466
 20
-1.9457902194851562
 30
0.0
 11
-0.930595322362466
 21
-4.949075123473115
 31
0.0
  0
LINE
  5
92
100
AcDbEntity
100
AcDbLine
  8
Side View
 62
5
370
-1
  6
ByLayer
 10
-0.930595322362466
 20
-4.949075123473115
 30
0.0
 11
-1.4381927709238111
 21
-4.949075123473115
 31
0.0
  0
LINE
  5
93
100
AcDbEntity
100
AcDbLine
  8
Side View
 62
5
370
-1
  6
ByLayer
 10
-1.4381927709238111
 20
-4.949075123473115
 30
0.0
 11
-1.4381927709238111
 21
-1.9457902194851562
 31
0.0
  0
LINE
  5
94
100
AcDbEntity
100
AcDbLine
  8
Side View
 62
5
370
-1
  6
ByLayer
 10
6.5987668312974863
 20
-1.9457902194851562
 30
0.0
 11
7.1063642798588313
 21
-1.9457902194851562
 31
0.0
  0
LINE
  5
95
100
AcDbEntity
100
AcDbLine
  8
Side View
 62
5
370
-1
  6
ByLayer
 10
7.1063642798588313
 20
-1.9457902194851562
 30
0.0
 11
7.1063642798588313
 21
-4.949075123473115
 31
0.0
  0
LINE
  5
96
100
AcDbEntity
100
AcDbLine
  8
Side View
 62
5
370
-1
  6
ByLayer
 10
7.1063642798588313
 20
-4.949075123473115
 30
0.0
 11
6.5987668312974863
 21
-4.949075123473115
 31
0.0
  0
LINE
  5
97
100
AcDbEntity
100
AcDbLine
  8
Side View
 62
5
370
-1
  6
ByLayer
 10
6.5987668312974863
 20
-4.949075123473115
 30
0.0
 11
6.5987668312974863
 21
-1.9457902194851562
 31
0.0
  0
MTEXT
  5
98
100
AcDbEntity
100
AcDbMText
  8
Side View
 62
0
370
-1
  6
ByLayer
 10
8.0792593896014093
 20
2.7917859670873981
 30
0.0
 40
1.0
 41
100.0
 71
1
 72
0
  1
Frame
  7
normallatin1
 50
0.0
 73
1
 44
1.0
  0
MTEXT
  5
99
100
AcDbEntity
100
AcDbMText
  8
Side View
 62
3
370
-1
  6
ByLayer
 10
10.7018462071683587
 20
9.2213536488644365
 30
0.0
 40
1.0
 41
100.0
 71
1
 72
0
  1
Cam\PLock
  7
normallatin1
 50
0.0
 73
1
 44
1.0
  0
MTEXT
  5
9A
100
AcDbEntity
100
AcDbMText
  8
Side View
 62
0
370
-1
  6
ByLayer
 10
2.5379872428067256
 20
2.6648866049470619
 30
0.0
 40
1.0
 41
100.0
 71
1
 72
0
  1
Frame
  7
normallatin1
 50
0.0
 73
1
 44
1.0
  0
MTEXT
  5
9B
100
AcDbEntity
100
AcDbMText
  8
Side View
 62
3
370
-1
  6
ByLayer
 10
13.9589298354369902
 20
6.4718674691571501
 30
0.0
 40
1.0
 41
100.0
 71
1
 72
0
  1
Bolt
  7
normallatin1
 50
0.0
 73
1
 44
1.0
  0
LINE
  5
9C
100
AcDbEntity
100
AcDbLine
  8
Side View
 62
3
370
-1
  6
ByLayer
 10
-0.0519779787326817
 20
2.7028548940994508
 30
0.0
 11
1.2128195037625742
 21
2.7028548940994508
 31
0.0
  0
LINE
  5
9D
100
AcDbEntity
100
AcDbLine
  8
Side View
 62
3
370
-1
  6
ByLayer
 10
1.2128195037625742
 20
2.7028548940994508
 30
0.0
 11
1.2128195037625742
 21
1.5593393619804525
 31
0.0
  0
LINE
  5
9E
100
AcDbEntity
100
AcDbLine
  8
Side View
 62
3
370
-1
  6
ByLayer
 10
1.2128195037625742
 20
1.5593393619804525
 30
0.0
 11
-0.0519779787326817
 21
1.5593393619804525
 31
0.0
  0
LINE
  5
9F
100
AcDbEntity
100
AcDbLine
  8
Side View
 62
3
370
-1
  6
ByLayer
 10
-0.0519779787326817
 20
1.5593393619804525
 30
0.0
 11
-0.0519779787326817
 21
2.7028548940994508
 31
0.0
  0
MTEXT
  5
A0
100
AcDbEntity
100
AcDbMText
  8
Side View
 62
3
370
-1
  6
ByLayer
 10
0.5197797873268175
 20
3.343916631802526
 30
0.0
 40
0.5
 41
100.0
 71
1
 72
0
  1
Peg
  7
normallatin1
 50
0.0
 73
1
 44
1.0
  0
ENDSEC
  0
SECTION
  2
OBJECTS
  0
DICTIONARY
  5
C
100
AcDbDictionary
280
0
281
1
  3
ACAD_GROUP
350
D
  3
ACAD_LAYOUT
350
1A
  3
ACAD_MLINESTYLE
350
17
  3
ACAD_PLOTSETTINGS
350
19
  3
ACAD_PLOTSTYLENAME
350
E
  3
AcDbVariableDictionary
350
A1
  0
DICTIONARY
  5
D
100
AcDbDictionary
280
0
281
1
  0
ACDBDICTIONARYWDFLT
  5
E
100
AcDbDictionary
281
1
  3
Normal
350
F
100
AcDbDictionaryWithDefault
340
F
  0
ACDBPLACEHOLDER
  5
F
  0
DICTIONARY
  5
17
100
AcDbDictionary
280
0
281
1
  3
Standard
350
18
  0
MLINESTYLE
  5
18
100
AcDbMlineStyle
  2
STANDARD
 70
0
  3

 62
256
 51
90.0
 52
90.0
 71
2
 49
0.5
 62
256
  6
BYLAYER
 49
-0.5
 62
256
  6
BYLAYER
  0
DICTIONARY
  5
19
100
AcDbDictionary
280
0
281
1
  0
DICTIONARY
  5
1A
100
AcDbDictionary
281
1
  3
Layout1
350
1E
  3
Layout2
350
26
  3
Model
350
22
  0
LAYOUT
  5
1E
100
AcDbPlotSettings
  1

  2
C:\Program Files\AutoCAD 2002\plotters\DWF ePlot (optimized for plotting).pc3
  4

  6

 40
0.0
 41
0.0
 42
0.0
 43
0.0
 44
0.0
 45
0.0
 46
0.0
 47
0.0
 48
0.0
 49
0.0
140
0.0
141
0.0
142
1.0
143
1.0
 70
688
 72
0
 73
0
 74
5
  7

 75
16
147
1.0
148
0.0
149
0.0
100
AcDbLayout
  1
Layout1
 70
1
 71
1
 10
0.0
 20
0.0
 11
420.0
 21
297.0
 12
0.0
 22
0.0
 32
0.0
 14
100000000000000000000.0
 24
100000000000000000000.0
 34
100000000000000000000.0
 15
-100000000000000000000.0
 25
-100000000000000000000.0
 35
-100000000000000000000.0
146
0.0
 13
0.0
 23
0.0
 33
0.0
 16
1.0
 26
0.0
 36
0.0
 17
0.0
 27
1.0
 37
0.0
 76
0
330
1B
  0
LAYOUT
  5
22
100
AcDbPlotSettings
  1

  2
C:\Program Files\AutoCAD 2002\plotters\DWF ePlot (optimized for plotting).pc3
  4

  6

 40
0.0
 41
0.0
 42
0.0
 43
0.0
 44
0.0
 45
0.0
 46
0.0
 47
0.0
 48
0.0
 49
0.0
140
0.0
141
0.0
142
1.0
143
1.0
 70
1712
 72
0
 73
0
 74
0
  7

 75
0
147
1.0
148
0.0
149
0.0
100
AcDbLayout
  1
Model
 70
1
 71
0
 10
0.0
 20
0.0
 11
12.0
 21
9.0
 12
0.0
 22
0.0
 32
0.0
 14
0.0
 24
0.0
 34
0.0
 15
0.0
 25
0.0
 35
0.0
146
0.0
 13
0.0
 23
0.0
 33
0.0
 16
1.0
 26
0.0
 36
0.0
 17
0.0
 27
1.0
 37
0.0
 76
0
330
1F
  0
LAYOUT
  5
26
100
AcDbPlotSettings
  1

  2
C:\Program Files\AutoCAD 2002\plotters\DWF ePlot (optimized for plotting).pc3
  4

  6

 40
0.0
 41
0.0
 42
0.0
 43
0.0
 44
0.0
 45
0.0
 46
0.0
 47
0.0
 48
0.0
 49
0.0
140
0.0
141
0.0
142
1.0
143
1.0
 70
688
 72
0
 73
0
 74
5
  7

 75
16
147
1.0
148
0.0
149
0.0
100
AcDbLayout
  1
Layout2
 70
1
 71
2
 10
0.0
 20
0.0
 11
12.0
 21
9.0
 12
0.0
 22
0.0
 32
0.0
 14
0.0
 24
0.0
 34
0.0
 15
0.0
 25
0.0
 35
0.0
146
0.0
 13
0.0
 23
0.0
 33
0.0
 16
1.0
 26
0.0
 36
0.0
 17
0.0
 27
1.0
 37
0.0
 76
0
330
23
  0
DICTIONARY
  5
A1
100
AcDbDictionary
281
1
  3
DIMASSOC
350
A3
  3
HIDETEXT
350
A2
  0
DICTIONARYVAR
  5
A2
100
DictionaryVariables
280
0
  1
2
  0
DICTIONARYVAR
  5
A3
100
DictionaryVariables
280
0
  1
1
  0
ENDSEC
  0
EOF
