 0
SECTION
 2
ENTITIES
  0
POLYLINE
 8
Layer0
 66
     1
70
    8
 10
0.0
 20
 0.0
 30
0.0
  0
VERTEX
  8
MY3DLAYER
10
11.29675
20
-4.74999999994792
30
-6.35759999999993
 70
     32
  0
VERTEX
  8
MY3DLAYER
10
15.29675
20
-4.74999999994792
30
-6.35759999999993
 70
     32
  0
VERTEX
  8
MY3DLAYER
10
15.29675
20
42.7500000000193
30
-6.35759999999993
 70
     32
  0
VERTEX
  8
MY3DLAYER
10
11.29675
20
42.7500000000193
30
-6.35759999999993
 70
     32
  0
VERTEX
  8
MY3DLAYER
10
11.29675
20
-4.74999999994792
30
-6.35759999999993
 70
     32
  0
SEQEND
  0
POLYLINE
 8
Layer0
 66
     1
70
    8
 10
0.0
 20
 0.0
 30
0.0
  0
VERTEX
  8
MY3DLAYER
10
13.919176270192
20
5.71583371470812
30
-6.35759999999992
 70
     32
  0
VERTEX
  8
MY3DLAYER
10
14.2930112298135
20
5.93166742927812
30
-6.35759999999992
 70
     32
  0
VERTEX
  8
MY3DLAYER
10
14.2880162086883
20
5.94372647702299
30
-6.35759999999992
 70
     32
  0
VERTEX
  8
MY3DLAYER
10
14.2863125000028
20
5.95666742927812
30
-6.35759999999992
 70
     32
  0
VERTEX
  8
MY3DLAYER
10
14.2880162086883
20
5.96960838153324
30
-6.35759999999992
 70
     32
  0
VERTEX
  8
MY3DLAYER
10
14.2930112298135
20
5.98166742927812
30
-6.35759999999992
 70
     32
  0
VERTEX
  8
MY3DLAYER
10
14.3009571609434
20
5.99202276833744
30
-6.35759999999992
 70
     32
  0
VERTEX
  8
MY3DLAYER
10
14.3113125000028
20
5.99996869946734
30
-6.35759999999992
 70
     32
  0
VERTEX
  8
MY3DLAYER
10
14.3233715477476
20
6.00496372059257
30
-6.35759999999992
 70
     32
  0
VERTEX
  8
MY3DLAYER
10
14.3363125000028
20
6.00666742927812
30
-6.35759999999992
 70
     32
  0
VERTEX
  8
MY3DLAYER
10
14.3492534522579
20
6.00496372059257
30
-6.35759999999992
 70
     32
  0
VERTEX
  8
MY3DLAYER
10
14.3613125000028
20
5.99996869946734
30
-6.35759999999992
 70
     32
  0
VERTEX
  8
MY3DLAYER
10
14.3716678390621
20
5.99202276833744
30
-6.35759999999992
 70
     32
  0
VERTEX
  8
MY3DLAYER
10
14.379613770192
20
5.98166742927812
30
-6.35759999999992
 70
     32
  0
VERTEX
  8
MY3DLAYER
10
14.3846087913172
20
5.96960838153324
30
-6.35759999999992
 70
     32
  0
VERTEX
  8
MY3DLAYER
10
14.3863125000028
20
5.95666742927812
30
-6.35759999999992
 70
     32
  0
VERTEX
  8
MY3DLAYER
10
14.3846087913172
20
5.94372647702299
30
-6.35759999999992
 70
     32
  0
VERTEX
  8
MY3DLAYER
10
14.379613770192
20
5.93166742927812
30
-6.35759999999992
 70
     32
  0
VERTEX
  8
MY3DLAYER
10
14.7534487298135
20
5.71583371470812
30
-6.35759999999992
 70
     32
  0
VERTEX
  8
MY3DLAYER
10
14.7613946609434
20
5.72618905376744
30
-6.35759999999992
 70
     32
  0
VERTEX
  8
MY3DLAYER
10
14.7717500000028
20
5.73413498489734
30
-6.35759999999992
 70
     32
  0
VERTEX
  8
MY3DLAYER
10
14.7838090477476
20
5.73913000602257
30
-6.35759999999992
 70
     32
  0
VERTEX
  8
MY3DLAYER
10
14.7967500000028
20
5.74083371470812
30
-6.35759999999992
 70
     32
  0
VERTEX
  8
MY3DLAYER
10
14.8096909522579
20
5.73913000602257
30
-6.35759999999992
 70
     32
  0
VERTEX
  8
MY3DLAYER
10
14.8217500000028
20
5.73413498489734
30
-6.35759999999992
 70
     32
  0
VERTEX
  8
MY3DLAYER
10
14.8321053390621
20
5.72618905376744
30
-6.35759999999992
 70
     32
  0
VERTEX
  8
MY3DLAYER
10
14.840051270192
20
5.71583371470812
30
-6.35759999999992
 70
     32
  0
VERTEX
  8
MY3DLAYER
10
14.8450462913172
20
5.70377466696324
30
-6.35759999999992
 70
     32
  0
VERTEX
  8
MY3DLAYER
10
14.8467500000028
20
5.69083371470812
30
-6.35759999999992
 70
     32
  0
VERTEX
  8
MY3DLAYER
10
14.8450462913172
20
5.67789276245299
30
-6.35759999999992
 70
     32
  0
VERTEX
  8
MY3DLAYER
10
14.840051270192
20
5.66583371470812
30
-6.35759999999992
 70
     32
  0
VERTEX
  8
MY3DLAYER
10
14.8321053390621
20
5.65547837564879
30
-6.35759999999992
 70
     32
  0
VERTEX
  8
MY3DLAYER
10
14.8217500000028
20
5.6475324445189
30
-6.35759999999992
 70
     32
  0
VERTEX
  8
MY3DLAYER
10
14.8096909522579
20
5.64253742339366
30
-6.35759999999992
 70
     32
  0
VERTEX
  8
MY3DLAYER
10
14.7967500000028
20
5.64083371470812
30
-6.35759999999992
 70
     32
  0
VERTEX
  8
MY3DLAYER
10
14.7967500000028
20
5.20916628556812
30
-6.35759999999992
 70
     32
  0
VERTEX
  8
MY3DLAYER
10
14.8096909522579
20
5.20746257688257
30
-6.35759999999992
 70
     32
  0
VERTEX
  8
MY3DLAYER
10
14.8217500000028
20
5.20246755575734
30
-6.35759999999992
 70
     32
  0
VERTEX
  8
MY3DLAYER
10
14.8321053390621
20
5.19452162462745
30
-6.35759999999992
 70
     32
  0
VERTEX
  8
MY3DLAYER
10
14.840051270192
20
5.18416628556812
30
-6.35759999999992
 70
     32
  0
VERTEX
  8
MY3DLAYER
10
14.8450462913172
20
5.17210723782325
30
-6.35759999999992
 70
     32
  0
VERTEX
  8
MY3DLAYER
10
14.8467500000028
20
5.15916628556812
30
-6.35759999999992
 70
     32
  0
VERTEX
  8
MY3DLAYER
10
14.8450462913172
20
5.14622533331299
30
-6.35759999999992
 70
     32
  0
VERTEX
  8
MY3DLAYER
10
14.840051270192
20
5.13416628556812
30
-6.35759999999992
 70
     32
  0
VERTEX
  8
MY3DLAYER
10
14.8321053390621
20
5.12381094650879
30
-6.35759999999992
 70
     32
  0
VERTEX
  8
MY3DLAYER
10
14.8217500000028
20
5.1158650153789
30
-6.35759999999992
 70
     32
  0
VERTEX
  8
MY3DLAYER
10
14.8096909522579
20
5.11086999425367
30
-6.35759999999992
 70
     32
  0
VERTEX
  8
MY3DLAYER
10
14.7967500000028
20
5.10916628556812
30
-6.35759999999992
 70
     32
  0
VERTEX
  8
MY3DLAYER
10
14.7838090477476
20
5.11086999425367
30
-6.35759999999992
 70
     32
  0
VERTEX
  8
MY3DLAYER
10
14.7717500000028
20
5.1158650153789
30
-6.35759999999992
 70
     32
  0
VERTEX
  8
MY3DLAYER
10
14.7613946609434
20
5.12381094650879
30
-6.35759999999992
 70
     32
  0
VERTEX
  8
MY3DLAYER
10
14.7534487298135
20
5.13416628556812
30
-6.35759999999992
 70
     32
  0
VERTEX
  8
MY3DLAYER
10
14.379613770192
20
4.91833257099812
30
-6.35759999999992
 70
     32
  0
VERTEX
  8
MY3DLAYER
10
14.3846087913172
20
4.90627352325325
30
-6.35759999999992
 70
     32
  0
VERTEX
  8
MY3DLAYER
10
14.3863125000028
20
4.89333257099812
30
-6.35759999999992
 70
     32
  0
VERTEX
  8
MY3DLAYER
10
14.3846087913172
20
4.880391618743
30
-6.35759999999992
 70
     32
  0
VERTEX
  8
MY3DLAYER
10
14.379613770192
20
4.86833257099812
30
-6.35759999999992
 70
     32
  0
VERTEX
  8
MY3DLAYER
10
14.3716678390621
20
4.8579772319388
30
-6.35759999999992
 70
     32
  0
VERTEX
  8
MY3DLAYER
10
14.3613125000028
20
4.8500313008089
30
-6.35759999999992
 70
     32
  0
VERTEX
  8
MY3DLAYER
10
14.3492534522579
20
4.84503627968367
30
-6.35759999999992
 70
     32
  0
VERTEX
  8
MY3DLAYER
10
14.3363125000028
20
4.84333257099812
30
-6.35759999999992
 70
     32
  0
VERTEX
  8
MY3DLAYER
10
14.3233715477476
20
4.84503627968367
30
-6.35759999999992
 70
     32
  0
VERTEX
  8
MY3DLAYER
10
14.3113125000028
20
4.8500313008089
30
-6.35759999999992
 70
     32
  0
VERTEX
  8
MY3DLAYER
10
14.3009571609434
20
4.8579772319388
30
-6.35759999999992
 70
     32
  0
VERTEX
  8
MY3DLAYER
10
14.2930112298135
20
4.86833257099812
30
-6.35759999999992
 70
     32
  0
VERTEX
  8
MY3DLAYER
10
14.2880162086883
20
4.880391618743
30
-6.35759999999992
 70
     32
  0
VERTEX
  8
MY3DLAYER
10
14.2863125000028
20
4.89333257099812
30
-6.35759999999992
 70
     32
  0
VERTEX
  8
MY3DLAYER
10
14.2880162086883
20
4.90627352325325
30
-6.35759999999992
 70
     32
  0
VERTEX
  8
MY3DLAYER
10
14.2930112298135
20
4.91833257099812
30
-6.35759999999992
 70
     32
  0
VERTEX
  8
MY3DLAYER
10
13.919176270192
20
5.13416628556812
30
-6.35759999999992
 70
     32
  0
VERTEX
  8
MY3DLAYER
10
13.9112303390621
20
5.12381094650879
30
-6.35759999999992
 70
     32
  0
VERTEX
  8
MY3DLAYER
10
13.9008750000028
20
5.1158650153789
30
-6.35759999999992
 70
     32
  0
VERTEX
  8
MY3DLAYER
10
13.8888159522579
20
5.11086999425367
30
-6.35759999999992
 70
     32
  0
VERTEX
  8
MY3DLAYER
10
13.8758750000028
20
5.10916628556812
30
-6.35759999999992
 70
     32
  0
VERTEX
  8
MY3DLAYER
10
13.8629340477476
20
5.11086999425367
30
-6.35759999999992
 70
     32
  0
VERTEX
  8
MY3DLAYER
10
13.8508750000028
20
5.1158650153789
30
-6.35759999999992
 70
     32
  0
VERTEX
  8
MY3DLAYER
10
13.8405196609434
20
5.12381094650879
30
-6.35759999999992
 70
     32
  0
VERTEX
  8
MY3DLAYER
10
13.8325737298135
20
5.13416628556812
30
-6.35759999999992
 70
     32
  0
VERTEX
  8
MY3DLAYER
10
13.8275787086883
20
5.14622533331299
30
-6.35759999999992
 70
     32
  0
VERTEX
  8
MY3DLAYER
10
13.8258750000028
20
5.15916628556812
30
-6.35759999999992
 70
     32
  0
VERTEX
  8
MY3DLAYER
10
13.8275787086883
20
5.17210723782325
30
-6.35759999999992
 70
     32
  0
VERTEX
  8
MY3DLAYER
10
13.8325737298135
20
5.18416628556812
30
-6.35759999999992
 70
     32
  0
VERTEX
  8
MY3DLAYER
10
13.8405196609434
20
5.19452162462745
30
-6.35759999999992
 70
     32
  0
VERTEX
  8
MY3DLAYER
10
13.8508750000028
20
5.20246755575734
30
-6.35759999999992
 70
     32
  0
VERTEX
  8
MY3DLAYER
10
13.8629340477476
20
5.20746257688257
30
-6.35759999999992
 70
     32
  0
VERTEX
  8
MY3DLAYER
10
13.8758750000028
20
5.20916628556812
30
-6.35759999999992
 70
     32
  0
VERTEX
  8
MY3DLAYER
10
13.8758750000028
20
5.64083371470812
30
-6.35759999999992
 70
     32
  0
VERTEX
  8
MY3DLAYER
10
13.8629340477476
20
5.64253742339366
30
-6.35759999999992
 70
     32
  0
VERTEX
  8
MY3DLAYER
10
13.8508750000028
20
5.6475324445189
30
-6.35759999999992
 70
     32
  0
VERTEX
  8
MY3DLAYER
10
13.8405196609434
20
5.65547837564879
30
-6.35759999999992
 70
     32
  0
VERTEX
  8
MY3DLAYER
10
13.8325737298135
20
5.66583371470812
30
-6.35759999999992
 70
     32
  0
VERTEX
  8
MY3DLAYER
10
13.8275787086883
20
5.67789276245299
30
-6.35759999999992
 70
     32
  0
VERTEX
  8
MY3DLAYER
10
13.8258750000028
20
5.69083371470812
30
-6.35759999999992
 70
     32
  0
VERTEX
  8
MY3DLAYER
10
13.8275787086883
20
5.70377466696324
30
-6.35759999999992
 70
     32
  0
VERTEX
  8
MY3DLAYER
10
13.8325737298135
20
5.71583371470812
30
-6.35759999999992
 70
     32
  0
VERTEX
  8
MY3DLAYER
10
13.8405196609434
20
5.72618905376744
30
-6.35759999999992
 70
     32
  0
VERTEX
  8
MY3DLAYER
10
13.8508750000028
20
5.73413498489734
30
-6.35759999999992
 70
     32
  0
VERTEX
  8
MY3DLAYER
10
13.8629340477476
20
5.73913000602257
30
-6.35759999999992
 70
     32
  0
VERTEX
  8
MY3DLAYER
10
13.8758750000028
20
5.74083371470812
30
-6.35759999999992
 70
     32
  0
VERTEX
  8
MY3DLAYER
10
13.8888159522579
20
5.73913000602257
30
-6.35759999999992
 70
     32
  0
VERTEX
  8
MY3DLAYER
10
13.9008750000028
20
5.73413498489734
30
-6.35759999999992
 70
     32
  0
VERTEX
  8
MY3DLAYER
10
13.9112303390621
20
5.72618905376744
30
-6.35759999999992
 70
     32
  0
VERTEX
  8
MY3DLAYER
10
13.919176270192
20
5.71583371470812
30
-6.35759999999992
 70
     32
  0
SEQEND
  0
POLYLINE
 8
Layer0
 66
     1
70
    8
 10
0.0
 20
 0.0
 30
0.0
  0
VERTEX
  8
MY3DLAYER
10
12.7659212913168
20
5.70377466696324
30
-6.35759999999992
 70
     32
  0
VERTEX
  8
MY3DLAYER
10
12.7676250000023
20
5.69083371470812
30
-6.35759999999992
 70
     32
  0
VERTEX
  8
MY3DLAYER
10
12.7659212913168
20
5.67789276245299
30
-6.35759999999992
 70
     32
  0
VERTEX
  8
MY3DLAYER
10
12.7609262701916
20
5.66583371470812
30
-6.35759999999992
 70
     32
  0
VERTEX
  8
MY3DLAYER
10
12.7529803390617
20
5.65547837564879
30
-6.35759999999992
 70
     32
  0
VERTEX
  8
MY3DLAYER
10
12.7426250000023
20
5.6475324445189
30
-6.35759999999992
 70
     32
  0
VERTEX
  8
MY3DLAYER
10
12.7305659522575
20
5.64253742339366
30
-6.35759999999992
 70
     32
  0
VERTEX
  8
MY3DLAYER
10
12.7176250000023
20
5.64083371470812
30
-6.35759999999992
 70
     32
  0
VERTEX
  8
MY3DLAYER
10
12.7176250000023
20
5.20916628556812
30
-6.35759999999992
 70
     32
  0
VERTEX
  8
MY3DLAYER
10
12.7305659522575
20
5.20746257688257
30
-6.35759999999992
 70
     32
  0
VERTEX
  8
MY3DLAYER
10
12.7426250000023
20
5.20246755575734
30
-6.35759999999992
 70
     32
  0
VERTEX
  8
MY3DLAYER
10
12.7529803390617
20
5.19452162462745
30
-6.35759999999992
 70
     32
  0
VERTEX
  8
MY3DLAYER
10
12.7609262701916
20
5.18416628556812
30
-6.35759999999992
 70
     32
  0
VERTEX
  8
MY3DLAYER
10
12.7659212913168
20
5.17210723782325
30
-6.35759999999992
 70
     32
  0
VERTEX
  8
MY3DLAYER
10
12.7676250000023
20
5.15916628556812
30
-6.35759999999992
 70
     32
  0
VERTEX
  8
MY3DLAYER
10
12.7659212913168
20
5.14622533331299
30
-6.35759999999992
 70
     32
  0
VERTEX
  8
MY3DLAYER
10
12.7609262701916
20
5.13416628556812
30
-6.35759999999992
 70
     32
  0
VERTEX
  8
MY3DLAYER
10
12.7529803390617
20
5.12381094650879
30
-6.35759999999992
 70
     32
  0
VERTEX
  8
MY3DLAYER
10
12.7426250000023
20
5.1158650153789
30
-6.35759999999992
 70
     32
  0
VERTEX
  8
MY3DLAYER
10
12.7305659522575
20
5.11086999425367
30
-6.35759999999992
 70
     32
  0
VERTEX
  8
MY3DLAYER
10
12.7176250000023
20
5.10916628556812
30
-6.35759999999992
 70
     32
  0
VERTEX
  8
MY3DLAYER
10
12.7046840477472
20
5.11086999425367
30
-6.35759999999992
 70
     32
  0
VERTEX
  8
MY3DLAYER
10
12.6926250000023
20
5.1158650153789
30
-6.35759999999992
 70
     32
  0
VERTEX
  8
MY3DLAYER
10
12.682269660943
20
5.12381094650879
30
-6.35759999999992
 70
     32
  0
VERTEX
  8
MY3DLAYER
10
12.6743237298131
20
5.13416628556812
30
-6.35759999999992
 70
     32
  0
VERTEX
  8
MY3DLAYER
10
12.3004887701916
20
4.91833257099812
30
-6.35759999999992
 70
     32
  0
VERTEX
  8
MY3DLAYER
10
12.3054837913168
20
4.90627352325325
30
-6.35759999999992
 70
     32
  0
VERTEX
  8
MY3DLAYER
10
12.3071875000023
20
4.89333257099812
30
-6.35759999999992
 70
     32
  0
VERTEX
  8
MY3DLAYER
10
12.3054837913168
20
4.880391618743
30
-6.35759999999992
 70
     32
  0
VERTEX
  8
MY3DLAYER
10
12.3004887701916
20
4.86833257099812
30
-6.35759999999992
 70
     32
  0
VERTEX
  8
MY3DLAYER
10
12.2925428390617
20
4.8579772319388
30
-6.35759999999992
 70
     32
  0
VERTEX
  8
MY3DLAYER
10
12.2821875000023
20
4.8500313008089
30
-6.35759999999992
 70
     32
  0
VERTEX
  8
MY3DLAYER
10
12.2701284522575
20
4.84503627968367
30
-6.35759999999992
 70
     32
  0
VERTEX
  8
MY3DLAYER
10
12.2571875000023
20
4.84333257099812
30
-6.35759999999992
 70
     32
  0
VERTEX
  8
MY3DLAYER
10
12.2442465477472
20
4.84503627968367
30
-6.35759999999992
 70
     32
  0
VERTEX
  8
MY3DLAYER
10
12.2321875000023
20
4.8500313008089
30
-6.35759999999992
 70
     32
  0
VERTEX
  8
MY3DLAYER
10
12.221832160943
20
4.8579772319388
30
-6.35759999999992
 70
     32
  0
VERTEX
  8
MY3DLAYER
10
12.2138862298131
20
4.86833257099812
30
-6.35759999999992
 70
     32
  0
VERTEX
  8
MY3DLAYER
10
12.2088912086879
20
4.880391618743
30
-6.35759999999992
 70
     32
  0
VERTEX
  8
MY3DLAYER
10
12.2071875000023
20
4.89333257099812
30
-6.35759999999992
 70
     32
  0
VERTEX
  8
MY3DLAYER
10
12.2088912086879
20
4.90627352325325
30
-6.35759999999992
 70
     32
  0
VERTEX
  8
MY3DLAYER
10
12.2138862298131
20
4.91833257099812
30
-6.35759999999992
 70
     32
  0
VERTEX
  8
MY3DLAYER
10
11.8400512701916
20
5.13416628556812
30
-6.35759999999992
 70
     32
  0
VERTEX
  8
MY3DLAYER
10
11.8321053390617
20
5.12381094650879
30
-6.35759999999992
 70
     32
  0
VERTEX
  8
MY3DLAYER
10
11.8217500000023
20
5.1158650153789
30
-6.35759999999992
 70
     32
  0
VERTEX
  8
MY3DLAYER
10
11.8096909522575
20
5.11086999425367
30
-6.35759999999992
 70
     32
  0
VERTEX
  8
MY3DLAYER
10
11.7967500000023
20
5.10916628556812
30
-6.35759999999992
 70
     32
  0
VERTEX
  8
MY3DLAYER
10
11.7838090477472
20
5.11086999425367
30
-6.35759999999992
 70
     32
  0
VERTEX
  8
MY3DLAYER
10
11.7717500000023
20
5.1158650153789
30
-6.35759999999992
 70
     32
  0
VERTEX
  8
MY3DLAYER
10
11.761394660943
20
5.12381094650879
30
-6.35759999999992
 70
     32
  0
VERTEX
  8
MY3DLAYER
10
11.7534487298131
20
5.13416628556812
30
-6.35759999999992
 70
     32
  0
VERTEX
  8
MY3DLAYER
10
11.7484537086879
20
5.14622533331299
30
-6.35759999999992
 70
     32
  0
VERTEX
  8
MY3DLAYER
10
11.7467500000023
20
5.15916628556812
30
-6.35759999999992
 70
     32
  0
VERTEX
  8
MY3DLAYER
10
11.7484537086879
20
5.17210723782325
30
-6.35759999999992
 70
     32
  0
VERTEX
  8
MY3DLAYER
10
11.7534487298131
20
5.18416628556812
30
-6.35759999999992
 70
     32
  0
VERTEX
  8
MY3DLAYER
10
11.761394660943
20
5.19452162462745
30
-6.35759999999992
 70
     32
  0
VERTEX
  8
MY3DLAYER
10
11.7717500000023
20
5.20246755575734
30
-6.35759999999992
 70
     32
  0
VERTEX
  8
MY3DLAYER
10
11.7838090477472
20
5.20746257688257
30
-6.35759999999992
 70
     32
  0
VERTEX
  8
MY3DLAYER
10
11.7967500000023
20
5.20916628556812
30
-6.35759999999992
 70
     32
  0
VERTEX
  8
MY3DLAYER
10
11.7967500000023
20
5.64083371470812
30
-6.35759999999992
 70
     32
  0
VERTEX
  8
MY3DLAYER
10
11.7838090477472
20
5.64253742339366
30
-6.35759999999992
 70
     32
  0
VERTEX
  8
MY3DLAYER
10
11.7717500000023
20
5.6475324445189
30
-6.35759999999992
 70
     32
  0
VERTEX
  8
MY3DLAYER
10
11.761394660943
20
5.65547837564879
30
-6.35759999999992
 70
     32
  0
VERTEX
  8
MY3DLAYER
10
11.7534487298131
20
5.66583371470812
30
-6.35759999999992
 70
     32
  0
VERTEX
  8
MY3DLAYER
10
11.7484537086879
20
5.67789276245299
30
-6.35759999999992
 70
     32
  0
VERTEX
  8
MY3DLAYER
10
11.7467500000023
20
5.69083371470812
30
-6.35759999999992
 70
     32
  0
VERTEX
  8
MY3DLAYER
10
11.7484537086879
20
5.70377466696324
30
-6.35759999999992
 70
     32
  0
VERTEX
  8
MY3DLAYER
10
11.7534487298131
20
5.71583371470812
30
-6.35759999999992
 70
     32
  0
VERTEX
  8
MY3DLAYER
10
11.761394660943
20
5.72618905376744
30
-6.35759999999992
 70
     32
  0
VERTEX
  8
MY3DLAYER
10
11.7717500000023
20
5.73413498489734
30
-6.35759999999992
 70
     32
  0
VERTEX
  8
MY3DLAYER
10
11.7838090477472
20
5.73913000602257
30
-6.35759999999992
 70
     32
  0
VERTEX
  8
MY3DLAYER
10
11.7967500000023
20
5.74083371470812
30
-6.35759999999992
 70
     32
  0
VERTEX
  8
MY3DLAYER
10
11.8096909522575
20
5.73913000602257
30
-6.35759999999992
 70
     32
  0
VERTEX
  8
MY3DLAYER
10
11.8217500000023
20
5.73413498489734
30
-6.35759999999992
 70
     32
  0
VERTEX
  8
MY3DLAYER
10
11.8321053390617
20
5.72618905376744
30
-6.35759999999992
 70
     32
  0
VERTEX
  8
MY3DLAYER
10
11.8400512701916
20
5.71583371470812
30
-6.35759999999992
 70
     32
  0
VERTEX
  8
MY3DLAYER
10
12.2138862298131
20
5.93166742927812
30
-6.35759999999992
 70
     32
  0
VERTEX
  8
MY3DLAYER
10
12.2088912086879
20
5.94372647702299
30
-6.35759999999992
 70
     32
  0
VERTEX
  8
MY3DLAYER
10
12.2071875000023
20
5.95666742927812
30
-6.35759999999992
 70
     32
  0
VERTEX
  8
MY3DLAYER
10
12.2088912086879
20
5.96960838153324
30
-6.35759999999992
 70
     32
  0
VERTEX
  8
MY3DLAYER
10
12.2138862298131
20
5.98166742927812
30
-6.35759999999992
 70
     32
  0
VERTEX
  8
MY3DLAYER
10
12.221832160943
20
5.99202276833744
30
-6.35759999999992
 70
     32
  0
VERTEX
  8
MY3DLAYER
10
12.2321875000023
20
5.99996869946734
30
-6.35759999999992
 70
     32
  0
VERTEX
  8
MY3DLAYER
10
12.2442465477472
20
6.00496372059257
30
-6.35759999999992
 70
     32
  0
VERTEX
  8
MY3DLAYER
10
12.2571875000023
20
6.00666742927812
30
-6.35759999999992
 70
     32
  0
VERTEX
  8
MY3DLAYER
10
12.2701284522575
20
6.00496372059257
30
-6.35759999999992
 70
     32
  0
VERTEX
  8
MY3DLAYER
10
12.2821875000023
20
5.99996869946734
30
-6.35759999999992
 70
     32
  0
VERTEX
  8
MY3DLAYER
10
12.2925428390617
20
5.99202276833744
30
-6.35759999999992
 70
     32
  0
VERTEX
  8
MY3DLAYER
10
12.3004887701916
20
5.98166742927812
30
-6.35759999999992
 70
     32
  0
VERTEX
  8
MY3DLAYER
10
12.3054837913168
20
5.96960838153324
30
-6.35759999999992
 70
     32
  0
VERTEX
  8
MY3DLAYER
10
12.3071875000023
20
5.95666742927812
30
-6.35759999999992
 70
     32
  0
VERTEX
  8
MY3DLAYER
10
12.3054837913168
20
5.94372647702299
30
-6.35759999999992
 70
     32
  0
VERTEX
  8
MY3DLAYER
10
12.3004887701916
20
5.93166742927812
30
-6.35759999999992
 70
     32
  0
VERTEX
  8
MY3DLAYER
10
12.6743237298131
20
5.71583371470812
30
-6.35759999999992
 70
     32
  0
VERTEX
  8
MY3DLAYER
10
12.682269660943
20
5.72618905376744
30
-6.35759999999992
 70
     32
  0
VERTEX
  8
MY3DLAYER
10
12.6926250000023
20
5.73413498489734
30
-6.35759999999992
 70
     32
  0
VERTEX
  8
MY3DLAYER
10
12.7046840477472
20
5.73913000602257
30
-6.35759999999992
 70
     32
  0
VERTEX
  8
MY3DLAYER
10
12.7176250000023
20
5.74083371470812
30
-6.35759999999992
 70
     32
  0
VERTEX
  8
MY3DLAYER
10
12.7305659522575
20
5.73913000602257
30
-6.35759999999992
 70
     32
  0
VERTEX
  8
MY3DLAYER
10
12.7426250000023
20
5.73413498489734
30
-6.35759999999992
 70
     32
  0
VERTEX
  8
MY3DLAYER
10
12.7529803390617
20
5.72618905376744
30
-6.35759999999992
 70
     32
  0
VERTEX
  8
MY3DLAYER
10
12.7609262701916
20
5.71583371470812
30
-6.35759999999992
 70
     32
  0
VERTEX
  8
MY3DLAYER
10
12.7659212913168
20
5.70377466696324
30
-6.35759999999992
 70
     32
  0
SEQEND
  0
POLYLINE
 8
Layer0
 66
     1
70
    8
 10
0.0
 20
 0.0
 30
0.0
  0
VERTEX
  8
MY3DLAYER
10
13.8325737298135
20
7.89916628539501
30
-6.35759999999992
 70
     32
  0
VERTEX
  8
MY3DLAYER
10
13.8405196609434
20
7.90952162445434
30
-6.35759999999992
 70
     32
  0
VERTEX
  8
MY3DLAYER
10
13.8508750000028
20
7.91746755558423
30
-6.35759999999992
 70
     32
  0
VERTEX
  8
MY3DLAYER
10
13.8629340477476
20
7.92246257670946
30
-6.35759999999992
 70
     32
  0
VERTEX
  8
MY3DLAYER
10
13.8758750000028
20
7.92416628539501
30
-6.35759999999992
 70
     32
  0
VERTEX
  8
MY3DLAYER
10
13.8758750000028
20
8.35583371453501
30
-6.35759999999992
 70
     32
  0
VERTEX
  8
MY3DLAYER
10
13.8629340477476
20
8.35753742322056
30
-6.35759999999992
 70
     32
  0
VERTEX
  8
MY3DLAYER
10
13.8508750000028
20
8.36253244434578
30
-6.35759999999992
 70
     32
  0
VERTEX
  8
MY3DLAYER
10
13.8405196609434
20
8.37047837547568
30
-6.35759999999992
 70
     32
  0
VERTEX
  8
MY3DLAYER
10
13.8325737298135
20
8.38083371453501
30
-6.35759999999992
 70
     32
  0
VERTEX
  8
MY3DLAYER
10
13.8275787086883
20
8.39289276227988
30
-6.35759999999992
 70
     32
  0
VERTEX
  8
MY3DLAYER
10
13.8258750000028
20
8.40583371453501
30
-6.35759999999992
 70
     32
  0
VERTEX
  8
MY3DLAYER
10
13.8275787086883
20
8.41877466679014
30
-6.35759999999992
 70
     32
  0
VERTEX
  8
MY3DLAYER
10
13.8325737298135
20
8.43083371453501
30
-6.35759999999992
 70
     32
  0
VERTEX
  8
MY3DLAYER
10
13.8405196609434
20
8.44118905359434
30
-6.35759999999992
 70
     32
  0
VERTEX
  8
MY3DLAYER
10
13.8508750000028
20
8.44913498472423
30
-6.35759999999992
 70
     32
  0
VERTEX
  8
MY3DLAYER
10
13.8629340477476
20
8.45413000584946
30
-6.35759999999992
 70
     32
  0
VERTEX
  8
MY3DLAYER
10
13.8758750000028
20
8.45583371453501
30
-6.35759999999992
 70
     32
  0
VERTEX
  8
MY3DLAYER
10
13.8888159522579
20
8.45413000584946
30
-6.35759999999992
 70
     32
  0
VERTEX
  8
MY3DLAYER
10
13.9008750000028
20
8.44913498472423
30
-6.35759999999992
 70
     32
  0
VERTEX
  8
MY3DLAYER
10
13.9112303390621
20
8.44118905359434
30
-6.35759999999992
 70
     32
  0
VERTEX
  8
MY3DLAYER
10
13.919176270192
20
8.43083371453501
30
-6.35759999999992
 70
     32
  0
VERTEX
  8
MY3DLAYER
10
14.2930112298135
20
8.646667429105
30
-6.35759999999992
 70
     32
  0
VERTEX
  8
MY3DLAYER
10
14.2880162086883
20
8.65872647684988
30
-6.35759999999992
 70
     32
  0
VERTEX
  8
MY3DLAYER
10
14.2863125000028
20
8.67166742910501
30
-6.35759999999992
 70
     32
  0
VERTEX
  8
MY3DLAYER
10
14.2880162086883
20
8.68460838136013
30
-6.35759999999992
 70
     32
  0
VERTEX
  8
MY3DLAYER
10
14.2930112298135
20
8.69666742910501
30
-6.35759999999992
 70
     32
  0
VERTEX
  8
MY3DLAYER
10
14.3009571609434
20
8.70702276816433
30
-6.35759999999992
 70
     32
  0
VERTEX
  8
MY3DLAYER
10
14.3113125000028
20
8.71496869929423
30
-6.35759999999992
 70
     32
  0
VERTEX
  8
MY3DLAYER
10
14.3233715477476
20
8.71996372041946
30
-6.35759999999992
 70
     32
  0
VERTEX
  8
MY3DLAYER
10
14.3363125000028
20
8.72166742910501
30
-6.35759999999992
 70
     32
  0
VERTEX
  8
MY3DLAYER
10
14.3492534522579
20
8.71996372041946
30
-6.35759999999992
 70
     32
  0
VERTEX
  8
MY3DLAYER
10
14.3613125000028
20
8.71496869929423
30
-6.35759999999992
 70
     32
  0
VERTEX
  8
MY3DLAYER
10
14.3716678390621
20
8.70702276816433
30
-6.35759999999992
 70
     32
  0
VERTEX
  8
MY3DLAYER
10
14.379613770192
20
8.69666742910501
30
-6.35759999999992
 70
     32
  0
VERTEX
  8
MY3DLAYER
10
14.3846087913172
20
8.68460838136013
30
-6.35759999999992
 70
     32
  0
VERTEX
  8
MY3DLAYER
10
14.3863125000028
20
8.67166742910501
30
-6.35759999999992
 70
     32
  0
VERTEX
  8
MY3DLAYER
10
14.3846087913172
20
8.65872647684988
30
-6.35759999999992
 70
     32
  0
VERTEX
  8
MY3DLAYER
10
14.379613770192
20
8.64666742910501
30
-6.35759999999992
 70
     32
  0
VERTEX
  8
MY3DLAYER
10
14.7534487298135
20
8.43083371453501
30
-6.35759999999992
 70
     32
  0
VERTEX
  8
MY3DLAYER
10
14.7613946609434
20
8.44118905359434
30
-6.35759999999992
 70
     32
  0
VERTEX
  8
MY3DLAYER
10
14.7717500000028
20
8.44913498472423
30
-6.35759999999992
 70
     32
  0
VERTEX
  8
MY3DLAYER
10
14.7838090477476
20
8.45413000584946
30
-6.35759999999992
 70
     32
  0
VERTEX
  8
MY3DLAYER
10
14.7967500000028
20
8.45583371453501
30
-6.35759999999992
 70
     32
  0
VERTEX
  8
MY3DLAYER
10
14.8096909522579
20
8.45413000584946
30
-6.35759999999992
 70
     32
  0
VERTEX
  8
MY3DLAYER
10
14.8217500000028
20
8.44913498472423
30
-6.35759999999992
 70
     32
  0
VERTEX
  8
MY3DLAYER
10
14.8321053390621
20
8.44118905359434
30
-6.35759999999992
 70
     32
  0
VERTEX
  8
MY3DLAYER
10
14.840051270192
20
8.43083371453501
30
-6.35759999999992
 70
     32
  0
VERTEX
  8
MY3DLAYER
10
14.8450462913172
20
8.41877466679014
30
-6.35759999999992
 70
     32
  0
VERTEX
  8
MY3DLAYER
10
14.8467500000028
20
8.40583371453501
30
-6.35759999999992
 70
     32
  0
VERTEX
  8
MY3DLAYER
10
14.8450462913172
20
8.39289276227988
30
-6.35759999999992
 70
     32
  0
VERTEX
  8
MY3DLAYER
10
14.840051270192
20
8.38083371453501
30
-6.35759999999992
 70
     32
  0
VERTEX
  8
MY3DLAYER
10
14.8321053390621
20
8.37047837547568
30
-6.35759999999992
 70
     32
  0
VERTEX
  8
MY3DLAYER
10
14.8217500000028
20
8.36253244434578
30
-6.35759999999992
 70
     32
  0
VERTEX
  8
MY3DLAYER
10
14.8096909522579
20
8.35753742322056
30
-6.35759999999992
 70
     32
  0
VERTEX
  8
MY3DLAYER
10
14.7967500000028
20
8.35583371453501
30
-6.35759999999992
 70
     32
  0
VERTEX
  8
MY3DLAYER
10
14.7967500000028
20
7.92416628539501
30
-6.35759999999992
 70
     32
  0
VERTEX
  8
MY3DLAYER
10
14.8096909522579
20
7.92246257670946
30
-6.35759999999992
 70
     32
  0
VERTEX
  8
MY3DLAYER
10
14.8217500000028
20
7.91746755558423
30
-6.35759999999992
 70
     32
  0
VERTEX
  8
MY3DLAYER
10
14.8321053390621
20
7.90952162445434
30
-6.35759999999992
 70
     32
  0
VERTEX
  8
MY3DLAYER
10
14.840051270192
20
7.89916628539501
30
-6.35759999999992
 70
     32
  0
VERTEX
  8
MY3DLAYER
10
14.8450462913172
20
7.88710723765014
30
-6.35759999999992
 70
     32
  0
VERTEX
  8
MY3DLAYER
10
14.8467500000028
20
7.87416628539501
30
-6.35759999999992
 70
     32
  0
VERTEX
  8
MY3DLAYER
10
14.8450462913172
20
7.86122533313988
30
-6.35759999999992
 70
     32
  0
VERTEX
  8
MY3DLAYER
10
14.840051270192
20
7.84916628539501
30
-6.35759999999992
 70
     32
  0
VERTEX
  8
MY3DLAYER
10
14.8321053390621
20
7.83881094633568
30
-6.35759999999992
 70
     32
  0
VERTEX
  8
MY3DLAYER
10
14.8217500000028
20
7.83086501520579
30
-6.35759999999992
 70
     32
  0
VERTEX
  8
MY3DLAYER
10
14.8096909522579
20
7.82586999408056
30
-6.35759999999992
 70
     32
  0
VERTEX
  8
MY3DLAYER
10
14.7967500000028
20
7.82416628539501
30
-6.35759999999992
 70
     32
  0
VERTEX
  8
MY3DLAYER
10
14.7838090477476
20
7.82586999408056
30
-6.35759999999992
 70
     32
  0
VERTEX
  8
MY3DLAYER
10
14.7717500000028
20
7.83086501520579
30
-6.35759999999992
 70
     32
  0
VERTEX
  8
MY3DLAYER
10
14.7613946609434
20
7.83881094633568
30
-6.35759999999992
 70
     32
  0
VERTEX
  8
MY3DLAYER
10
14.7534487298135
20
7.84916628539501
30
-6.35759999999992
 70
     32
  0
VERTEX
  8
MY3DLAYER
10
14.379613770192
20
7.63333257082501
30
-6.35759999999992
 70
     32
  0
VERTEX
  8
MY3DLAYER
10
14.3846087913172
20
7.62127352308014
30
-6.35759999999992
 70
     32
  0
VERTEX
  8
MY3DLAYER
10
14.3863125000028
20
7.60833257082501
30
-6.35759999999992
 70
     32
  0
VERTEX
  8
MY3DLAYER
10
14.3846087913172
20
7.59539161856989
30
-6.35759999999992
 70
     32
  0
VERTEX
  8
MY3DLAYER
10
14.379613770192
20
7.58333257082501
30
-6.35759999999992
 70
     32
  0
VERTEX
  8
MY3DLAYER
10
14.3716678390621
20
7.57297723176568
30
-6.35759999999992
 70
     32
  0
VERTEX
  8
MY3DLAYER
10
14.3613125000028
20
7.56503130063579
30
-6.35759999999992
 70
     32
  0
VERTEX
  8
MY3DLAYER
10
14.3492534522579
20
7.56003627951056
30
-6.35759999999992
 70
     32
  0
VERTEX
  8
MY3DLAYER
10
14.3363125000028
20
7.55833257082501
30
-6.35759999999992
 70
     32
  0
VERTEX
  8
MY3DLAYER
10
14.3233715477476
20
7.56003627951056
30
-6.35759999999992
 70
     32
  0
VERTEX
  8
MY3DLAYER
10
14.3113125000028
20
7.56503130063579
30
-6.35759999999992
 70
     32
  0
VERTEX
  8
MY3DLAYER
10
14.3009571609434
20
7.57297723176568
30
-6.35759999999992
 70
     32
  0
VERTEX
  8
MY3DLAYER
10
14.2930112298135
20
7.58333257082501
30
-6.35759999999992
 70
     32
  0
VERTEX
  8
MY3DLAYER
10
14.2880162086883
20
7.59539161856989
30
-6.35759999999992
 70
     32
  0
VERTEX
  8
MY3DLAYER
10
14.2863125000028
20
7.60833257082501
30
-6.35759999999992
 70
     32
  0
VERTEX
  8
MY3DLAYER
10
14.2880162086883
20
7.62127352308014
30
-6.35759999999992
 70
     32
  0
VERTEX
  8
MY3DLAYER
10
14.2930112298135
20
7.63333257082501
30
-6.35759999999992
 70
     32
  0
VERTEX
  8
MY3DLAYER
10
13.919176270192
20
7.84916628539501
30
-6.35759999999992
 70
     32
  0
VERTEX
  8
MY3DLAYER
10
13.9112303390621
20
7.83881094633568
30
-6.35759999999992
 70
     32
  0
VERTEX
  8
MY3DLAYER
10
13.9008750000028
20
7.83086501520579
30
-6.35759999999992
 70
     32
  0
VERTEX
  8
MY3DLAYER
10
13.8888159522579
20
7.82586999408056
30
-6.35759999999992
 70
     32
  0
VERTEX
  8
MY3DLAYER
10
13.8758750000028
20
7.82416628539501
30
-6.35759999999992
 70
     32
  0
VERTEX
  8
MY3DLAYER
10
13.8629340477476
20
7.82586999408056
30
-6.35759999999992
 70
     32
  0
VERTEX
  8
MY3DLAYER
10
13.8508750000028
20
7.83086501520579
30
-6.35759999999992
 70
     32
  0
VERTEX
  8
MY3DLAYER
10
13.8405196609434
20
7.83881094633568
30
-6.35759999999992
 70
     32
  0
VERTEX
  8
MY3DLAYER
10
13.8325737298135
20
7.84916628539501
30
-6.35759999999992
 70
     32
  0
VERTEX
  8
MY3DLAYER
10
13.8275787086883
20
7.86122533313988
30
-6.35759999999992
 70
     32
  0
VERTEX
  8
MY3DLAYER
10
13.8258750000028
20
7.87416628539501
30
-6.35759999999992
 70
     32
  0
VERTEX
  8
MY3DLAYER
10
13.8275787086883
20
7.88710723765014
30
-6.35759999999992
 70
     32
  0
VERTEX
  8
MY3DLAYER
10
13.8325737298135
20
7.89916628539501
30
-6.35759999999992
 70
     32
  0
SEQEND
  0
POLYLINE
 8
Layer0
 66
     1
70
    8
 10
0.0
 20
 0.0
 30
0.0
  0
VERTEX
  8
MY3DLAYER
10
12.3054837913168
20
7.59539161856989
30
-6.35759999999992
 70
     32
  0
VERTEX
  8
MY3DLAYER
10
12.3004887701916
20
7.58333257082501
30
-6.35759999999992
 70
     32
  0
VERTEX
  8
MY3DLAYER
10
12.2925428390617
20
7.57297723176568
30
-6.35759999999992
 70
     32
  0
VERTEX
  8
MY3DLAYER
10
12.2821875000023
20
7.56503130063579
30
-6.35759999999992
 70
     32
  0
VERTEX
  8
MY3DLAYER
10
12.2701284522575
20
7.56003627951056
30
-6.35759999999992
 70
     32
  0
VERTEX
  8
MY3DLAYER
10
12.2571875000023
20
7.55833257082501
30
-6.35759999999992
 70
     32
  0
VERTEX
  8
MY3DLAYER
10
12.2442465477472
20
7.56003627951056
30
-6.35759999999992
 70
     32
  0
VERTEX
  8
MY3DLAYER
10
12.2321875000023
20
7.56503130063579
30
-6.35759999999992
 70
     32
  0
VERTEX
  8
MY3DLAYER
10
12.221832160943
20
7.57297723176568
30
-6.35759999999992
 70
     32
  0
VERTEX
  8
MY3DLAYER
10
12.2138862298131
20
7.58333257082501
30
-6.35759999999992
 70
     32
  0
VERTEX
  8
MY3DLAYER
10
12.2088912086879
20
7.59539161856989
30
-6.35759999999992
 70
     32
  0
VERTEX
  8
MY3DLAYER
10
12.2071875000023
20
7.60833257082501
30
-6.35759999999992
 70
     32
  0
VERTEX
  8
MY3DLAYER
10
12.2088912086879
20
7.62127352308014
30
-6.35759999999992
 70
     32
  0
VERTEX
  8
MY3DLAYER
10
12.2138862298131
20
7.63333257082501
30
-6.35759999999992
 70
     32
  0
VERTEX
  8
MY3DLAYER
10
11.8400512701916
20
7.84916628539501
30
-6.35759999999992
 70
     32
  0
VERTEX
  8
MY3DLAYER
10
11.8321053390617
20
7.83881094633568
30
-6.35759999999992
 70
     32
  0
VERTEX
  8
MY3DLAYER
10
11.8217500000023
20
7.83086501520579
30
-6.35759999999992
 70
     32
  0
VERTEX
  8
MY3DLAYER
10
11.8096909522575
20
7.82586999408056
30
-6.35759999999992
 70
     32
  0
VERTEX
  8
MY3DLAYER
10
11.7967500000023
20
7.82416628539501
30
-6.35759999999992
 70
     32
  0
VERTEX
  8
MY3DLAYER
10
11.7838090477472
20
7.82586999408056
30
-6.35759999999992
 70
     32
  0
VERTEX
  8
MY3DLAYER
10
11.7717500000023
20
7.83086501520579
30
-6.35759999999992
 70
     32
  0
VERTEX
  8
MY3DLAYER
10
11.761394660943
20
7.83881094633568
30
-6.35759999999992
 70
     32
  0
VERTEX
  8
MY3DLAYER
10
11.7534487298131
20
7.84916628539501
30
-6.35759999999992
 70
     32
  0
VERTEX
  8
MY3DLAYER
10
11.7484537086879
20
7.86122533313988
30
-6.35759999999992
 70
     32
  0
VERTEX
  8
MY3DLAYER
10
11.7467500000023
20
7.87416628539501
30
-6.35759999999992
 70
     32
  0
VERTEX
  8
MY3DLAYER
10
11.7484537086879
20
7.88710723765014
30
-6.35759999999992
 70
     32
  0
VERTEX
  8
MY3DLAYER
10
11.7534487298131
20
7.89916628539501
30
-6.35759999999992
 70
     32
  0
VERTEX
  8
MY3DLAYER
10
11.761394660943
20
7.90952162445434
30
-6.35759999999992
 70
     32
  0
VERTEX
  8
MY3DLAYER
10
11.7717500000023
20
7.91746755558423
30
-6.35759999999992
 70
     32
  0
VERTEX
  8
MY3DLAYER
10
11.7838090477472
20
7.92246257670946
30
-6.35759999999992
 70
     32
  0
VERTEX
  8
MY3DLAYER
10
11.7967500000023
20
7.92416628539501
30
-6.35759999999992
 70
     32
  0
VERTEX
  8
MY3DLAYER
10
11.7967500000023
20
8.35583371453501
30
-6.35759999999992
 70
     32
  0
VERTEX
  8
MY3DLAYER
10
11.7838090477472
20
8.35753742322056
30
-6.35759999999992
 70
     32
  0
VERTEX
  8
MY3DLAYER
10
11.7717500000023
20
8.36253244434578
30
-6.35759999999992
 70
     32
  0
VERTEX
  8
MY3DLAYER
10
11.761394660943
20
8.37047837547568
30
-6.35759999999992
 70
     32
  0
VERTEX
  8
MY3DLAYER
10
11.7534487298131
20
8.38083371453501
30
-6.35759999999992
 70
     32
  0
VERTEX
  8
MY3DLAYER
10
11.7484537086879
20
8.39289276227988
30
-6.35759999999992
 70
     32
  0
VERTEX
  8
MY3DLAYER
10
11.7467500000023
20
8.40583371453501
30
-6.35759999999992
 70
     32
  0
VERTEX
  8
MY3DLAYER
10
11.7484537086879
20
8.41877466679014
30
-6.35759999999992
 70
     32
  0
VERTEX
  8
MY3DLAYER
10
11.7534487298131
20
8.43083371453501
30
-6.35759999999992
 70
     32
  0
VERTEX
  8
MY3DLAYER
10
11.761394660943
20
8.44118905359434
30
-6.35759999999992
 70
     32
  0
VERTEX
  8
MY3DLAYER
10
11.7717500000023
20
8.44913498472423
30
-6.35759999999992
 70
     32
  0
VERTEX
  8
MY3DLAYER
10
11.7838090477472
20
8.45413000584946
30
-6.35759999999992
 70
     32
  0
VERTEX
  8
MY3DLAYER
10
11.7967500000023
20
8.45583371453501
30
-6.35759999999992
 70
     32
  0
VERTEX
  8
MY3DLAYER
10
11.8096909522575
20
8.45413000584946
30
-6.35759999999992
 70
     32
  0
VERTEX
  8
MY3DLAYER
10
11.8217500000023
20
8.44913498472423
30
-6.35759999999992
 70
     32
  0
VERTEX
  8
MY3DLAYER
10
11.8321053390617
20
8.44118905359434
30
-6.35759999999992
 70
     32
  0
VERTEX
  8
MY3DLAYER
10
11.8400512701916
20
8.43083371453501
30
-6.35759999999992
 70
     32
  0
VERTEX
  8
MY3DLAYER
10
12.2138862298131
20
8.646667429105
30
-6.35759999999992
 70
     32
  0
VERTEX
  8
MY3DLAYER
10
12.2088912086879
20
8.65872647684988
30
-6.35759999999992
 70
     32
  0
VERTEX
  8
MY3DLAYER
10
12.2071875000023
20
8.67166742910501
30
-6.35759999999992
 70
     32
  0
VERTEX
  8
MY3DLAYER
10
12.2088912086879
20
8.68460838136013
30
-6.35759999999992
 70
     32
  0
VERTEX
  8
MY3DLAYER
10
12.2138862298131
20
8.69666742910501
30
-6.35759999999992
 70
     32
  0
VERTEX
  8
MY3DLAYER
10
12.221832160943
20
8.70702276816433
30
-6.35759999999992
 70
     32
  0
VERTEX
  8
MY3DLAYER
10
12.2321875000023
20
8.71496869929423
30
-6.35759999999992
 70
     32
  0
VERTEX
  8
MY3DLAYER
10
12.2442465477472
20
8.71996372041946
30
-6.35759999999992
 70
     32
  0
VERTEX
  8
MY3DLAYER
10
12.2571875000023
20
8.72166742910501
30
-6.35759999999992
 70
     32
  0
VERTEX
  8
MY3DLAYER
10
12.2701284522575
20
8.71996372041946
30
-6.35759999999992
 70
     32
  0
VERTEX
  8
MY3DLAYER
10
12.2821875000023
20
8.71496869929423
30
-6.35759999999992
 70
     32
  0
VERTEX
  8
MY3DLAYER
10
12.2925428390617
20
8.70702276816433
30
-6.35759999999992
 70
     32
  0
VERTEX
  8
MY3DLAYER
10
12.3004887701916
20
8.69666742910501
30
-6.35759999999992
 70
     32
  0
VERTEX
  8
MY3DLAYER
10
12.3054837913168
20
8.68460838136013
30
-6.35759999999992
 70
     32
  0
VERTEX
  8
MY3DLAYER
10
12.3071875000023
20
8.67166742910501
30
-6.35759999999992
 70
     32
  0
VERTEX
  8
MY3DLAYER
10
12.3054837913168
20
8.65872647684988
30
-6.35759999999992
 70
     32
  0
VERTEX
  8
MY3DLAYER
10
12.3004887701916
20
8.64666742910501
30
-6.35759999999992
 70
     32
  0
VERTEX
  8
MY3DLAYER
10
12.6743237298131
20
8.43083371453501
30
-6.35759999999992
 70
     32
  0
VERTEX
  8
MY3DLAYER
10
12.682269660943
20
8.44118905359434
30
-6.35759999999992
 70
     32
  0
VERTEX
  8
MY3DLAYER
10
12.6926250000023
20
8.44913498472423
30
-6.35759999999992
 70
     32
  0
VERTEX
  8
MY3DLAYER
10
12.7046840477472
20
8.45413000584946
30
-6.35759999999992
 70
     32
  0
VERTEX
  8
MY3DLAYER
10
12.7176250000023
20
8.45583371453501
30
-6.35759999999992
 70
     32
  0
VERTEX
  8
MY3DLAYER
10
12.7305659522575
20
8.45413000584946
30
-6.35759999999992
 70
     32
  0
VERTEX
  8
MY3DLAYER
10
12.7426250000023
20
8.44913498472423
30
-6.35759999999992
 70
     32
  0
VERTEX
  8
MY3DLAYER
10
12.7529803390617
20
8.44118905359434
30
-6.35759999999992
 70
     32
  0
VERTEX
  8
MY3DLAYER
10
12.7609262701916
20
8.43083371453501
30
-6.35759999999992
 70
     32
  0
VERTEX
  8
MY3DLAYER
10
12.7659212913168
20
8.41877466679014
30
-6.35759999999992
 70
     32
  0
VERTEX
  8
MY3DLAYER
10
12.7676250000023
20
8.40583371453501
30
-6.35759999999992
 70
     32
  0
VERTEX
  8
MY3DLAYER
10
12.7659212913168
20
8.39289276227988
30
-6.35759999999992
 70
     32
  0
VERTEX
  8
MY3DLAYER
10
12.7609262701916
20
8.38083371453501
30
-6.35759999999992
 70
     32
  0
VERTEX
  8
MY3DLAYER
10
12.7529803390617
20
8.37047837547568
30
-6.35759999999992
 70
     32
  0
VERTEX
  8
MY3DLAYER
10
12.7426250000023
20
8.36253244434578
30
-6.35759999999992
 70
     32
  0
VERTEX
  8
MY3DLAYER
10
12.7305659522575
20
8.35753742322056
30
-6.35759999999992
 70
     32
  0
VERTEX
  8
MY3DLAYER
10
12.7176250000023
20
8.35583371453501
30
-6.35759999999992
 70
     32
  0
VERTEX
  8
MY3DLAYER
10
12.7176250000023
20
7.92416628539501
30
-6.35759999999992
 70
     32
  0
VERTEX
  8
MY3DLAYER
10
12.7305659522575
20
7.92246257670946
30
-6.35759999999992
 70
     32
  0
VERTEX
  8
MY3DLAYER
10
12.7426250000023
20
7.91746755558423
30
-6.35759999999992
 70
     32
  0
VERTEX
  8
MY3DLAYER
10
12.7529803390617
20
7.90952162445434
30
-6.35759999999992
 70
     32
  0
VERTEX
  8
MY3DLAYER
10
12.7609262701916
20
7.89916628539501
30
-6.35759999999992
 70
     32
  0
VERTEX
  8
MY3DLAYER
10
12.7659212913168
20
7.88710723765014
30
-6.35759999999992
 70
     32
  0
VERTEX
  8
MY3DLAYER
10
12.7676250000023
20
7.87416628539501
30
-6.35759999999992
 70
     32
  0
VERTEX
  8
MY3DLAYER
10
12.7659212913168
20
7.86122533313988
30
-6.35759999999992
 70
     32
  0
VERTEX
  8
MY3DLAYER
10
12.7609262701916
20
7.84916628539501
30
-6.35759999999992
 70
     32
  0
VERTEX
  8
MY3DLAYER
10
12.7529803390617
20
7.83881094633568
30
-6.35759999999992
 70
     32
  0
VERTEX
  8
MY3DLAYER
10
12.7426250000023
20
7.83086501520579
30
-6.35759999999992
 70
     32
  0
VERTEX
  8
MY3DLAYER
10
12.7305659522575
20
7.82586999408056
30
-6.35759999999992
 70
     32
  0
VERTEX
  8
MY3DLAYER
10
12.7176250000023
20
7.82416628539501
30
-6.35759999999992
 70
     32
  0
VERTEX
  8
MY3DLAYER
10
12.7046840477472
20
7.82586999408056
30
-6.35759999999992
 70
     32
  0
VERTEX
  8
MY3DLAYER
10
12.6926250000023
20
7.83086501520579
30
-6.35759999999992
 70
     32
  0
VERTEX
  8
MY3DLAYER
10
12.682269660943
20
7.83881094633568
30
-6.35759999999992
 70
     32
  0
VERTEX
  8
MY3DLAYER
10
12.6743237298131
20
7.84916628539501
30
-6.35759999999992
 70
     32
  0
VERTEX
  8
MY3DLAYER
10
12.3004887701916
20
7.63333257082501
30
-6.35759999999992
 70
     32
  0
VERTEX
  8
MY3DLAYER
10
12.3054837913168
20
7.62127352308014
30
-6.35759999999992
 70
     32
  0
VERTEX
  8
MY3DLAYER
10
12.3071875000023
20
7.60833257082501
30
-6.35759999999992
 70
     32
  0
VERTEX
  8
MY3DLAYER
10
12.3054837913168
20
7.59539161856989
30
-6.35759999999992
 70
     32
  0
SEQEND
  0
POLYLINE
 8
Layer0
 66
     1
70
    8
 10
0.0
 20
 0.0
 30
0.0
  0
VERTEX
  8
MY3DLAYER
10
13.8508750000028
20
10.6324675554111
30
-6.35759999999992
 70
     32
  0
VERTEX
  8
MY3DLAYER
10
13.8629340477476
20
10.6374625765364
30
-6.35759999999992
 70
     32
  0
VERTEX
  8
MY3DLAYER
10
13.8758750000028
20
10.6391662852219
30
-6.35759999999992
 70
     32
  0
VERTEX
  8
MY3DLAYER
10
13.8758750000028
20
11.0708337143619
30
-6.35759999999992
 70
     32
  0
VERTEX
  8
MY3DLAYER
10
13.8629340477476
20
11.0725374230474
30
-6.35759999999992
 70
     32
  0
VERTEX
  8
MY3DLAYER
10
13.8508750000028
20
11.0775324441727
30
-6.35759999999992
 70
     32
  0
VERTEX
  8
MY3DLAYER
10
13.8405196609434
20
11.0854783753026
30
-6.35759999999992
 70
     32
  0
VERTEX
  8
MY3DLAYER
10
13.8325737298135
20
11.0958337143619
30
-6.35759999999992
 70
     32
  0
VERTEX
  8
MY3DLAYER
10
13.8275787086883
20
11.1078927621068
30
-6.35759999999992
 70
     32
  0
VERTEX
  8
MY3DLAYER
10
13.8258750000028
20
11.1208337143619
30
-6.35759999999992
 70
     32
  0
VERTEX
  8
MY3DLAYER
10
13.8275787086883
20
11.133774666617
30
-6.35759999999992
 70
     32
  0
VERTEX
  8
MY3DLAYER
10
13.8325737298135
20
11.1458337143619
30
-6.35759999999992
 70
     32
  0
VERTEX
  8
MY3DLAYER
10
13.8405196609434
20
11.1561890534212
30
-6.35759999999992
 70
     32
  0
VERTEX
  8
MY3DLAYER
10
13.8508750000028
20
11.1641349845511
30
-6.35759999999992
 70
     32
  0
VERTEX
  8
MY3DLAYER
10
13.8629340477476
20
11.1691300056764
30
-6.35759999999992
 70
     32
  0
VERTEX
  8
MY3DLAYER
10
13.8758750000028
20
11.1708337143619
30
-6.35759999999992
 70
     32
  0
VERTEX
  8
MY3DLAYER
10
13.8888159522579
20
11.1691300056764
30
-6.35759999999992
 70
     32
  0
VERTEX
  8
MY3DLAYER
10
13.9008750000028
20
11.1641349845511
30
-6.35759999999992
 70
     32
  0
VERTEX
  8
MY3DLAYER
10
13.9112303390621
20
11.1561890534212
30
-6.35759999999992
 70
     32
  0
VERTEX
  8
MY3DLAYER
10
13.919176270192
20
11.1458337143619
30
-6.35759999999992
 70
     32
  0
VERTEX
  8
MY3DLAYER
10
14.2930112298135
20
11.3616674289319
30
-6.35759999999992
 70
     32
  0
VERTEX
  8
MY3DLAYER
10
14.2880162086883
20
11.3737264766768
30
-6.35759999999992
 70
     32
  0
VERTEX
  8
MY3DLAYER
10
14.2863125000028
20
11.3866674289319
30
-6.35759999999992
 70
     32
  0
VERTEX
  8
MY3DLAYER
10
14.2880162086883
20
11.399608381187
30
-6.35759999999992
 70
     32
  0
VERTEX
  8
MY3DLAYER
10
14.2930112298135
20
11.4116674289319
30
-6.35759999999992
 70
     32
  0
VERTEX
  8
MY3DLAYER
10
14.3009571609434
20
11.4220227679912
30
-6.35759999999992
 70
     32
  0
VERTEX
  8
MY3DLAYER
10
14.3113125000028
20
11.4299686991211
30
-6.35759999999992
 70
     32
  0
VERTEX
  8
MY3DLAYER
10
14.3233715477476
20
11.4349637202463
30
-6.35759999999992
 70
     32
  0
VERTEX
  8
MY3DLAYER
10
14.3363125000028
20
11.4366674289319
30
-6.35759999999992
 70
     32
  0
VERTEX
  8
MY3DLAYER
10
14.3492534522579
20
11.4349637202463
30
-6.35759999999992
 70
     32
  0
VERTEX
  8
MY3DLAYER
10
14.3613125000028
20
11.4299686991211
30
-6.35759999999992
 70
     32
  0
VERTEX
  8
MY3DLAYER
10
14.3716678390621
20
11.4220227679912
30
-6.35759999999992
 70
     32
  0
VERTEX
  8
MY3DLAYER
10
14.379613770192
20
11.4116674289319
30
-6.35759999999992
 70
     32
  0
VERTEX
  8
MY3DLAYER
10
14.3846087913172
20
11.399608381187
30
-6.35759999999992
 70
     32
  0
VERTEX
  8
MY3DLAYER
10
14.3863125000028
20
11.3866674289319
30
-6.35759999999992
 70
     32
  0
VERTEX
  8
MY3DLAYER
10
14.3846087913172
20
11.3737264766768
30
-6.35759999999992
 70
     32
  0
VERTEX
  8
MY3DLAYER
10
14.379613770192
20
11.3616674289319
30
-6.35759999999992
 70
     32
  0
VERTEX
  8
MY3DLAYER
10
14.7534487298135
20
11.1458337143619
30
-6.35759999999992
 70
     32
  0
VERTEX
  8
MY3DLAYER
10
14.7613946609434
20
11.1561890534212
30
-6.35759999999992
 70
     32
  0
VERTEX
  8
MY3DLAYER
10
14.7717500000028
20
11.1641349845511
30
-6.35759999999992
 70
     32
  0
VERTEX
  8
MY3DLAYER
10
14.7838090477476
20
11.1691300056764
30
-6.35759999999992
 70
     32
  0
VERTEX
  8
MY3DLAYER
10
14.7967500000028
20
11.1708337143619
30
-6.35759999999992
 70
     32
  0
VERTEX
  8
MY3DLAYER
10
14.8096909522579
20
11.1691300056764
30
-6.35759999999992
 70
     32
  0
VERTEX
  8
MY3DLAYER
10
14.8217500000028
20
11.1641349845511
30
-6.35759999999992
 70
     32
  0
VERTEX
  8
MY3DLAYER
10
14.8321053390621
20
11.1561890534212
30
-6.35759999999992
 70
     32
  0
VERTEX
  8
MY3DLAYER
10
14.840051270192
20
11.1458337143619
30
-6.35759999999992
 70
     32
  0
VERTEX
  8
MY3DLAYER
10
14.8450462913172
20
11.133774666617
30
-6.35759999999992
 70
     32
  0
VERTEX
  8
MY3DLAYER
10
14.8467500000028
20
11.1208337143619
30
-6.35759999999992
 70
     32
  0
VERTEX
  8
MY3DLAYER
10
14.8450462913172
20
11.1078927621068
30
-6.35759999999992
 70
     32
  0
VERTEX
  8
MY3DLAYER
10
14.840051270192
20
11.0958337143619
30
-6.35759999999992
 70
     32
  0
VERTEX
  8
MY3DLAYER
10
14.8321053390621
20
11.0854783753026
30
-6.35759999999992
 70
     32
  0
VERTEX
  8
MY3DLAYER
10
14.8217500000028
20
11.0775324441727
30
-6.35759999999992
 70
     32
  0
VERTEX
  8
MY3DLAYER
10
14.8096909522579
20
11.0725374230474
30
-6.35759999999992
 70
     32
  0
VERTEX
  8
MY3DLAYER
10
14.7967500000028
20
11.0708337143619
30
-6.35759999999992
 70
     32
  0
VERTEX
  8
MY3DLAYER
10
14.7967500000028
20
10.6391662852219
30
-6.35759999999992
 70
     32
  0
VERTEX
  8
MY3DLAYER
10
14.8096909522579
20
10.6374625765364
30
-6.35759999999992
 70
     32
  0
VERTEX
  8
MY3DLAYER
10
14.8217500000028
20
10.6324675554111
30
-6.35759999999992
 70
     32
  0
VERTEX
  8
MY3DLAYER
10
14.8321053390621
20
10.6245216242812
30
-6.35759999999992
 70
     32
  0
VERTEX
  8
MY3DLAYER
10
14.840051270192
20
10.6141662852219
30
-6.35759999999992
 70
     32
  0
VERTEX
  8
MY3DLAYER
10
14.8450462913172
20
10.602107237477
30
-6.35759999999992
 70
     32
  0
VERTEX
  8
MY3DLAYER
10
14.8467500000028
20
10.5891662852219
30
-6.35759999999992
 70
     32
  0
VERTEX
  8
MY3DLAYER
10
14.8450462913172
20
10.5762253329668
30
-6.35759999999992
 70
     32
  0
VERTEX
  8
MY3DLAYER
10
14.840051270192
20
10.5641662852219
30
-6.35759999999992
 70
     32
  0
VERTEX
  8
MY3DLAYER
10
14.8321053390621
20
10.5538109461626
30
-6.35759999999992
 70
     32
  0
VERTEX
  8
MY3DLAYER
10
14.8217500000028
20
10.5458650150327
30
-6.35759999999992
 70
     32
  0
VERTEX
  8
MY3DLAYER
10
14.8096909522579
20
10.5408699939074
30
-6.35759999999992
 70
     32
  0
VERTEX
  8
MY3DLAYER
10
14.7967500000028
20
10.5391662852219
30
-6.35759999999992
 70
     32
  0
VERTEX
  8
MY3DLAYER
10
14.7838090477476
20
10.5408699939074
30
-6.35759999999992
 70
     32
  0
VERTEX
  8
MY3DLAYER
10
14.7717500000028
20
10.5458650150327
30
-6.35759999999992
 70
     32
  0
VERTEX
  8
MY3DLAYER
10
14.7613946609434
20
10.5538109461626
30
-6.35759999999992
 70
     32
  0
VERTEX
  8
MY3DLAYER
10
14.7534487298135
20
10.5641662852219
30
-6.35759999999992
 70
     32
  0
VERTEX
  8
MY3DLAYER
10
14.379613770192
20
10.3483325706519
30
-6.35759999999992
 70
     32
  0
VERTEX
  8
MY3DLAYER
10
14.3846087913172
20
10.336273522907
30
-6.35759999999992
 70
     32
  0
VERTEX
  8
MY3DLAYER
10
14.3863125000028
20
10.3233325706519
30
-6.35759999999992
 70
     32
  0
VERTEX
  8
MY3DLAYER
10
14.3846087913172
20
10.3103916183968
30
-6.35759999999992
 70
     32
  0
VERTEX
  8
MY3DLAYER
10
14.379613770192
20
10.2983325706519
30
-6.35759999999992
 70
     32
  0
VERTEX
  8
MY3DLAYER
10
14.3716678390621
20
10.2879772315926
30
-6.35759999999992
 70
     32
  0
VERTEX
  8
MY3DLAYER
10
14.3613125000028
20
10.2800313004627
30
-6.35759999999992
 70
     32
  0
VERTEX
  8
MY3DLAYER
10
14.3492534522579
20
10.2750362793374
30
-6.35759999999992
 70
     32
  0
VERTEX
  8
MY3DLAYER
10
14.3363125000028
20
10.2733325706519
30
-6.35759999999992
 70
     32
  0
VERTEX
  8
MY3DLAYER
10
14.3233715477476
20
10.2750362793374
30
-6.35759999999992
 70
     32
  0
VERTEX
  8
MY3DLAYER
10
14.3113125000028
20
10.2800313004627
30
-6.35759999999992
 70
     32
  0
VERTEX
  8
MY3DLAYER
10
14.3009571609434
20
10.2879772315926
30
-6.35759999999992
 70
     32
  0
VERTEX
  8
MY3DLAYER
10
14.2930112298135
20
10.2983325706519
30
-6.35759999999992
 70
     32
  0
VERTEX
  8
MY3DLAYER
10
14.2880162086883
20
10.3103916183968
30
-6.35759999999992
 70
     32
  0
VERTEX
  8
MY3DLAYER
10
14.2863125000028
20
10.3233325706519
30
-6.35759999999992
 70
     32
  0
VERTEX
  8
MY3DLAYER
10
14.2880162086883
20
10.336273522907
30
-6.35759999999992
 70
     32
  0
VERTEX
  8
MY3DLAYER
10
14.2930112298135
20
10.3483325706519
30
-6.35759999999992
 70
     32
  0
VERTEX
  8
MY3DLAYER
10
13.919176270192
20
10.5641662852219
30
-6.35759999999992
 70
     32
  0
VERTEX
  8
MY3DLAYER
10
13.9112303390621
20
10.5538109461626
30
-6.35759999999992
 70
     32
  0
VERTEX
  8
MY3DLAYER
10
13.9008750000028
20
10.5458650150327
30
-6.35759999999992
 70
     32
  0
VERTEX
  8
MY3DLAYER
10
13.8888159522579
20
10.5408699939074
30
-6.35759999999992
 70
     32
  0
VERTEX
  8
MY3DLAYER
10
13.8758750000028
20
10.5391662852219
30
-6.35759999999992
 70
     32
  0
VERTEX
  8
MY3DLAYER
10
13.8629340477476
20
10.5408699939074
30
-6.35759999999992
 70
     32
  0
VERTEX
  8
MY3DLAYER
10
13.8508750000028
20
10.5458650150327
30
-6.35759999999992
 70
     32
  0
VERTEX
  8
MY3DLAYER
10
13.8405196609434
20
10.5538109461626
30
-6.35759999999992
 70
     32
  0
VERTEX
  8
MY3DLAYER
10
13.8325737298135
20
10.5641662852219
30
-6.35759999999992
 70
     32
  0
VERTEX
  8
MY3DLAYER
10
13.8275787086883
20
10.5762253329668
30
-6.35759999999992
 70
     32
  0
VERTEX
  8
MY3DLAYER
10
13.8258750000028
20
10.5891662852219
30
-6.35759999999992
 70
     32
  0
VERTEX
  8
MY3DLAYER
10
13.8275787086883
20
10.602107237477
30
-6.35759999999992
 70
     32
  0
VERTEX
  8
MY3DLAYER
10
13.8325737298135
20
10.6141662852219
30
-6.35759999999992
 70
     32
  0
VERTEX
  8
MY3DLAYER
10
13.8405196609434
20
10.6245216242812
30
-6.35759999999992
 70
     32
  0
VERTEX
  8
MY3DLAYER
10
13.8508750000028
20
10.6324675554111
30
-6.35759999999992
 70
     32
  0
SEQEND
  0
POLYLINE
 8
Layer0
 66
     1
70
    8
 10
0.0
 20
 0.0
 30
0.0
  0
VERTEX
  8
MY3DLAYER
10
12.2925428390617
20
11.4220227679912
30
-6.35759999999992
 70
     32
  0
VERTEX
  8
MY3DLAYER
10
12.3004887701916
20
11.4116674289319
30
-6.35759999999992
 70
     32
  0
VERTEX
  8
MY3DLAYER
10
12.3054837913168
20
11.399608381187
30
-6.35759999999992
 70
     32
  0
VERTEX
  8
MY3DLAYER
10
12.3071875000023
20
11.3866674289319
30
-6.35759999999992
 70
     32
  0
VERTEX
  8
MY3DLAYER
10
12.3054837913168
20
11.3737264766768
30
-6.35759999999992
 70
     32
  0
VERTEX
  8
MY3DLAYER
10
12.3004887701916
20
11.3616674289319
30
-6.35759999999992
 70
     32
  0
VERTEX
  8
MY3DLAYER
10
12.6743237298131
20
11.1458337143619
30
-6.35759999999992
 70
     32
  0
VERTEX
  8
MY3DLAYER
10
12.682269660943
20
11.1561890534212
30
-6.35759999999992
 70
     32
  0
VERTEX
  8
MY3DLAYER
10
12.6926250000023
20
11.1641349845511
30
-6.35759999999992
 70
     32
  0
VERTEX
  8
MY3DLAYER
10
12.7046840477472
20
11.1691300056764
30
-6.35759999999992
 70
     32
  0
VERTEX
  8
MY3DLAYER
10
12.7176250000023
20
11.1708337143619
30
-6.35759999999992
 70
     32
  0
VERTEX
  8
MY3DLAYER
10
12.7305659522575
20
11.1691300056764
30
-6.35759999999992
 70
     32
  0
VERTEX
  8
MY3DLAYER
10
12.7426250000023
20
11.1641349845511
30
-6.35759999999992
 70
     32
  0
VERTEX
  8
MY3DLAYER
10
12.7529803390617
20
11.1561890534212
30
-6.35759999999992
 70
     32
  0
VERTEX
  8
MY3DLAYER
10
12.7609262701916
20
11.1458337143619
30
-6.35759999999992
 70
     32
  0
VERTEX
  8
MY3DLAYER
10
12.7659212913168
20
11.133774666617
30
-6.35759999999992
 70
     32
  0
VERTEX
  8
MY3DLAYER
10
12.7676250000023
20
11.1208337143619
30
-6.35759999999992
 70
     32
  0
VERTEX
  8
MY3DLAYER
10
12.7659212913168
20
11.1078927621068
30
-6.35759999999992
 70
     32
  0
VERTEX
  8
MY3DLAYER
10
12.7609262701916
20
11.0958337143619
30
-6.35759999999992
 70
     32
  0
VERTEX
  8
MY3DLAYER
10
12.7529803390617
20
11.0854783753026
30
-6.35759999999992
 70
     32
  0
VERTEX
  8
MY3DLAYER
10
12.7426250000023
20
11.0775324441727
30
-6.35759999999992
 70
     32
  0
VERTEX
  8
MY3DLAYER
10
12.7305659522575
20
11.0725374230474
30
-6.35759999999992
 70
     32
  0
VERTEX
  8
MY3DLAYER
10
12.7176250000023
20
11.0708337143619
30
-6.35759999999992
 70
     32
  0
VERTEX
  8
MY3DLAYER
10
12.7176250000023
20
10.6391662852219
30
-6.35759999999992
 70
     32
  0
VERTEX
  8
MY3DLAYER
10
12.7305659522575
20
10.6374625765364
30
-6.35759999999992
 70
     32
  0
VERTEX
  8
MY3DLAYER
10
12.7426250000023
20
10.6324675554111
30
-6.35759999999992
 70
     32
  0
VERTEX
  8
MY3DLAYER
10
12.7529803390617
20
10.6245216242812
30
-6.35759999999992
 70
     32
  0
VERTEX
  8
MY3DLAYER
10
12.7609262701916
20
10.6141662852219
30
-6.35759999999992
 70
     32
  0
VERTEX
  8
MY3DLAYER
10
12.7659212913168
20
10.602107237477
30
-6.35759999999992
 70
     32
  0
VERTEX
  8
MY3DLAYER
10
12.7676250000023
20
10.5891662852219
30
-6.35759999999992
 70
     32
  0
VERTEX
  8
MY3DLAYER
10
12.7659212913168
20
10.5762253329668
30
-6.35759999999992
 70
     32
  0
VERTEX
  8
MY3DLAYER
10
12.7609262701916
20
10.5641662852219
30
-6.35759999999992
 70
     32
  0
VERTEX
  8
MY3DLAYER
10
12.7529803390617
20
10.5538109461626
30
-6.35759999999992
 70
     32
  0
VERTEX
  8
MY3DLAYER
10
12.7426250000023
20
10.5458650150327
30
-6.35759999999992
 70
     32
  0
VERTEX
  8
MY3DLAYER
10
12.7305659522575
20
10.5408699939074
30
-6.35759999999992
 70
     32
  0
VERTEX
  8
MY3DLAYER
10
12.7176250000023
20
10.5391662852219
30
-6.35759999999992
 70
     32
  0
VERTEX
  8
MY3DLAYER
10
12.7046840477472
20
10.5408699939074
30
-6.35759999999992
 70
     32
  0
VERTEX
  8
MY3DLAYER
10
12.6926250000023
20
10.5458650150327
30
-6.35759999999992
 70
     32
  0
VERTEX
  8
MY3DLAYER
10
12.682269660943
20
10.5538109461626
30
-6.35759999999992
 70
     32
  0
VERTEX
  8
MY3DLAYER
10
12.6743237298131
20
10.5641662852219
30
-6.35759999999992
 70
     32
  0
VERTEX
  8
MY3DLAYER
10
12.3004887701916
20
10.3483325706519
30
-6.35759999999992
 70
     32
  0
VERTEX
  8
MY3DLAYER
10
12.3054837913168
20
10.336273522907
30
-6.35759999999992
 70
     32
  0
VERTEX
  8
MY3DLAYER
10
12.3071875000023
20
10.3233325706519
30
-6.35759999999992
 70
     32
  0
VERTEX
  8
MY3DLAYER
10
12.3054837913168
20
10.3103916183968
30
-6.35759999999992
 70
     32
  0
VERTEX
  8
MY3DLAYER
10
12.3004887701916
20
10.2983325706519
30
-6.35759999999992
 70
     32
  0
VERTEX
  8
MY3DLAYER
10
12.2925428390617
20
10.2879772315926
30
-6.35759999999992
 70
     32
  0
VERTEX
  8
MY3DLAYER
10
12.2821875000023
20
10.2800313004627
30
-6.35759999999992
 70
     32
  0
VERTEX
  8
MY3DLAYER
10
12.2701284522575
20
10.2750362793374
30
-6.35759999999992
 70
     32
  0
VERTEX
  8
MY3DLAYER
10
12.2571875000023
20
10.2733325706519
30
-6.35759999999992
 70
     32
  0
VERTEX
  8
MY3DLAYER
10
12.2442465477472
20
10.2750362793374
30
-6.35759999999992
 70
     32
  0
VERTEX
  8
MY3DLAYER
10
12.2321875000023
20
10.2800313004627
30
-6.35759999999992
 70
     32
  0
VERTEX
  8
MY3DLAYER
10
12.221832160943
20
10.2879772315926
30
-6.35759999999992
 70
     32
  0
VERTEX
  8
MY3DLAYER
10
12.2138862298131
20
10.2983325706519
30
-6.35759999999992
 70
     32
  0
VERTEX
  8
MY3DLAYER
10
12.2088912086879
20
10.3103916183968
30
-6.35759999999992
 70
     32
  0
VERTEX
  8
MY3DLAYER
10
12.2071875000023
20
10.3233325706519
30
-6.35759999999992
 70
     32
  0
VERTEX
  8
MY3DLAYER
10
12.2088912086879
20
10.336273522907
30
-6.35759999999992
 70
     32
  0
VERTEX
  8
MY3DLAYER
10
12.2138862298131
20
10.3483325706519
30
-6.35759999999992
 70
     32
  0
VERTEX
  8
MY3DLAYER
10
11.8400512701916
20
10.5641662852219
30
-6.35759999999992
 70
     32
  0
VERTEX
  8
MY3DLAYER
10
11.8321053390617
20
10.5538109461626
30
-6.35759999999992
 70
     32
  0
VERTEX
  8
MY3DLAYER
10
11.8217500000023
20
10.5458650150327
30
-6.35759999999992
 70
     32
  0
VERTEX
  8
MY3DLAYER
10
11.8096909522575
20
10.5408699939074
30
-6.35759999999992
 70
     32
  0
VERTEX
  8
MY3DLAYER
10
11.7967500000023
20
10.5391662852219
30
-6.35759999999992
 70
     32
  0
VERTEX
  8
MY3DLAYER
10
11.7838090477472
20
10.5408699939074
30
-6.35759999999992
 70
     32
  0
VERTEX
  8
MY3DLAYER
10
11.7717500000023
20
10.5458650150327
30
-6.35759999999992
 70
     32
  0
VERTEX
  8
MY3DLAYER
10
11.761394660943
20
10.5538109461626
30
-6.35759999999992
 70
     32
  0
VERTEX
  8
MY3DLAYER
10
11.7534487298131
20
10.5641662852219
30
-6.35759999999992
 70
     32
  0
VERTEX
  8
MY3DLAYER
10
11.7484537086879
20
10.5762253329668
30
-6.35759999999992
 70
     32
  0
VERTEX
  8
MY3DLAYER
10
11.7467500000023
20
10.5891662852219
30
-6.35759999999992
 70
     32
  0
VERTEX
  8
MY3DLAYER
10
11.7484537086879
20
10.602107237477
30
-6.35759999999992
 70
     32
  0
VERTEX
  8
MY3DLAYER
10
11.7534487298131
20
10.6141662852219
30
-6.35759999999992
 70
     32
  0
VERTEX
  8
MY3DLAYER
10
11.761394660943
20
10.6245216242812
30
-6.35759999999992
 70
     32
  0
VERTEX
  8
MY3DLAYER
10
11.7717500000023
20
10.6324675554111
30
-6.35759999999992
 70
     32
  0
VERTEX
  8
MY3DLAYER
10
11.7838090477472
20
10.6374625765364
30
-6.35759999999992
 70
     32
  0
VERTEX
  8
MY3DLAYER
10
11.7967500000023
20
10.6391662852219
30
-6.35759999999992
 70
     32
  0
VERTEX
  8
MY3DLAYER
10
11.7967500000023
20
11.0708337143619
30
-6.35759999999992
 70
     32
  0
VERTEX
  8
MY3DLAYER
10
11.7838090477472
20
11.0725374230474
30
-6.35759999999992
 70
     32
  0
VERTEX
  8
MY3DLAYER
10
11.7717500000023
20
11.0775324441727
30
-6.35759999999992
 70
     32
  0
VERTEX
  8
MY3DLAYER
10
11.761394660943
20
11.0854783753026
30
-6.35759999999992
 70
     32
  0
VERTEX
  8
MY3DLAYER
10
11.7534487298131
20
11.0958337143619
30
-6.35759999999992
 70
     32
  0
VERTEX
  8
MY3DLAYER
10
11.7484537086879
20
11.1078927621068
30
-6.35759999999992
 70
     32
  0
VERTEX
  8
MY3DLAYER
10
11.7467500000023
20
11.1208337143619
30
-6.35759999999992
 70
     32
  0
VERTEX
  8
MY3DLAYER
10
11.7484537086879
20
11.133774666617
30
-6.35759999999992
 70
     32
  0
VERTEX
  8
MY3DLAYER
10
11.7534487298131
20
11.1458337143619
30
-6.35759999999992
 70
     32
  0
VERTEX
  8
MY3DLAYER
10
11.761394660943
20
11.1561890534212
30
-6.35759999999992
 70
     32
  0
VERTEX
  8
MY3DLAYER
10
11.7717500000023
20
11.1641349845511
30
-6.35759999999992
 70
     32
  0
VERTEX
  8
MY3DLAYER
10
11.7838090477472
20
11.1691300056764
30
-6.35759999999992
 70
     32
  0
VERTEX
  8
MY3DLAYER
10
11.7967500000023
20
11.1708337143619
30
-6.35759999999992
 70
     32
  0
VERTEX
  8
MY3DLAYER
10
11.8096909522575
20
11.1691300056764
30
-6.35759999999992
 70
     32
  0
VERTEX
  8
MY3DLAYER
10
11.8217500000023
20
11.1641349845511
30
-6.35759999999992
 70
     32
  0
VERTEX
  8
MY3DLAYER
10
11.8321053390617
20
11.1561890534212
30
-6.35759999999992
 70
     32
  0
VERTEX
  8
MY3DLAYER
10
11.8400512701916
20
11.1458337143619
30
-6.35759999999992
 70
     32
  0
VERTEX
  8
MY3DLAYER
10
12.2138862298131
20
11.3616674289319
30
-6.35759999999992
 70
     32
  0
VERTEX
  8
MY3DLAYER
10
12.2088912086879
20
11.3737264766768
30
-6.35759999999992
 70
     32
  0
VERTEX
  8
MY3DLAYER
10
12.2071875000023
20
11.3866674289319
30
-6.35759999999992
 70
     32
  0
VERTEX
  8
MY3DLAYER
10
12.2088912086879
20
11.399608381187
30
-6.35759999999992
 70
     32
  0
VERTEX
  8
MY3DLAYER
10
12.2138862298131
20
11.4116674289319
30
-6.35759999999992
 70
     32
  0
VERTEX
  8
MY3DLAYER
10
12.221832160943
20
11.4220227679912
30
-6.35759999999992
 70
     32
  0
VERTEX
  8
MY3DLAYER
10
12.2321875000023
20
11.4299686991211
30
-6.35759999999992
 70
     32
  0
VERTEX
  8
MY3DLAYER
10
12.2442465477472
20
11.4349637202463
30
-6.35759999999992
 70
     32
  0
VERTEX
  8
MY3DLAYER
10
12.2571875000023
20
11.4366674289319
30
-6.35759999999992
 70
     32
  0
VERTEX
  8
MY3DLAYER
10
12.2701284522575
20
11.4349637202463
30
-6.35759999999992
 70
     32
  0
VERTEX
  8
MY3DLAYER
10
12.2821875000023
20
11.4299686991211
30
-6.35759999999992
 70
     32
  0
VERTEX
  8
MY3DLAYER
10
12.2925428390617
20
11.4220227679912
30
-6.35759999999992
 70
     32
  0
SEQEND
  0
POLYLINE
 8
Layer0
 66
     1
70
    8
 10
0.0
 20
 0.0
 30
0.0
  0
VERTEX
  8
MY3DLAYER
10
14.3009571609434
20
14.1370227678181
30
-6.35759999999992
 70
     32
  0
VERTEX
  8
MY3DLAYER
10
14.3113125000028
20
14.144968698948
30
-6.35759999999992
 70
     32
  0
VERTEX
  8
MY3DLAYER
10
14.3233715477476
20
14.1499637200732
30
-6.35759999999992
 70
     32
  0
VERTEX
  8
MY3DLAYER
10
14.3363125000028
20
14.1516674287588
30
-6.35759999999992
 70
     32
  0
VERTEX
  8
MY3DLAYER
10
14.3492534522579
20
14.1499637200732
30
-6.35759999999992
 70
     32
  0
VERTEX
  8
MY3DLAYER
10
14.3613125000028
20
14.144968698948
30
-6.35759999999992
 70
     32
  0
VERTEX
  8
MY3DLAYER
10
14.3716678390621
20
14.1370227678181
30
-6.35759999999992
 70
     32
  0
VERTEX
  8
MY3DLAYER
10
14.379613770192
20
14.1266674287588
30
-6.35759999999992
 70
     32
  0
VERTEX
  8
MY3DLAYER
10
14.3846087913172
20
14.1146083810139
30
-6.35759999999992
 70
     32
  0
VERTEX
  8
MY3DLAYER
10
14.3863125000028
20
14.1016674287588
30
-6.35759999999992
 70
     32
  0
VERTEX
  8
MY3DLAYER
10
14.3846087913172
20
14.0887264765037
30
-6.35759999999992
 70
     32
  0
VERTEX
  8
MY3DLAYER
10
14.379613770192
20
14.0766674287588
30
-6.35759999999992
 70
     32
  0
VERTEX
  8
MY3DLAYER
10
14.7534487298135
20
13.8608337141888
30
-6.35759999999992
 70
     32
  0
VERTEX
  8
MY3DLAYER
10
14.7613946609434
20
13.8711890532481
30
-6.35759999999992
 70
     32
  0
VERTEX
  8
MY3DLAYER
10
14.7717500000028
20
13.879134984378
30
-6.35759999999992
 70
     32
  0
VERTEX
  8
MY3DLAYER
10
14.7838090477476
20
13.8841300055032
30
-6.35759999999992
 70
     32
  0
VERTEX
  8
MY3DLAYER
10
14.7967500000028
20
13.8858337141888
30
-6.35759999999992
 70
     32
  0
VERTEX
  8
MY3DLAYER
10
14.8096909522579
20
13.8841300055032
30
-6.35759999999992
 70
     32
  0
VERTEX
  8
MY3DLAYER
10
14.8217500000028
20
13.879134984378
30
-6.35759999999992
 70
     32
  0
VERTEX
  8
MY3DLAYER
10
14.8321053390621
20
13.8711890532481
30
-6.35759999999992
 70
     32
  0
VERTEX
  8
MY3DLAYER
10
14.840051270192
20
13.8608337141888
30
-6.35759999999992
 70
     32
  0
VERTEX
  8
MY3DLAYER
10
14.8450462913172
20
13.8487746664439
30
-6.35759999999992
 70
     32
  0
VERTEX
  8
MY3DLAYER
10
14.8467500000028
20
13.8358337141888
30
-6.35759999999992
 70
     32
  0
VERTEX
  8
MY3DLAYER
10
14.8450462913172
20
13.8228927619337
30
-6.35759999999992
 70
     32
  0
VERTEX
  8
MY3DLAYER
10
14.840051270192
20
13.8108337141888
30
-6.35759999999992
 70
     32
  0
VERTEX
  8
MY3DLAYER
10
14.8321053390621
20
13.8004783751295
30
-6.35759999999992
 70
     32
  0
VERTEX
  8
MY3DLAYER
10
14.8217500000028
20
13.7925324439996
30
-6.35759999999992
 70
     32
  0
VERTEX
  8
MY3DLAYER
10
14.8096909522579
20
13.7875374228743
30
-6.35759999999992
 70
     32
  0
VERTEX
  8
MY3DLAYER
10
14.7967500000028
20
13.7858337141888
30
-6.35759999999992
 70
     32
  0
VERTEX
  8
MY3DLAYER
10
14.7967500000028
20
13.3541662850488
30
-6.35759999999992
 70
     32
  0
VERTEX
  8
MY3DLAYER
10
14.8096909522579
20
13.3524625763632
30
-6.35759999999992
 70
     32
  0
VERTEX
  8
MY3DLAYER
10
14.8217500000028
20
13.347467555238
30
-6.35759999999992
 70
     32
  0
VERTEX
  8
MY3DLAYER
10
14.8321053390621
20
13.3395216241081
30
-6.35759999999992
 70
     32
  0
VERTEX
  8
MY3DLAYER
10
14.840051270192
20
13.3291662850488
30
-6.35759999999992
 70
     32
  0
VERTEX
  8
MY3DLAYER
10
14.8450462913172
20
13.3171072373039
30
-6.35759999999992
 70
     32
  0
VERTEX
  8
MY3DLAYER
10
14.8467500000028
20
13.3041662850488
30
-6.35759999999992
 70
     32
  0
VERTEX
  8
MY3DLAYER
10
14.8450462913172
20
13.2912253327937
30
-6.35759999999992
 70
     32
  0
VERTEX
  8
MY3DLAYER
10
14.840051270192
20
13.2791662850488
30
-6.35759999999992
 70
     32
  0
VERTEX
  8
MY3DLAYER
10
14.8321053390621
20
13.2688109459895
30
-6.35759999999992
 70
     32
  0
VERTEX
  8
MY3DLAYER
10
14.8217500000028
20
13.2608650148596
30
-6.35759999999992
 70
     32
  0
VERTEX
  8
MY3DLAYER
10
14.8096909522579
20
13.2558699937343
30
-6.35759999999992
 70
     32
  0
VERTEX
  8
MY3DLAYER
10
14.7967500000028
20
13.2541662850488
30
-6.35759999999992
 70
     32
  0
VERTEX
  8
MY3DLAYER
10
14.7838090477476
20
13.2558699937343
30
-6.35759999999992
 70
     32
  0
VERTEX
  8
MY3DLAYER
10
14.7717500000028
20
13.2608650148596
30
-6.35759999999992
 70
     32
  0
VERTEX
  8
MY3DLAYER
10
14.7613946609434
20
13.2688109459895
30
-6.35759999999992
 70
     32
  0
VERTEX
  8
MY3DLAYER
10
14.7534487298135
20
13.2791662850488
30
-6.35759999999992
 70
     32
  0
VERTEX
  8
MY3DLAYER
10
14.379613770192
20
13.0633325704788
30
-6.35759999999992
 70
     32
  0
VERTEX
  8
MY3DLAYER
10
14.3846087913172
20
13.0512735227339
30
-6.35759999999992
 70
     32
  0
VERTEX
  8
MY3DLAYER
10
14.3863125000028
20
13.0383325704788
30
-6.35759999999992
 70
     32
  0
VERTEX
  8
MY3DLAYER
10
14.3846087913172
20
13.0253916182237
30
-6.35759999999992
 70
     32
  0
VERTEX
  8
MY3DLAYER
10
14.379613770192
20
13.0133325704788
30
-6.35759999999992
 70
     32
  0
VERTEX
  8
MY3DLAYER
10
14.3716678390621
20
13.0029772314195
30
-6.35759999999992
 70
     32
  0
VERTEX
  8
MY3DLAYER
10
14.3613125000028
20
12.9950313002896
30
-6.35759999999992
 70
     32
  0
VERTEX
  8
MY3DLAYER
10
14.3492534522579
20
12.9900362791643
30
-6.35759999999992
 70
     32
  0
VERTEX
  8
MY3DLAYER
10
14.3363125000028
20
12.9883325704788
30
-6.35759999999992
 70
     32
  0
VERTEX
  8
MY3DLAYER
10
14.3233715477476
20
12.9900362791643
30
-6.35759999999992
 70
     32
  0
VERTEX
  8
MY3DLAYER
10
14.3113125000028
20
12.9950313002896
30
-6.35759999999992
 70
     32
  0
VERTEX
  8
MY3DLAYER
10
14.3009571609434
20
13.0029772314195
30
-6.35759999999992
 70
     32
  0
VERTEX
  8
MY3DLAYER
10
14.2930112298135
20
13.0133325704788
30
-6.35759999999992
 70
     32
  0
VERTEX
  8
MY3DLAYER
10
14.2880162086883
20
13.0253916182237
30
-6.35759999999992
 70
     32
  0
VERTEX
  8
MY3DLAYER
10
14.2863125000028
20
13.0383325704788
30
-6.35759999999992
 70
     32
  0
VERTEX
  8
MY3DLAYER
10
14.2880162086883
20
13.0512735227339
30
-6.35759999999992
 70
     32
  0
VERTEX
  8
MY3DLAYER
10
14.2930112298135
20
13.0633325704788
30
-6.35759999999992
 70
     32
  0
VERTEX
  8
MY3DLAYER
10
13.919176270192
20
13.2791662850488
30
-6.35759999999992
 70
     32
  0
VERTEX
  8
MY3DLAYER
10
13.9112303390621
20
13.2688109459895
30
-6.35759999999992
 70
     32
  0
VERTEX
  8
MY3DLAYER
10
13.9008750000028
20
13.2608650148596
30
-6.35759999999992
 70
     32
  0
VERTEX
  8
MY3DLAYER
10
13.8888159522579
20
13.2558699937343
30
-6.35759999999992
 70
     32
  0
VERTEX
  8
MY3DLAYER
10
13.8758750000028
20
13.2541662850488
30
-6.35759999999992
 70
     32
  0
VERTEX
  8
MY3DLAYER
10
13.8629340477476
20
13.2558699937343
30
-6.35759999999992
 70
     32
  0
VERTEX
  8
MY3DLAYER
10
13.8508750000028
20
13.2608650148596
30
-6.35759999999992
 70
     32
  0
VERTEX
  8
MY3DLAYER
10
13.8405196609434
20
13.2688109459895
30
-6.35759999999992
 70
     32
  0
VERTEX
  8
MY3DLAYER
10
13.8325737298135
20
13.2791662850488
30
-6.35759999999992
 70
     32
  0
VERTEX
  8
MY3DLAYER
10
13.8275787086883
20
13.2912253327937
30
-6.35759999999992
 70
     32
  0
VERTEX
  8
MY3DLAYER
10
13.8258750000028
20
13.3041662850488
30
-6.35759999999992
 70
     32
  0
VERTEX
  8
MY3DLAYER
10
13.8275787086883
20
13.3171072373039
30
-6.35759999999992
 70
     32
  0
VERTEX
  8
MY3DLAYER
10
13.8325737298135
20
13.3291662850488
30
-6.35759999999992
 70
     32
  0
VERTEX
  8
MY3DLAYER
10
13.8405196609434
20
13.3395216241081
30
-6.35759999999992
 70
     32
  0
VERTEX
  8
MY3DLAYER
10
13.8508750000028
20
13.347467555238
30
-6.35759999999992
 70
     32
  0
VERTEX
  8
MY3DLAYER
10
13.8629340477476
20
13.3524625763632
30
-6.35759999999992
 70
     32
  0
VERTEX
  8
MY3DLAYER
10
13.8758750000028
20
13.3541662850488
30
-6.35759999999992
 70
     32
  0
VERTEX
  8
MY3DLAYER
10
13.8758750000028
20
13.7858337141888
30
-6.35759999999992
 70
     32
  0
VERTEX
  8
MY3DLAYER
10
13.8629340477476
20
13.7875374228743
30
-6.35759999999992
 70
     32
  0
VERTEX
  8
MY3DLAYER
10
13.8508750000028
20
13.7925324439996
30
-6.35759999999992
 70
     32
  0
VERTEX
  8
MY3DLAYER
10
13.8405196609434
20
13.8004783751295
30
-6.35759999999992
 70
     32
  0
VERTEX
  8
MY3DLAYER
10
13.8325737298135
20
13.8108337141888
30
-6.35759999999992
 70
     32
  0
VERTEX
  8
MY3DLAYER
10
13.8275787086883
20
13.8228927619337
30
-6.35759999999992
 70
     32
  0
VERTEX
  8
MY3DLAYER
10
13.8258750000028
20
13.8358337141888
30
-6.35759999999992
 70
     32
  0
VERTEX
  8
MY3DLAYER
10
13.8275787086883
20
13.8487746664439
30
-6.35759999999992
 70
     32
  0
VERTEX
  8
MY3DLAYER
10
13.8325737298135
20
13.8608337141888
30
-6.35759999999992
 70
     32
  0
VERTEX
  8
MY3DLAYER
10
13.8405196609434
20
13.8711890532481
30
-6.35759999999992
 70
     32
  0
VERTEX
  8
MY3DLAYER
10
13.8508750000028
20
13.879134984378
30
-6.35759999999992
 70
     32
  0
VERTEX
  8
MY3DLAYER
10
13.8629340477476
20
13.8841300055032
30
-6.35759999999992
 70
     32
  0
VERTEX
  8
MY3DLAYER
10
13.8758750000028
20
13.8858337141888
30
-6.35759999999992
 70
     32
  0
VERTEX
  8
MY3DLAYER
10
13.8888159522579
20
13.8841300055032
30
-6.35759999999992
 70
     32
  0
VERTEX
  8
MY3DLAYER
10
13.9008750000028
20
13.879134984378
30
-6.35759999999992
 70
     32
  0
VERTEX
  8
MY3DLAYER
10
13.9112303390621
20
13.8711890532481
30
-6.35759999999992
 70
     32
  0
VERTEX
  8
MY3DLAYER
10
13.919176270192
20
13.8608337141888
30
-6.35759999999992
 70
     32
  0
VERTEX
  8
MY3DLAYER
10
14.2930112298135
20
14.0766674287588
30
-6.35759999999992
 70
     32
  0
VERTEX
  8
MY3DLAYER
10
14.2880162086883
20
14.0887264765037
30
-6.35759999999992
 70
     32
  0
VERTEX
  8
MY3DLAYER
10
14.2863125000028
20
14.1016674287588
30
-6.35759999999992
 70
     32
  0
VERTEX
  8
MY3DLAYER
10
14.2880162086883
20
14.1146083810139
30
-6.35759999999992
 70
     32
  0
VERTEX
  8
MY3DLAYER
10
14.2930112298135
20
14.1266674287588
30
-6.35759999999992
 70
     32
  0
VERTEX
  8
MY3DLAYER
10
14.3009571609434
20
14.1370227678181
30
-6.35759999999992
 70
     32
  0
SEQEND
  0
POLYLINE
 8
Layer0
 66
     1
70
    8
 10
0.0
 20
 0.0
 30
0.0
  0
VERTEX
  8
MY3DLAYER
10
12.7529803390617
20
13.8004783751295
30
-6.35759999999992
 70
     32
  0
VERTEX
  8
MY3DLAYER
10
12.7426250000023
20
13.7925324439996
30
-6.35759999999992
 70
     32
  0
VERTEX
  8
MY3DLAYER
10
12.7305659522575
20
13.7875374228743
30
-6.35759999999992
 70
     32
  0
VERTEX
  8
MY3DLAYER
10
12.7176250000023
20
13.7858337141888
30
-6.35759999999992
 70
     32
  0
VERTEX
  8
MY3DLAYER
10
12.7176250000023
20
13.3541662850488
30
-6.35759999999992
 70
     32
  0
VERTEX
  8
MY3DLAYER
10
12.7305659522575
20
13.3524625763632
30
-6.35759999999992
 70
     32
  0
VERTEX
  8
MY3DLAYER
10
12.7426250000023
20
13.347467555238
30
-6.35759999999992
 70
     32
  0
VERTEX
  8
MY3DLAYER
10
12.7529803390617
20
13.3395216241081
30
-6.35759999999992
 70
     32
  0
VERTEX
  8
MY3DLAYER
10
12.7609262701916
20
13.3291662850488
30
-6.35759999999992
 70
     32
  0
VERTEX
  8
MY3DLAYER
10
12.7659212913168
20
13.3171072373039
30
-6.35759999999992
 70
     32
  0
VERTEX
  8
MY3DLAYER
10
12.7676250000023
20
13.3041662850488
30
-6.35759999999992
 70
     32
  0
VERTEX
  8
MY3DLAYER
10
12.7659212913168
20
13.2912253327937
30
-6.35759999999992
 70
     32
  0
VERTEX
  8
MY3DLAYER
10
12.7609262701916
20
13.2791662850488
30
-6.35759999999992
 70
     32
  0
VERTEX
  8
MY3DLAYER
10
12.7529803390617
20
13.2688109459895
30
-6.35759999999992
 70
     32
  0
VERTEX
  8
MY3DLAYER
10
12.7426250000023
20
13.2608650148596
30
-6.35759999999992
 70
     32
  0
VERTEX
  8
MY3DLAYER
10
12.7305659522575
20
13.2558699937343
30
-6.35759999999992
 70
     32
  0
VERTEX
  8
MY3DLAYER
10
12.7176250000023
20
13.2541662850488
30
-6.35759999999992
 70
     32
  0
VERTEX
  8
MY3DLAYER
10
12.7046840477472
20
13.2558699937343
30
-6.35759999999992
 70
     32
  0
VERTEX
  8
MY3DLAYER
10
12.6926250000023
20
13.2608650148596
30
-6.35759999999992
 70
     32
  0
VERTEX
  8
MY3DLAYER
10
12.682269660943
20
13.2688109459895
30
-6.35759999999992
 70
     32
  0
VERTEX
  8
MY3DLAYER
10
12.6743237298131
20
13.2791662850488
30
-6.35759999999992
 70
     32
  0
VERTEX
  8
MY3DLAYER
10
12.3004887701916
20
13.0633325704788
30
-6.35759999999992
 70
     32
  0
VERTEX
  8
MY3DLAYER
10
12.3054837913168
20
13.0512735227339
30
-6.35759999999992
 70
     32
  0
VERTEX
  8
MY3DLAYER
10
12.3071875000023
20
13.0383325704788
30
-6.35759999999992
 70
     32
  0
VERTEX
  8
MY3DLAYER
10
12.3054837913168
20
13.0253916182237
30
-6.35759999999992
 70
     32
  0
VERTEX
  8
MY3DLAYER
10
12.3004887701916
20
13.0133325704788
30
-6.35759999999992
 70
     32
  0
VERTEX
  8
MY3DLAYER
10
12.2925428390617
20
13.0029772314195
30
-6.35759999999992
 70
     32
  0
VERTEX
  8
MY3DLAYER
10
12.2821875000023
20
12.9950313002896
30
-6.35759999999992
 70
     32
  0
VERTEX
  8
MY3DLAYER
10
12.2701284522575
20
12.9900362791643
30
-6.35759999999992
 70
     32
  0
VERTEX
  8
MY3DLAYER
10
12.2571875000023
20
12.9883325704788
30
-6.35759999999992
 70
     32
  0
VERTEX
  8
MY3DLAYER
10
12.2442465477472
20
12.9900362791643
30
-6.35759999999992
 70
     32
  0
VERTEX
  8
MY3DLAYER
10
12.2321875000023
20
12.9950313002896
30
-6.35759999999992
 70
     32
  0
VERTEX
  8
MY3DLAYER
10
12.221832160943
20
13.0029772314195
30
-6.35759999999992
 70
     32
  0
VERTEX
  8
MY3DLAYER
10
12.2138862298131
20
13.0133325704788
30
-6.35759999999992
 70
     32
  0
VERTEX
  8
MY3DLAYER
10
12.2088912086879
20
13.0253916182237
30
-6.35759999999992
 70
     32
  0
VERTEX
  8
MY3DLAYER
10
12.2071875000023
20
13.0383325704788
30
-6.35759999999992
 70
     32
  0
VERTEX
  8
MY3DLAYER
10
12.2088912086879
20
13.0512735227339
30
-6.35759999999992
 70
     32
  0
VERTEX
  8
MY3DLAYER
10
12.2138862298131
20
13.0633325704788
30
-6.35759999999992
 70
     32
  0
VERTEX
  8
MY3DLAYER
10
11.8400512701916
20
13.2791662850488
30
-6.35759999999992
 70
     32
  0
VERTEX
  8
MY3DLAYER
10
11.8321053390617
20
13.2688109459895
30
-6.35759999999992
 70
     32
  0
VERTEX
  8
MY3DLAYER
10
11.8217500000023
20
13.2608650148596
30
-6.35759999999992
 70
     32
  0
VERTEX
  8
MY3DLAYER
10
11.8096909522575
20
13.2558699937343
30
-6.35759999999992
 70
     32
  0
VERTEX
  8
MY3DLAYER
10
11.7967500000023
20
13.2541662850488
30
-6.35759999999992
 70
     32
  0
VERTEX
  8
MY3DLAYER
10
11.7838090477472
20
13.2558699937343
30
-6.35759999999992
 70
     32
  0
VERTEX
  8
MY3DLAYER
10
11.7717500000023
20
13.2608650148596
30
-6.35759999999992
 70
     32
  0
VERTEX
  8
MY3DLAYER
10
11.761394660943
20
13.2688109459895
30
-6.35759999999992
 70
     32
  0
VERTEX
  8
MY3DLAYER
10
11.7534487298131
20
13.2791662850488
30
-6.35759999999992
 70
     32
  0
VERTEX
  8
MY3DLAYER
10
11.7484537086879
20
13.2912253327937
30
-6.35759999999992
 70
     32
  0
VERTEX
  8
MY3DLAYER
10
11.7467500000023
20
13.3041662850488
30
-6.35759999999992
 70
     32
  0
VERTEX
  8
MY3DLAYER
10
11.7484537086879
20
13.3171072373039
30
-6.35759999999992
 70
     32
  0
VERTEX
  8
MY3DLAYER
10
11.7534487298131
20
13.3291662850488
30
-6.35759999999992
 70
     32
  0
VERTEX
  8
MY3DLAYER
10
11.761394660943
20
13.3395216241081
30
-6.35759999999992
 70
     32
  0
VERTEX
  8
MY3DLAYER
10
11.7717500000023
20
13.347467555238
30
-6.35759999999992
 70
     32
  0
VERTEX
  8
MY3DLAYER
10
11.7838090477472
20
13.3524625763632
30
-6.35759999999992
 70
     32
  0
VERTEX
  8
MY3DLAYER
10
11.7967500000023
20
13.3541662850488
30
-6.35759999999992
 70
     32
  0
VERTEX
  8
MY3DLAYER
10
11.7967500000023
20
13.7858337141888
30
-6.35759999999992
 70
     32
  0
VERTEX
  8
MY3DLAYER
10
11.7838090477472
20
13.7875374228743
30
-6.35759999999992
 70
     32
  0
VERTEX
  8
MY3DLAYER
10
11.7717500000023
20
13.7925324439996
30
-6.35759999999992
 70
     32
  0
VERTEX
  8
MY3DLAYER
10
11.761394660943
20
13.8004783751295
30
-6.35759999999992
 70
     32
  0
VERTEX
  8
MY3DLAYER
10
11.7534487298131
20
13.8108337141888
30
-6.35759999999992
 70
     32
  0
VERTEX
  8
MY3DLAYER
10
11.7484537086879
20
13.8228927619337
30
-6.35759999999992
 70
     32
  0
VERTEX
  8
MY3DLAYER
10
11.7467500000023
20
13.8358337141888
30
-6.35759999999992
 70
     32
  0
VERTEX
  8
MY3DLAYER
10
11.7484537086879
20
13.8487746664439
30
-6.35759999999992
 70
     32
  0
VERTEX
  8
MY3DLAYER
10
11.7534487298131
20
13.8608337141888
30
-6.35759999999992
 70
     32
  0
VERTEX
  8
MY3DLAYER
10
11.761394660943
20
13.8711890532481
30
-6.35759999999992
 70
     32
  0
VERTEX
  8
MY3DLAYER
10
11.7717500000023
20
13.879134984378
30
-6.35759999999992
 70
     32
  0
VERTEX
  8
MY3DLAYER
10
11.7838090477472
20
13.8841300055032
30
-6.35759999999992
 70
     32
  0
VERTEX
  8
MY3DLAYER
10
11.7967500000023
20
13.8858337141888
30
-6.35759999999992
 70
     32
  0
VERTEX
  8
MY3DLAYER
10
11.8096909522575
20
13.8841300055032
30
-6.35759999999992
 70
     32
  0
VERTEX
  8
MY3DLAYER
10
11.8217500000023
20
13.879134984378
30
-6.35759999999992
 70
     32
  0
VERTEX
  8
MY3DLAYER
10
11.8321053390617
20
13.8711890532481
30
-6.35759999999992
 70
     32
  0
VERTEX
  8
MY3DLAYER
10
11.8400512701916
20
13.8608337141888
30
-6.35759999999992
 70
     32
  0
VERTEX
  8
MY3DLAYER
10
12.2138862298131
20
14.0766674287588
30
-6.35759999999992
 70
     32
  0
VERTEX
  8
MY3DLAYER
10
12.2088912086879
20
14.0887264765037
30
-6.35759999999992
 70
     32
  0
VERTEX
  8
MY3DLAYER
10
12.2071875000023
20
14.1016674287588
30
-6.35759999999992
 70
     32
  0
VERTEX
  8
MY3DLAYER
10
12.2088912086879
20
14.1146083810139
30
-6.35759999999992
 70
     32
  0
VERTEX
  8
MY3DLAYER
10
12.2138862298131
20
14.1266674287588
30
-6.35759999999992
 70
     32
  0
VERTEX
  8
MY3DLAYER
10
12.221832160943
20
14.1370227678181
30
-6.35759999999992
 70
     32
  0
VERTEX
  8
MY3DLAYER
10
12.2321875000023
20
14.144968698948
30
-6.35759999999992
 70
     32
  0
VERTEX
  8
MY3DLAYER
10
12.2442465477472
20
14.1499637200732
30
-6.35759999999992
 70
     32
  0
VERTEX
  8
MY3DLAYER
10
12.2571875000023
20
14.1516674287588
30
-6.35759999999992
 70
     32
  0
VERTEX
  8
MY3DLAYER
10
12.2701284522575
20
14.1499637200732
30
-6.35759999999992
 70
     32
  0
VERTEX
  8
MY3DLAYER
10
12.2821875000023
20
14.144968698948
30
-6.35759999999992
 70
     32
  0
VERTEX
  8
MY3DLAYER
10
12.2925428390617
20
14.1370227678181
30
-6.35759999999992
 70
     32
  0
VERTEX
  8
MY3DLAYER
10
12.3004887701916
20
14.1266674287588
30
-6.35759999999992
 70
     32
  0
VERTEX
  8
MY3DLAYER
10
12.3054837913168
20
14.1146083810139
30
-6.35759999999992
 70
     32
  0
VERTEX
  8
MY3DLAYER
10
12.3071875000023
20
14.1016674287588
30
-6.35759999999992
 70
     32
  0
VERTEX
  8
MY3DLAYER
10
12.3054837913168
20
14.0887264765037
30
-6.35759999999992
 70
     32
  0
VERTEX
  8
MY3DLAYER
10
12.3004887701916
20
14.0766674287588
30
-6.35759999999992
 70
     32
  0
VERTEX
  8
MY3DLAYER
10
12.6743237298131
20
13.8608337141888
30
-6.35759999999992
 70
     32
  0
VERTEX
  8
MY3DLAYER
10
12.682269660943
20
13.8711890532481
30
-6.35759999999992
 70
     32
  0
VERTEX
  8
MY3DLAYER
10
12.6926250000023
20
13.879134984378
30
-6.35759999999992
 70
     32
  0
VERTEX
  8
MY3DLAYER
10
12.7046840477472
20
13.8841300055032
30
-6.35759999999992
 70
     32
  0
VERTEX
  8
MY3DLAYER
10
12.7176250000023
20
13.8858337141888
30
-6.35759999999992
 70
     32
  0
VERTEX
  8
MY3DLAYER
10
12.7305659522575
20
13.8841300055032
30
-6.35759999999992
 70
     32
  0
VERTEX
  8
MY3DLAYER
10
12.7426250000023
20
13.879134984378
30
-6.35759999999992
 70
     32
  0
VERTEX
  8
MY3DLAYER
10
12.7529803390617
20
13.8711890532481
30
-6.35759999999992
 70
     32
  0
VERTEX
  8
MY3DLAYER
10
12.7609262701916
20
13.8608337141888
30
-6.35759999999992
 70
     32
  0
VERTEX
  8
MY3DLAYER
10
12.7659212913168
20
13.8487746664439
30
-6.35759999999992
 70
     32
  0
VERTEX
  8
MY3DLAYER
10
12.7676250000023
20
13.8358337141888
30
-6.35759999999992
 70
     32
  0
VERTEX
  8
MY3DLAYER
10
12.7659212913168
20
13.8228927619337
30
-6.35759999999992
 70
     32
  0
VERTEX
  8
MY3DLAYER
10
12.7609262701916
20
13.8108337141888
30
-6.35759999999992
 70
     32
  0
VERTEX
  8
MY3DLAYER
10
12.7529803390617
20
13.8004783751295
30
-6.35759999999992
 70
     32
  0
SEQEND
  0
POLYLINE
 8
Layer0
 66
     1
70
    8
 10
0.0
 20
 0.0
 30
0.0
  0
VERTEX
  8
MY3DLAYER
10
12.7659212913168
20
16.5637746662708
30
-6.35759999999992
 70
     32
  0
VERTEX
  8
MY3DLAYER
10
12.7676250000023
20
16.5508337140157
30
-6.35759999999992
 70
     32
  0
VERTEX
  8
MY3DLAYER
10
12.7659212913168
20
16.5378927617605
30
-6.35759999999992
 70
     32
  0
VERTEX
  8
MY3DLAYER
10
12.7609262701916
20
16.5258337140157
30
-6.35759999999992
 70
     32
  0
VERTEX
  8
MY3DLAYER
10
12.7529803390617
20
16.5154783749563
30
-6.35759999999992
 70
     32
  0
VERTEX
  8
MY3DLAYER
10
12.7426250000023
20
16.5075324438265
30
-6.35759999999992
 70
     32
  0
VERTEX
  8
MY3DLAYER
10
12.7305659522575
20
16.5025374227012
30
-6.35759999999992
 70
     32
  0
VERTEX
  8
MY3DLAYER
10
12.7176250000023
20
16.5008337140157
30
-6.35759999999992
 70
     32
  0
VERTEX
  8
MY3DLAYER
10
12.7176250000023
20
16.0691662848757
30
-6.35759999999992
 70
     32
  0
VERTEX
  8
MY3DLAYER
10
12.7305659522575
20
16.0674625761901
30
-6.35759999999992
 70
     32
  0
VERTEX
  8
MY3DLAYER
10
12.7426250000023
20
16.0624675550649
30
-6.35759999999992
 70
     32
  0
VERTEX
  8
MY3DLAYER
10
12.7529803390617
20
16.054521623935
30
-6.35759999999992
 70
     32
  0
VERTEX
  8
MY3DLAYER
10
12.7609262701916
20
16.0441662848757
30
-6.35759999999992
 70
     32
  0
VERTEX
  8
MY3DLAYER
10
12.7659212913168
20
16.0321072371308
30
-6.35759999999992
 70
     32
  0
VERTEX
  8
MY3DLAYER
10
12.7676250000023
20
16.0191662848757
30
-6.35759999999992
 70
     32
  0
VERTEX
  8
MY3DLAYER
10
12.7659212913168
20
16.0062253326206
30
-6.35759999999992
 70
     32
  0
VERTEX
  8
MY3DLAYER
10
12.7609262701916
20
15.9941662848757
30
-6.35759999999992
 70
     32
  0
VERTEX
  8
MY3DLAYER
10
12.7529803390617
20
15.9838109458164
30
-6.35759999999992
 70
     32
  0
VERTEX
  8
MY3DLAYER
10
12.7426250000023
20
15.9758650146865
30
-6.35759999999992
 70
     32
  0
VERTEX
  8
MY3DLAYER
10
12.7305659522575
20
15.9708699935612
30
-6.35759999999992
 70
     32
  0
VERTEX
  8
MY3DLAYER
10
12.7176250000023
20
15.9691662848757
30
-6.35759999999992
 70
     32
  0
VERTEX
  8
MY3DLAYER
10
12.7046840477472
20
15.9708699935612
30
-6.35759999999992
 70
     32
  0
VERTEX
  8
MY3DLAYER
10
12.6926250000023
20
15.9758650146865
30
-6.35759999999992
 70
     32
  0
VERTEX
  8
MY3DLAYER
10
12.682269660943
20
15.9838109458164
30
-6.35759999999992
 70
     32
  0
VERTEX
  8
MY3DLAYER
10
12.6743237298131
20
15.9941662848757
30
-6.35759999999992
 70
     32
  0
VERTEX
  8
MY3DLAYER
10
12.3004887701916
20
15.7783325703057
30
-6.35759999999992
 70
     32
  0
VERTEX
  8
MY3DLAYER
10
12.3054837913168
20
15.7662735225608
30
-6.35759999999992
 70
     32
  0
VERTEX
  8
MY3DLAYER
10
12.3071875000023
20
15.7533325703057
30
-6.35759999999992
 70
     32
  0
VERTEX
  8
MY3DLAYER
10
12.3054837913168
20
15.7403916180506
30
-6.35759999999992
 70
     32
  0
VERTEX
  8
MY3DLAYER
10
12.3004887701916
20
15.7283325703057
30
-6.35759999999992
 70
     32
  0
VERTEX
  8
MY3DLAYER
10
12.2925428390617
20
15.7179772312464
30
-6.35759999999992
 70
     32
  0
VERTEX
  8
MY3DLAYER
10
12.2821875000023
20
15.7100313001165
30
-6.35759999999992
 70
     32
  0
VERTEX
  8
MY3DLAYER
10
12.2701284522575
20
15.7050362789912
30
-6.35759999999992
 70
     32
  0
VERTEX
  8
MY3DLAYER
10
12.2571875000023
20
15.7033325703057
30
-6.35759999999992
 70
     32
  0
VERTEX
  8
MY3DLAYER
10
12.2442465477472
20
15.7050362789912
30
-6.35759999999992
 70
     32
  0
VERTEX
  8
MY3DLAYER
10
12.2321875000023
20
15.7100313001165
30
-6.35759999999992
 70
     32
  0
VERTEX
  8
MY3DLAYER
10
12.221832160943
20
15.7179772312464
30
-6.35759999999992
 70
     32
  0
VERTEX
  8
MY3DLAYER
10
12.2138862298131
20
15.7283325703057
30
-6.35759999999992
 70
     32
  0
VERTEX
  8
MY3DLAYER
10
12.2088912086879
20
15.7403916180506
30
-6.35759999999992
 70
     32
  0
VERTEX
  8
MY3DLAYER
10
12.2071875000023
20
15.7533325703057
30
-6.35759999999992
 70
     32
  0
VERTEX
  8
MY3DLAYER
10
12.2088912086879
20
15.7662735225608
30
-6.35759999999992
 70
     32
  0
VERTEX
  8
MY3DLAYER
10
12.2138862298131
20
15.7783325703057
30
-6.35759999999992
 70
     32
  0
VERTEX
  8
MY3DLAYER
10
11.8400512701916
20
15.9941662848757
30
-6.35759999999992
 70
     32
  0
VERTEX
  8
MY3DLAYER
10
11.8321053390617
20
15.9838109458164
30
-6.35759999999992
 70
     32
  0
VERTEX
  8
MY3DLAYER
10
11.8217500000023
20
15.9758650146865
30
-6.35759999999992
 70
     32
  0
VERTEX
  8
MY3DLAYER
10
11.8096909522575
20
15.9708699935612
30
-6.35759999999992
 70
     32
  0
VERTEX
  8
MY3DLAYER
10
11.7967500000023
20
15.9691662848757
30
-6.35759999999992
 70
     32
  0
VERTEX
  8
MY3DLAYER
10
11.7838090477472
20
15.9708699935612
30
-6.35759999999992
 70
     32
  0
VERTEX
  8
MY3DLAYER
10
11.7717500000023
20
15.9758650146865
30
-6.35759999999992
 70
     32
  0
VERTEX
  8
MY3DLAYER
10
11.761394660943
20
15.9838109458164
30
-6.35759999999992
 70
     32
  0
VERTEX
  8
MY3DLAYER
10
11.7534487298131
20
15.9941662848757
30
-6.35759999999992
 70
     32
  0
VERTEX
  8
MY3DLAYER
10
11.7484537086879
20
16.0062253326206
30
-6.35759999999992
 70
     32
  0
VERTEX
  8
MY3DLAYER
10
11.7467500000023
20
16.0191662848757
30
-6.35759999999992
 70
     32
  0
VERTEX
  8
MY3DLAYER
10
11.7484537086879
20
16.0321072371308
30
-6.35759999999992
 70
     32
  0
VERTEX
  8
MY3DLAYER
10
11.7534487298131
20
16.0441662848757
30
-6.35759999999992
 70
     32
  0
VERTEX
  8
MY3DLAYER
10
11.761394660943
20
16.054521623935
30
-6.35759999999992
 70
     32
  0
VERTEX
  8
MY3DLAYER
10
11.7717500000023
20
16.0624675550649
30
-6.35759999999992
 70
     32
  0
VERTEX
  8
MY3DLAYER
10
11.7838090477472
20
16.0674625761901
30
-6.35759999999992
 70
     32
  0
VERTEX
  8
MY3DLAYER
10
11.7967500000023
20
16.0691662848757
30
-6.35759999999992
 70
     32
  0
VERTEX
  8
MY3DLAYER
10
11.7967500000023
20
16.5008337140157
30
-6.35759999999992
 70
     32
  0
VERTEX
  8
MY3DLAYER
10
11.7838090477472
20
16.5025374227012
30
-6.35759999999992
 70
     32
  0
VERTEX
  8
MY3DLAYER
10
11.7717500000023
20
16.5075324438265
30
-6.35759999999992
 70
     32
  0
VERTEX
  8
MY3DLAYER
10
11.761394660943
20
16.5154783749563
30
-6.35759999999992
 70
     32
  0
VERTEX
  8
MY3DLAYER
10
11.7534487298131
20
16.5258337140157
30
-6.35759999999992
 70
     32
  0
VERTEX
  8
MY3DLAYER
10
11.7484537086879
20
16.5378927617605
30
-6.35759999999992
 70
     32
  0
VERTEX
  8
MY3DLAYER
10
11.7467500000023
20
16.5508337140157
30
-6.35759999999992
 70
     32
  0
VERTEX
  8
MY3DLAYER
10
11.7484537086879
20
16.5637746662708
30
-6.35759999999992
 70
     32
  0
VERTEX
  8
MY3DLAYER
10
11.7534487298131
20
16.5758337140157
30
-6.35759999999992
 70
     32
  0
VERTEX
  8
MY3DLAYER
10
11.761394660943
20
16.586189053075
30
-6.35759999999992
 70
     32
  0
VERTEX
  8
MY3DLAYER
10
11.7717500000023
20
16.5941349842049
30
-6.35759999999992
 70
     32
  0
VERTEX
  8
MY3DLAYER
10
11.7838090477472
20
16.5991300053301
30
-6.35759999999992
 70
     32
  0
VERTEX
  8
MY3DLAYER
10
11.7967500000023
20
16.6008337140157
30
-6.35759999999992
 70
     32
  0
VERTEX
  8
MY3DLAYER
10
11.8096909522575
20
16.5991300053301
30
-6.35759999999992
 70
     32
  0
VERTEX
  8
MY3DLAYER
10
11.8217500000023
20
16.5941349842049
30
-6.35759999999992
 70
     32
  0
VERTEX
  8
MY3DLAYER
10
11.8321053390617
20
16.586189053075
30
-6.35759999999992
 70
     32
  0
VERTEX
  8
MY3DLAYER
10
11.8400512701916
20
16.5758337140157
30
-6.35759999999992
 70
     32
  0
VERTEX
  8
MY3DLAYER
10
12.2138862298131
20
16.7916674285857
30
-6.35759999999992
 70
     32
  0
VERTEX
  8
MY3DLAYER
10
12.2088912086879
20
16.8037264763305
30
-6.35759999999992
 70
     32
  0
VERTEX
  8
MY3DLAYER
10
12.2071875000023
20
16.8166674285857
30
-6.35759999999992
 70
     32
  0
VERTEX
  8
MY3DLAYER
10
12.2088912086879
20
16.8296083808408
30
-6.35759999999992
 70
     32
  0
VERTEX
  8
MY3DLAYER
10
12.2138862298131
20
16.8416674285857
30
-6.35759999999992
 70
     32
  0
VERTEX
  8
MY3DLAYER
10
12.221832160943
20
16.852022767645
30
-6.35759999999992
 70
     32
  0
VERTEX
  8
MY3DLAYER
10
12.2321875000023
20
16.8599686987749
30
-6.35759999999992
 70
     32
  0
VERTEX
  8
MY3DLAYER
10
12.2442465477472
20
16.8649637199001
30
-6.35759999999992
 70
     32
  0
VERTEX
  8
MY3DLAYER
10
12.2571875000023
20
16.8666674285857
30
-6.35759999999992
 70
     32
  0
VERTEX
  8
MY3DLAYER
10
12.2701284522575
20
16.8649637199001
30
-6.35759999999992
 70
     32
  0
VERTEX
  8
MY3DLAYER
10
12.2821875000023
20
16.8599686987749
30
-6.35759999999992
 70
     32
  0
VERTEX
  8
MY3DLAYER
10
12.2925428390617
20
16.852022767645
30
-6.35759999999992
 70
     32
  0
VERTEX
  8
MY3DLAYER
10
12.3004887701916
20
16.8416674285857
30
-6.35759999999992
 70
     32
  0
VERTEX
  8
MY3DLAYER
10
12.3054837913168
20
16.8296083808408
30
-6.35759999999992
 70
     32
  0
VERTEX
  8
MY3DLAYER
10
12.3071875000023
20
16.8166674285857
30
-6.35759999999992
 70
     32
  0
VERTEX
  8
MY3DLAYER
10
12.3054837913168
20
16.8037264763305
30
-6.35759999999992
 70
     32
  0
VERTEX
  8
MY3DLAYER
10
12.3004887701916
20
16.7916674285857
30
-6.35759999999992
 70
     32
  0
VERTEX
  8
MY3DLAYER
10
12.6743237298131
20
16.5758337140157
30
-6.35759999999992
 70
     32
  0
VERTEX
  8
MY3DLAYER
10
12.682269660943
20
16.586189053075
30
-6.35759999999992
 70
     32
  0
VERTEX
  8
MY3DLAYER
10
12.6926250000023
20
16.5941349842049
30
-6.35759999999992
 70
     32
  0
VERTEX
  8
MY3DLAYER
10
12.7046840477472
20
16.5991300053301
30
-6.35759999999992
 70
     32
  0
VERTEX
  8
MY3DLAYER
10
12.7176250000023
20
16.6008337140157
30
-6.35759999999992
 70
     32
  0
VERTEX
  8
MY3DLAYER
10
12.7305659522575
20
16.5991300053301
30
-6.35759999999992
 70
     32
  0
VERTEX
  8
MY3DLAYER
10
12.7426250000023
20
16.5941349842049
30
-6.35759999999992
 70
     32
  0
VERTEX
  8
MY3DLAYER
10
12.7529803390617
20
16.586189053075
30
-6.35759999999992
 70
     32
  0
VERTEX
  8
MY3DLAYER
10
12.7609262701916
20
16.5758337140157
30
-6.35759999999992
 70
     32
  0
VERTEX
  8
MY3DLAYER
10
12.7659212913168
20
16.5637746662708
30
-6.35759999999992
 70
     32
  0
SEQEND
  0
POLYLINE
 8
Layer0
 66
     1
70
    8
 10
0.0
 20
 0.0
 30
0.0
  0
VERTEX
  8
MY3DLAYER
10
13.8275787086883
20
16.5378927617605
30
-6.35759999999992
 70
     32
  0
VERTEX
  8
MY3DLAYER
10
13.8258750000028
20
16.5508337140157
30
-6.35759999999992
 70
     32
  0
VERTEX
  8
MY3DLAYER
10
13.8275787086883
20
16.5637746662708
30
-6.35759999999992
 70
     32
  0
VERTEX
  8
MY3DLAYER
10
13.8325737298135
20
16.5758337140157
30
-6.35759999999992
 70
     32
  0
VERTEX
  8
MY3DLAYER
10
13.8405196609434
20
16.586189053075
30
-6.35759999999992
 70
     32
  0
VERTEX
  8
MY3DLAYER
10
13.8508750000028
20
16.5941349842049
30
-6.35759999999992
 70
     32
  0
VERTEX
  8
MY3DLAYER
10
13.8629340477476
20
16.5991300053301
30
-6.35759999999992
 70
     32
  0
VERTEX
  8
MY3DLAYER
10
13.8758750000028
20
16.6008337140157
30
-6.35759999999992
 70
     32
  0
VERTEX
  8
MY3DLAYER
10
13.8888159522579
20
16.5991300053301
30
-6.35759999999992
 70
     32
  0
VERTEX
  8
MY3DLAYER
10
13.9008750000028
20
16.5941349842049
30
-6.35759999999992
 70
     32
  0
VERTEX
  8
MY3DLAYER
10
13.9112303390621
20
16.586189053075
30
-6.35759999999992
 70
     32
  0
VERTEX
  8
MY3DLAYER
10
13.919176270192
20
16.5758337140157
30
-6.35759999999992
 70
     32
  0
VERTEX
  8
MY3DLAYER
10
14.2930112298135
20
16.7916674285857
30
-6.35759999999992
 70
     32
  0
VERTEX
  8
MY3DLAYER
10
14.2880162086883
20
16.8037264763305
30
-6.35759999999992
 70
     32
  0
VERTEX
  8
MY3DLAYER
10
14.2863125000028
20
16.8166674285857
30
-6.35759999999992
 70
     32
  0
VERTEX
  8
MY3DLAYER
10
14.2880162086883
20
16.8296083808408
30
-6.35759999999992
 70
     32
  0
VERTEX
  8
MY3DLAYER
10
14.2930112298135
20
16.8416674285857
30
-6.35759999999992
 70
     32
  0
VERTEX
  8
MY3DLAYER
10
14.3009571609434
20
16.852022767645
30
-6.35759999999992
 70
     32
  0
VERTEX
  8
MY3DLAYER
10
14.3113125000028
20
16.8599686987749
30
-6.35759999999992
 70
     32
  0
VERTEX
  8
MY3DLAYER
10
14.3233715477476
20
16.8649637199001
30
-6.35759999999992
 70
     32
  0
VERTEX
  8
MY3DLAYER
10
14.3363125000028
20
16.8666674285857
30
-6.35759999999992
 70
     32
  0
VERTEX
  8
MY3DLAYER
10
14.3492534522579
20
16.8649637199001
30
-6.35759999999992
 70
     32
  0
VERTEX
  8
MY3DLAYER
10
14.3613125000028
20
16.8599686987749
30
-6.35759999999992
 70
     32
  0
VERTEX
  8
MY3DLAYER
10
14.3716678390621
20
16.852022767645
30
-6.35759999999992
 70
     32
  0
VERTEX
  8
MY3DLAYER
10
14.379613770192
20
16.8416674285857
30
-6.35759999999992
 70
     32
  0
VERTEX
  8
MY3DLAYER
10
14.3846087913172
20
16.8296083808408
30
-6.35759999999992
 70
     32
  0
VERTEX
  8
MY3DLAYER
10
14.3863125000028
20
16.8166674285857
30
-6.35759999999992
 70
     32
  0
VERTEX
  8
MY3DLAYER
10
14.3846087913172
20
16.8037264763305
30
-6.35759999999992
 70
     32
  0
VERTEX
  8
MY3DLAYER
10
14.379613770192
20
16.7916674285857
30
-6.35759999999992
 70
     32
  0
VERTEX
  8
MY3DLAYER
10
14.7534487298135
20
16.5758337140157
30
-6.35759999999992
 70
     32
  0
VERTEX
  8
MY3DLAYER
10
14.7613946609434
20
16.586189053075
30
-6.35759999999992
 70
     32
  0
VERTEX
  8
MY3DLAYER
10
14.7717500000028
20
16.5941349842049
30
-6.35759999999992
 70
     32
  0
VERTEX
  8
MY3DLAYER
10
14.7838090477476
20
16.5991300053301
30
-6.35759999999992
 70
     32
  0
VERTEX
  8
MY3DLAYER
10
14.7967500000028
20
16.6008337140157
30
-6.35759999999992
 70
     32
  0
VERTEX
  8
MY3DLAYER
10
14.8096909522579
20
16.5991300053301
30
-6.35759999999992
 70
     32
  0
VERTEX
  8
MY3DLAYER
10
14.8217500000028
20
16.5941349842049
30
-6.35759999999992
 70
     32
  0
VERTEX
  8
MY3DLAYER
10
14.8321053390621
20
16.586189053075
30
-6.35759999999992
 70
     32
  0
VERTEX
  8
MY3DLAYER
10
14.840051270192
20
16.5758337140157
30
-6.35759999999992
 70
     32
  0
VERTEX
  8
MY3DLAYER
10
14.8450462913172
20
16.5637746662708
30
-6.35759999999992
 70
     32
  0
VERTEX
  8
MY3DLAYER
10
14.8467500000028
20
16.5508337140157
30
-6.35759999999992
 70
     32
  0
VERTEX
  8
MY3DLAYER
10
14.8450462913172
20
16.5378927617605
30
-6.35759999999992
 70
     32
  0
VERTEX
  8
MY3DLAYER
10
14.840051270192
20
16.5258337140157
30
-6.35759999999992
 70
     32
  0
VERTEX
  8
MY3DLAYER
10
14.8321053390621
20
16.5154783749563
30
-6.35759999999992
 70
     32
  0
VERTEX
  8
MY3DLAYER
10
14.8217500000028
20
16.5075324438265
30
-6.35759999999992
 70
     32
  0
VERTEX
  8
MY3DLAYER
10
14.8096909522579
20
16.5025374227012
30
-6.35759999999992
 70
     32
  0
VERTEX
  8
MY3DLAYER
10
14.7967500000028
20
16.5008337140157
30
-6.35759999999992
 70
     32
  0
VERTEX
  8
MY3DLAYER
10
14.7967500000028
20
16.0691662848757
30
-6.35759999999992
 70
     32
  0
VERTEX
  8
MY3DLAYER
10
14.8096909522579
20
16.0674625761901
30
-6.35759999999992
 70
     32
  0
VERTEX
  8
MY3DLAYER
10
14.8217500000028
20
16.0624675550649
30
-6.35759999999992
 70
     32
  0
VERTEX
  8
MY3DLAYER
10
14.8321053390621
20
16.054521623935
30
-6.35759999999992
 70
     32
  0
VERTEX
  8
MY3DLAYER
10
14.840051270192
20
16.0441662848757
30
-6.35759999999992
 70
     32
  0
VERTEX
  8
MY3DLAYER
10
14.8450462913172
20
16.0321072371308
30
-6.35759999999992
 70
     32
  0
VERTEX
  8
MY3DLAYER
10
14.8467500000028
20
16.0191662848757
30
-6.35759999999992
 70
     32
  0
VERTEX
  8
MY3DLAYER
10
14.8450462913172
20
16.0062253326206
30
-6.35759999999992
 70
     32
  0
VERTEX
  8
MY3DLAYER
10
14.840051270192
20
15.9941662848757
30
-6.35759999999992
 70
     32
  0
VERTEX
  8
MY3DLAYER
10
14.8321053390621
20
15.9838109458164
30
-6.35759999999992
 70
     32
  0
VERTEX
  8
MY3DLAYER
10
14.8217500000028
20
15.9758650146865
30
-6.35759999999992
 70
     32
  0
VERTEX
  8
MY3DLAYER
10
14.8096909522579
20
15.9708699935612
30
-6.35759999999992
 70
     32
  0
VERTEX
  8
MY3DLAYER
10
14.7967500000028
20
15.9691662848757
30
-6.35759999999992
 70
     32
  0
VERTEX
  8
MY3DLAYER
10
14.7838090477476
20
15.9708699935612
30
-6.35759999999992
 70
     32
  0
VERTEX
  8
MY3DLAYER
10
14.7717500000028
20
15.9758650146865
30
-6.35759999999992
 70
     32
  0
VERTEX
  8
MY3DLAYER
10
14.7613946609434
20
15.9838109458164
30
-6.35759999999992
 70
     32
  0
VERTEX
  8
MY3DLAYER
10
14.7534487298135
20
15.9941662848757
30
-6.35759999999992
 70
     32
  0
VERTEX
  8
MY3DLAYER
10
14.379613770192
20
15.7783325703057
30
-6.35759999999992
 70
     32
  0
VERTEX
  8
MY3DLAYER
10
14.3846087913172
20
15.7662735225608
30
-6.35759999999992
 70
     32
  0
VERTEX
  8
MY3DLAYER
10
14.3863125000028
20
15.7533325703057
30
-6.35759999999992
 70
     32
  0
VERTEX
  8
MY3DLAYER
10
14.3846087913172
20
15.7403916180506
30
-6.35759999999992
 70
     32
  0
VERTEX
  8
MY3DLAYER
10
14.379613770192
20
15.7283325703057
30
-6.35759999999992
 70
     32
  0
VERTEX
  8
MY3DLAYER
10
14.3716678390621
20
15.7179772312464
30
-6.35759999999992
 70
     32
  0
VERTEX
  8
MY3DLAYER
10
14.3613125000028
20
15.7100313001165
30
-6.35759999999992
 70
     32
  0
VERTEX
  8
MY3DLAYER
10
14.3492534522579
20
15.7050362789912
30
-6.35759999999992
 70
     32
  0
VERTEX
  8
MY3DLAYER
10
14.3363125000028
20
15.7033325703057
30
-6.35759999999992
 70
     32
  0
VERTEX
  8
MY3DLAYER
10
14.3233715477476
20
15.7050362789912
30
-6.35759999999992
 70
     32
  0
VERTEX
  8
MY3DLAYER
10
14.3113125000028
20
15.7100313001165
30
-6.35759999999992
 70
     32
  0
VERTEX
  8
MY3DLAYER
10
14.3009571609434
20
15.7179772312464
30
-6.35759999999992
 70
     32
  0
VERTEX
  8
MY3DLAYER
10
14.2930112298135
20
15.7283325703057
30
-6.35759999999992
 70
     32
  0
VERTEX
  8
MY3DLAYER
10
14.2880162086883
20
15.7403916180506
30
-6.35759999999992
 70
     32
  0
VERTEX
  8
MY3DLAYER
10
14.2863125000028
20
15.7533325703057
30
-6.35759999999992
 70
     32
  0
VERTEX
  8
MY3DLAYER
10
14.2880162086883
20
15.7662735225608
30
-6.35759999999992
 70
     32
  0
VERTEX
  8
MY3DLAYER
10
14.2930112298135
20
15.7783325703057
30
-6.35759999999992
 70
     32
  0
VERTEX
  8
MY3DLAYER
10
13.919176270192
20
15.9941662848757
30
-6.35759999999992
 70
     32
  0
VERTEX
  8
MY3DLAYER
10
13.9112303390621
20
15.9838109458164
30
-6.35759999999992
 70
     32
  0
VERTEX
  8
MY3DLAYER
10
13.9008750000028
20
15.9758650146865
30
-6.35759999999992
 70
     32
  0
VERTEX
  8
MY3DLAYER
10
13.8888159522579
20
15.9708699935612
30
-6.35759999999992
 70
     32
  0
VERTEX
  8
MY3DLAYER
10
13.8758750000028
20
15.9691662848757
30
-6.35759999999992
 70
     32
  0
VERTEX
  8
MY3DLAYER
10
13.8629340477476
20
15.9708699935612
30
-6.35759999999992
 70
     32
  0
VERTEX
  8
MY3DLAYER
10
13.8508750000028
20
15.9758650146865
30
-6.35759999999992
 70
     32
  0
VERTEX
  8
MY3DLAYER
10
13.8405196609434
20
15.9838109458164
30
-6.35759999999992
 70
     32
  0
VERTEX
  8
MY3DLAYER
10
13.8325737298135
20
15.9941662848757
30
-6.35759999999992
 70
     32
  0
VERTEX
  8
MY3DLAYER
10
13.8275787086883
20
16.0062253326206
30
-6.35759999999992
 70
     32
  0
VERTEX
  8
MY3DLAYER
10
13.8258750000028
20
16.0191662848757
30
-6.35759999999992
 70
     32
  0
VERTEX
  8
MY3DLAYER
10
13.8275787086883
20
16.0321072371308
30
-6.35759999999992
 70
     32
  0
VERTEX
  8
MY3DLAYER
10
13.8325737298135
20
16.0441662848757
30
-6.35759999999992
 70
     32
  0
VERTEX
  8
MY3DLAYER
10
13.8405196609434
20
16.054521623935
30
-6.35759999999992
 70
     32
  0
VERTEX
  8
MY3DLAYER
10
13.8508750000028
20
16.0624675550649
30
-6.35759999999992
 70
     32
  0
VERTEX
  8
MY3DLAYER
10
13.8629340477476
20
16.0674625761901
30
-6.35759999999992
 70
     32
  0
VERTEX
  8
MY3DLAYER
10
13.8758750000028
20
16.0691662848757
30
-6.35759999999992
 70
     32
  0
VERTEX
  8
MY3DLAYER
10
13.8758750000028
20
16.5008337140157
30
-6.35759999999992
 70
     32
  0
VERTEX
  8
MY3DLAYER
10
13.8629340477476
20
16.5025374227012
30
-6.35759999999992
 70
     32
  0
VERTEX
  8
MY3DLAYER
10
13.8508750000028
20
16.5075324438265
30
-6.35759999999992
 70
     32
  0
VERTEX
  8
MY3DLAYER
10
13.8405196609434
20
16.5154783749563
30
-6.35759999999992
 70
     32
  0
VERTEX
  8
MY3DLAYER
10
13.8325737298135
20
16.5258337140157
30
-6.35759999999992
 70
     32
  0
VERTEX
  8
MY3DLAYER
10
13.8275787086883
20
16.5378927617605
30
-6.35759999999992
 70
     32
  0
SEQEND
  0
POLYLINE
 8
Layer0
 66
     1
70
    8
 10
0.0
 20
 0.0
 30
0.0
  0
VERTEX
  8
MY3DLAYER
10
13.8405196609434
20
19.3011890529019
30
-6.35759999999992
 70
     32
  0
VERTEX
  8
MY3DLAYER
10
13.8508750000028
20
19.3091349840318
30
-6.35759999999992
 70
     32
  0
VERTEX
  8
MY3DLAYER
10
13.8629340477476
20
19.314130005157
30
-6.35759999999992
 70
     32
  0
VERTEX
  8
MY3DLAYER
10
13.8758750000028
20
19.3158337138426
30
-6.35759999999992
 70
     32
  0
VERTEX
  8
MY3DLAYER
10
13.8888159522579
20
19.314130005157
30
-6.35759999999992
 70
     32
  0
VERTEX
  8
MY3DLAYER
10
13.9008750000028
20
19.3091349840318
30
-6.35759999999992
 70
     32
  0
VERTEX
  8
MY3DLAYER
10
13.9112303390621
20
19.3011890529019
30
-6.35759999999992
 70
     32
  0
VERTEX
  8
MY3DLAYER
10
13.919176270192
20
19.2908337138426
30
-6.35759999999992
 70
     32
  0
VERTEX
  8
MY3DLAYER
10
14.2930112298135
20
19.5066674284126
30
-6.35759999999992
 70
     32
  0
VERTEX
  8
MY3DLAYER
10
14.2880162086883
20
19.5187264761574
30
-6.35759999999992
 70
     32
  0
VERTEX
  8
MY3DLAYER
10
14.2863125000028
20
19.5316674284126
30
-6.35759999999992
 70
     32
  0
VERTEX
  8
MY3DLAYER
10
14.2880162086883
20
19.5446083806677
30
-6.35759999999992
 70
     32
  0
VERTEX
  8
MY3DLAYER
10
14.2930112298135
20
19.5566674284126
30
-6.35759999999992
 70
     32
  0
VERTEX
  8
MY3DLAYER
10
14.3009571609434
20
19.5670227674719
30
-6.35759999999992
 70
     32
  0
VERTEX
  8
MY3DLAYER
10
14.3113125000028
20
19.5749686986018
30
-6.35759999999992
 70
     32
  0
VERTEX
  8
MY3DLAYER
10
14.3233715477476
20
19.579963719727
30
-6.35759999999992
 70
     32
  0
VERTEX
  8
MY3DLAYER
10
14.3363125000028
20
19.5816674284126
30
-6.35759999999992
 70
     32
  0
VERTEX
  8
MY3DLAYER
10
14.3492534522579
20
19.579963719727
30
-6.35759999999992
 70
     32
  0
VERTEX
  8
MY3DLAYER
10
14.3613125000028
20
19.5749686986018
30
-6.35759999999992
 70
     32
  0
VERTEX
  8
MY3DLAYER
10
14.3716678390621
20
19.5670227674719
30
-6.35759999999992
 70
     32
  0
VERTEX
  8
MY3DLAYER
10
14.379613770192
20
19.5566674284126
30
-6.35759999999992
 70
     32
  0
VERTEX
  8
MY3DLAYER
10
14.3846087913172
20
19.5446083806677
30
-6.35759999999992
 70
     32
  0
VERTEX
  8
MY3DLAYER
10
14.3863125000028
20
19.5316674284126
30
-6.35759999999992
 70
     32
  0
VERTEX
  8
MY3DLAYER
10
14.3846087913172
20
19.5187264761574
30
-6.35759999999992
 70
     32
  0
VERTEX
  8
MY3DLAYER
10
14.379613770192
20
19.5066674284126
30
-6.35759999999992
 70
     32
  0
VERTEX
  8
MY3DLAYER
10
14.7534487298135
20
19.2908337138426
30
-6.35759999999992
 70
     32
  0
VERTEX
  8
MY3DLAYER
10
14.7613946609434
20
19.3011890529019
30
-6.35759999999992
 70
     32
  0
VERTEX
  8
MY3DLAYER
10
14.7717500000028
20
19.3091349840318
30
-6.35759999999992
 70
     32
  0
VERTEX
  8
MY3DLAYER
10
14.7838090477476
20
19.314130005157
30
-6.35759999999992
 70
     32
  0
VERTEX
  8
MY3DLAYER
10
14.7967500000028
20
19.3158337138426
30
-6.35759999999992
 70
     32
  0
VERTEX
  8
MY3DLAYER
10
14.8096909522579
20
19.314130005157
30
-6.35759999999992
 70
     32
  0
VERTEX
  8
MY3DLAYER
10
14.8217500000028
20
19.3091349840318
30
-6.35759999999992
 70
     32
  0
VERTEX
  8
MY3DLAYER
10
14.8321053390621
20
19.3011890529019
30
-6.35759999999992
 70
     32
  0
VERTEX
  8
MY3DLAYER
10
14.840051270192
20
19.2908337138426
30
-6.35759999999992
 70
     32
  0
VERTEX
  8
MY3DLAYER
10
14.8450462913172
20
19.2787746660977
30
-6.35759999999992
 70
     32
  0
VERTEX
  8
MY3DLAYER
10
14.8467500000028
20
19.2658337138426
30
-6.35759999999992
 70
     32
  0
VERTEX
  8
MY3DLAYER
10
14.8450462913172
20
19.2528927615874
30
-6.35759999999992
 70
     32
  0
VERTEX
  8
MY3DLAYER
10
14.840051270192
20
19.2408337138426
30
-6.35759999999992
 70
     32
  0
VERTEX
  8
MY3DLAYER
10
14.8321053390621
20
19.2304783747832
30
-6.35759999999992
 70
     32
  0
VERTEX
  8
MY3DLAYER
10
14.8217500000028
20
19.2225324436533
30
-6.35759999999992
 70
     32
  0
VERTEX
  8
MY3DLAYER
10
14.8096909522579
20
19.2175374225281
30
-6.35759999999992
 70
     32
  0
VERTEX
  8
MY3DLAYER
10
14.7967500000028
20
19.2158337138426
30
-6.35759999999992
 70
     32
  0
VERTEX
  8
MY3DLAYER
10
14.7967500000028
20
18.7841662847026
30
-6.35759999999992
 70
     32
  0
VERTEX
  8
MY3DLAYER
10
14.8096909522579
20
18.782462576017
30
-6.35759999999992
 70
     32
  0
VERTEX
  8
MY3DLAYER
10
14.8217500000028
20
18.7774675548918
30
-6.35759999999992
 70
     32
  0
VERTEX
  8
MY3DLAYER
10
14.8321053390621
20
18.7695216237619
30
-6.35759999999992
 70
     32
  0
VERTEX
  8
MY3DLAYER
10
14.840051270192
20
18.7591662847026
30
-6.35759999999992
 70
     32
  0
VERTEX
  8
MY3DLAYER
10
14.8450462913172
20
18.7471072369577
30
-6.35759999999992
 70
     32
  0
VERTEX
  8
MY3DLAYER
10
14.8467500000028
20
18.7341662847026
30
-6.35759999999992
 70
     32
  0
VERTEX
  8
MY3DLAYER
10
14.8450462913172
20
18.7212253324474
30
-6.35759999999992
 70
     32
  0
VERTEX
  8
MY3DLAYER
10
14.840051270192
20
18.7091662847026
30
-6.35759999999992
 70
     32
  0
VERTEX
  8
MY3DLAYER
10
14.8321053390621
20
18.6988109456432
30
-6.35759999999992
 70
     32
  0
VERTEX
  8
MY3DLAYER
10
14.8217500000028
20
18.6908650145133
30
-6.35759999999992
 70
     32
  0
VERTEX
  8
MY3DLAYER
10
14.8096909522579
20
18.6858699933881
30
-6.35759999999992
 70
     32
  0
VERTEX
  8
MY3DLAYER
10
14.7967500000028
20
18.6841662847026
30
-6.35759999999992
 70
     32
  0
VERTEX
  8
MY3DLAYER
10
14.7838090477476
20
18.6858699933881
30
-6.35759999999992
 70
     32
  0
VERTEX
  8
MY3DLAYER
10
14.7717500000028
20
18.6908650145133
30
-6.35759999999992
 70
     32
  0
VERTEX
  8
MY3DLAYER
10
14.7613946609434
20
18.6988109456432
30
-6.35759999999992
 70
     32
  0
VERTEX
  8
MY3DLAYER
10
14.7534487298135
20
18.7091662847026
30
-6.35759999999992
 70
     32
  0
VERTEX
  8
MY3DLAYER
10
14.379613770192
20
18.4933325701326
30
-6.35759999999992
 70
     32
  0
VERTEX
  8
MY3DLAYER
10
14.3846087913172
20
18.4812735223877
30
-6.35759999999992
 70
     32
  0
VERTEX
  8
MY3DLAYER
10
14.3863125000028
20
18.4683325701326
30
-6.35759999999992
 70
     32
  0
VERTEX
  8
MY3DLAYER
10
14.3846087913172
20
18.4553916178774
30
-6.35759999999992
 70
     32
  0
VERTEX
  8
MY3DLAYER
10
14.379613770192
20
18.4433325701326
30
-6.35759999999992
 70
     32
  0
VERTEX
  8
MY3DLAYER
10
14.3716678390621
20
18.4329772310732
30
-6.35759999999992
 70
     32
  0
VERTEX
  8
MY3DLAYER
10
14.3613125000028
20
18.4250312999433
30
-6.35759999999992
 70
     32
  0
VERTEX
  8
MY3DLAYER
10
14.3492534522579
20
18.4200362788181
30
-6.35759999999992
 70
     32
  0
VERTEX
  8
MY3DLAYER
10
14.3363125000028
20
18.4183325701326
30
-6.35759999999992
 70
     32
  0
VERTEX
  8
MY3DLAYER
10
14.3233715477476
20
18.4200362788181
30
-6.35759999999992
 70
     32
  0
VERTEX
  8
MY3DLAYER
10
14.3113125000028
20
18.4250312999433
30
-6.35759999999992
 70
     32
  0
VERTEX
  8
MY3DLAYER
10
14.3009571609434
20
18.4329772310732
30
-6.35759999999992
 70
     32
  0
VERTEX
  8
MY3DLAYER
10
14.2930112298135
20
18.4433325701326
30
-6.35759999999992
 70
     32
  0
VERTEX
  8
MY3DLAYER
10
14.2880162086883
20
18.4553916178774
30
-6.35759999999992
 70
     32
  0
VERTEX
  8
MY3DLAYER
10
14.2863125000028
20
18.4683325701326
30
-6.35759999999992
 70
     32
  0
VERTEX
  8
MY3DLAYER
10
14.2880162086883
20
18.4812735223877
30
-6.35759999999992
 70
     32
  0
VERTEX
  8
MY3DLAYER
10
14.2930112298135
20
18.4933325701326
30
-6.35759999999992
 70
     32
  0
VERTEX
  8
MY3DLAYER
10
13.919176270192
20
18.7091662847026
30
-6.35759999999992
 70
     32
  0
VERTEX
  8
MY3DLAYER
10
13.9112303390621
20
18.6988109456432
30
-6.35759999999992
 70
     32
  0
VERTEX
  8
MY3DLAYER
10
13.9008750000028
20
18.6908650145133
30
-6.35759999999992
 70
     32
  0
VERTEX
  8
MY3DLAYER
10
13.8888159522579
20
18.6858699933881
30
-6.35759999999992
 70
     32
  0
VERTEX
  8
MY3DLAYER
10
13.8758750000028
20
18.6841662847026
30
-6.35759999999992
 70
     32
  0
VERTEX
  8
MY3DLAYER
10
13.8629340477476
20
18.6858699933881
30
-6.35759999999992
 70
     32
  0
VERTEX
  8
MY3DLAYER
10
13.8508750000028
20
18.6908650145133
30
-6.35759999999992
 70
     32
  0
VERTEX
  8
MY3DLAYER
10
13.8405196609434
20
18.6988109456432
30
-6.35759999999992
 70
     32
  0
VERTEX
  8
MY3DLAYER
10
13.8325737298135
20
18.7091662847026
30
-6.35759999999992
 70
     32
  0
VERTEX
  8
MY3DLAYER
10
13.8275787086883
20
18.7212253324474
30
-6.35759999999992
 70
     32
  0
VERTEX
  8
MY3DLAYER
10
13.8258750000028
20
18.7341662847026
30
-6.35759999999992
 70
     32
  0
VERTEX
  8
MY3DLAYER
10
13.8275787086883
20
18.7471072369577
30
-6.35759999999992
 70
     32
  0
VERTEX
  8
MY3DLAYER
10
13.8325737298135
20
18.7591662847026
30
-6.35759999999992
 70
     32
  0
VERTEX
  8
MY3DLAYER
10
13.8405196609434
20
18.7695216237619
30
-6.35759999999992
 70
     32
  0
VERTEX
  8
MY3DLAYER
10
13.8508750000028
20
18.7774675548918
30
-6.35759999999992
 70
     32
  0
VERTEX
  8
MY3DLAYER
10
13.8629340477476
20
18.782462576017
30
-6.35759999999992
 70
     32
  0
VERTEX
  8
MY3DLAYER
10
13.8758750000028
20
18.7841662847026
30
-6.35759999999992
 70
     32
  0
VERTEX
  8
MY3DLAYER
10
13.8758750000028
20
19.2158337138426
30
-6.35759999999992
 70
     32
  0
VERTEX
  8
MY3DLAYER
10
13.8629340477476
20
19.2175374225281
30
-6.35759999999992
 70
     32
  0
VERTEX
  8
MY3DLAYER
10
13.8508750000028
20
19.2225324436533
30
-6.35759999999992
 70
     32
  0
VERTEX
  8
MY3DLAYER
10
13.8405196609434
20
19.2304783747832
30
-6.35759999999992
 70
     32
  0
VERTEX
  8
MY3DLAYER
10
13.8325737298135
20
19.2408337138426
30
-6.35759999999992
 70
     32
  0
VERTEX
  8
MY3DLAYER
10
13.8275787086883
20
19.2528927615874
30
-6.35759999999992
 70
     32
  0
VERTEX
  8
MY3DLAYER
10
13.8258750000028
20
19.2658337138426
30
-6.35759999999992
 70
     32
  0
VERTEX
  8
MY3DLAYER
10
13.8275787086883
20
19.2787746660977
30
-6.35759999999992
 70
     32
  0
VERTEX
  8
MY3DLAYER
10
13.8325737298135
20
19.2908337138426
30
-6.35759999999992
 70
     32
  0
VERTEX
  8
MY3DLAYER
10
13.8405196609434
20
19.3011890529019
30
-6.35759999999992
 70
     32
  0
SEQEND
  0
POLYLINE
 8
Layer0
 66
     1
70
    8
 10
0.0
 20
 0.0
 30
0.0
  0
VERTEX
  8
MY3DLAYER
10
12.3054837913168
20
18.4553916178774
30
-6.35759999999992
 70
     32
  0
VERTEX
  8
MY3DLAYER
10
12.3004887701916
20
18.4433325701326
30
-6.35759999999992
 70
     32
  0
VERTEX
  8
MY3DLAYER
10
12.2925428390617
20
18.4329772310732
30
-6.35759999999992
 70
     32
  0
VERTEX
  8
MY3DLAYER
10
12.2821875000023
20
18.4250312999433
30
-6.35759999999992
 70
     32
  0
VERTEX
  8
MY3DLAYER
10
12.2701284522575
20
18.4200362788181
30
-6.35759999999992
 70
     32
  0
VERTEX
  8
MY3DLAYER
10
12.2571875000023
20
18.4183325701326
30
-6.35759999999992
 70
     32
  0
VERTEX
  8
MY3DLAYER
10
12.2442465477472
20
18.4200362788181
30
-6.35759999999992
 70
     32
  0
VERTEX
  8
MY3DLAYER
10
12.2321875000023
20
18.4250312999433
30
-6.35759999999992
 70
     32
  0
VERTEX
  8
MY3DLAYER
10
12.221832160943
20
18.4329772310732
30
-6.35759999999992
 70
     32
  0
VERTEX
  8
MY3DLAYER
10
12.2138862298131
20
18.4433325701326
30
-6.35759999999992
 70
     32
  0
VERTEX
  8
MY3DLAYER
10
12.2088912086879
20
18.4553916178774
30
-6.35759999999992
 70
     32
  0
VERTEX
  8
MY3DLAYER
10
12.2071875000023
20
18.4683325701326
30
-6.35759999999992
 70
     32
  0
VERTEX
  8
MY3DLAYER
10
12.2088912086879
20
18.4812735223877
30
-6.35759999999992
 70
     32
  0
VERTEX
  8
MY3DLAYER
10
12.2138862298131
20
18.4933325701326
30
-6.35759999999992
 70
     32
  0
VERTEX
  8
MY3DLAYER
10
11.8400512701916
20
18.7091662847026
30
-6.35759999999992
 70
     32
  0
VERTEX
  8
MY3DLAYER
10
11.8321053390617
20
18.6988109456432
30
-6.35759999999992
 70
     32
  0
VERTEX
  8
MY3DLAYER
10
11.8217500000023
20
18.6908650145133
30
-6.35759999999992
 70
     32
  0
VERTEX
  8
MY3DLAYER
10
11.8096909522575
20
18.6858699933881
30
-6.35759999999992
 70
     32
  0
VERTEX
  8
MY3DLAYER
10
11.7967500000023
20
18.6841662847026
30
-6.35759999999992
 70
     32
  0
VERTEX
  8
MY3DLAYER
10
11.7838090477472
20
18.6858699933881
30
-6.35759999999992
 70
     32
  0
VERTEX
  8
MY3DLAYER
10
11.7717500000023
20
18.6908650145133
30
-6.35759999999992
 70
     32
  0
VERTEX
  8
MY3DLAYER
10
11.761394660943
20
18.6988109456432
30
-6.35759999999992
 70
     32
  0
VERTEX
  8
MY3DLAYER
10
11.7534487298131
20
18.7091662847026
30
-6.35759999999992
 70
     32
  0
VERTEX
  8
MY3DLAYER
10
11.7484537086879
20
18.7212253324474
30
-6.35759999999992
 70
     32
  0
VERTEX
  8
MY3DLAYER
10
11.7467500000023
20
18.7341662847026
30
-6.35759999999992
 70
     32
  0
VERTEX
  8
MY3DLAYER
10
11.7484537086879
20
18.7471072369577
30
-6.35759999999992
 70
     32
  0
VERTEX
  8
MY3DLAYER
10
11.7534487298131
20
18.7591662847026
30
-6.35759999999992
 70
     32
  0
VERTEX
  8
MY3DLAYER
10
11.761394660943
20
18.7695216237619
30
-6.35759999999992
 70
     32
  0
VERTEX
  8
MY3DLAYER
10
11.7717500000023
20
18.7774675548918
30
-6.35759999999992
 70
     32
  0
VERTEX
  8
MY3DLAYER
10
11.7838090477472
20
18.782462576017
30
-6.35759999999992
 70
     32
  0
VERTEX
  8
MY3DLAYER
10
11.7967500000023
20
18.7841662847026
30
-6.35759999999992
 70
     32
  0
VERTEX
  8
MY3DLAYER
10
11.7967500000023
20
19.2158337138426
30
-6.35759999999992
 70
     32
  0
VERTEX
  8
MY3DLAYER
10
11.7838090477472
20
19.2175374225281
30
-6.35759999999992
 70
     32
  0
VERTEX
  8
MY3DLAYER
10
11.7717500000023
20
19.2225324436533
30
-6.35759999999992
 70
     32
  0
VERTEX
  8
MY3DLAYER
10
11.761394660943
20
19.2304783747832
30
-6.35759999999992
 70
     32
  0
VERTEX
  8
MY3DLAYER
10
11.7534487298131
20
19.2408337138426
30
-6.35759999999992
 70
     32
  0
VERTEX
  8
MY3DLAYER
10
11.7484537086879
20
19.2528927615874
30
-6.35759999999992
 70
     32
  0
VERTEX
  8
MY3DLAYER
10
11.7467500000023
20
19.2658337138426
30
-6.35759999999992
 70
     32
  0
VERTEX
  8
MY3DLAYER
10
11.7484537086879
20
19.2787746660977
30
-6.35759999999992
 70
     32
  0
VERTEX
  8
MY3DLAYER
10
11.7534487298131
20
19.2908337138426
30
-6.35759999999992
 70
     32
  0
VERTEX
  8
MY3DLAYER
10
11.761394660943
20
19.3011890529019
30
-6.35759999999992
 70
     32
  0
VERTEX
  8
MY3DLAYER
10
11.7717500000023
20
19.3091349840318
30
-6.35759999999992
 70
     32
  0
VERTEX
  8
MY3DLAYER
10
11.7838090477472
20
19.314130005157
30
-6.35759999999992
 70
     32
  0
VERTEX
  8
MY3DLAYER
10
11.7967500000023
20
19.3158337138426
30
-6.35759999999992
 70
     32
  0
VERTEX
  8
MY3DLAYER
10
11.8096909522575
20
19.314130005157
30
-6.35759999999992
 70
     32
  0
VERTEX
  8
MY3DLAYER
10
11.8217500000023
20
19.3091349840318
30
-6.35759999999992
 70
     32
  0
VERTEX
  8
MY3DLAYER
10
11.8321053390617
20
19.3011890529019
30
-6.35759999999992
 70
     32
  0
VERTEX
  8
MY3DLAYER
10
11.8400512701916
20
19.2908337138426
30
-6.35759999999992
 70
     32
  0
VERTEX
  8
MY3DLAYER
10
12.2138862298131
20
19.5066674284126
30
-6.35759999999992
 70
     32
  0
VERTEX
  8
MY3DLAYER
10
12.2088912086879
20
19.5187264761574
30
-6.35759999999992
 70
     32
  0
VERTEX
  8
MY3DLAYER
10
12.2071875000023
20
19.5316674284126
30
-6.35759999999992
 70
     32
  0
VERTEX
  8
MY3DLAYER
10
12.2088912086879
20
19.5446083806677
30
-6.35759999999992
 70
     32
  0
VERTEX
  8
MY3DLAYER
10
12.2138862298131
20
19.5566674284126
30
-6.35759999999992
 70
     32
  0
VERTEX
  8
MY3DLAYER
10
12.221832160943
20
19.5670227674719
30
-6.35759999999992
 70
     32
  0
VERTEX
  8
MY3DLAYER
10
12.2321875000023
20
19.5749686986018
30
-6.35759999999992
 70
     32
  0
VERTEX
  8
MY3DLAYER
10
12.2442465477472
20
19.579963719727
30
-6.35759999999992
 70
     32
  0
VERTEX
  8
MY3DLAYER
10
12.2571875000023
20
19.5816674284126
30
-6.35759999999992
 70
     32
  0
VERTEX
  8
MY3DLAYER
10
12.2701284522575
20
19.579963719727
30
-6.35759999999992
 70
     32
  0
VERTEX
  8
MY3DLAYER
10
12.2821875000023
20
19.5749686986018
30
-6.35759999999992
 70
     32
  0
VERTEX
  8
MY3DLAYER
10
12.2925428390617
20
19.5670227674719
30
-6.35759999999992
 70
     32
  0
VERTEX
  8
MY3DLAYER
10
12.3004887701916
20
19.5566674284126
30
-6.35759999999992
 70
     32
  0
VERTEX
  8
MY3DLAYER
10
12.3054837913168
20
19.5446083806677
30
-6.35759999999992
 70
     32
  0
VERTEX
  8
MY3DLAYER
10
12.3071875000023
20
19.5316674284126
30
-6.35759999999992
 70
     32
  0
VERTEX
  8
MY3DLAYER
10
12.3054837913168
20
19.5187264761574
30
-6.35759999999992
 70
     32
  0
VERTEX
  8
MY3DLAYER
10
12.3004887701916
20
19.5066674284126
30
-6.35759999999992
 70
     32
  0
VERTEX
  8
MY3DLAYER
10
12.6743237298131
20
19.2908337138426
30
-6.35759999999992
 70
     32
  0
VERTEX
  8
MY3DLAYER
10
12.682269660943
20
19.3011890529019
30
-6.35759999999992
 70
     32
  0
VERTEX
  8
MY3DLAYER
10
12.6926250000023
20
19.3091349840318
30
-6.35759999999992
 70
     32
  0
VERTEX
  8
MY3DLAYER
10
12.7046840477472
20
19.314130005157
30
-6.35759999999992
 70
     32
  0
VERTEX
  8
MY3DLAYER
10
12.7176250000023
20
19.3158337138426
30
-6.35759999999992
 70
     32
  0
VERTEX
  8
MY3DLAYER
10
12.7305659522575
20
19.314130005157
30
-6.35759999999992
 70
     32
  0
VERTEX
  8
MY3DLAYER
10
12.7426250000023
20
19.3091349840318
30
-6.35759999999992
 70
     32
  0
VERTEX
  8
MY3DLAYER
10
12.7529803390617
20
19.3011890529019
30
-6.35759999999992
 70
     32
  0
VERTEX
  8
MY3DLAYER
10
12.7609262701916
20
19.2908337138426
30
-6.35759999999992
 70
     32
  0
VERTEX
  8
MY3DLAYER
10
12.7659212913168
20
19.2787746660977
30
-6.35759999999992
 70
     32
  0
VERTEX
  8
MY3DLAYER
10
12.7676250000023
20
19.2658337138426
30
-6.35759999999992
 70
     32
  0
VERTEX
  8
MY3DLAYER
10
12.7659212913168
20
19.2528927615874
30
-6.35759999999992
 70
     32
  0
VERTEX
  8
MY3DLAYER
10
12.7609262701916
20
19.2408337138426
30
-6.35759999999992
 70
     32
  0
VERTEX
  8
MY3DLAYER
10
12.7529803390617
20
19.2304783747832
30
-6.35759999999992
 70
     32
  0
VERTEX
  8
MY3DLAYER
10
12.7426250000023
20
19.2225324436533
30
-6.35759999999992
 70
     32
  0
VERTEX
  8
MY3DLAYER
10
12.7305659522575
20
19.2175374225281
30
-6.35759999999992
 70
     32
  0
VERTEX
  8
MY3DLAYER
10
12.7176250000023
20
19.2158337138426
30
-6.35759999999992
 70
     32
  0
VERTEX
  8
MY3DLAYER
10
12.7176250000023
20
18.7841662847026
30
-6.35759999999992
 70
     32
  0
VERTEX
  8
MY3DLAYER
10
12.7305659522575
20
18.782462576017
30
-6.35759999999992
 70
     32
  0
VERTEX
  8
MY3DLAYER
10
12.7426250000023
20
18.7774675548918
30
-6.35759999999992
 70
     32
  0
VERTEX
  8
MY3DLAYER
10
12.7529803390617
20
18.7695216237619
30
-6.35759999999992
 70
     32
  0
VERTEX
  8
MY3DLAYER
10
12.7609262701916
20
18.7591662847026
30
-6.35759999999992
 70
     32
  0
VERTEX
  8
MY3DLAYER
10
12.7659212913168
20
18.7471072369577
30
-6.35759999999992
 70
     32
  0
VERTEX
  8
MY3DLAYER
10
12.7676250000023
20
18.7341662847026
30
-6.35759999999992
 70
     32
  0
VERTEX
  8
MY3DLAYER
10
12.7659212913168
20
18.7212253324474
30
-6.35759999999992
 70
     32
  0
VERTEX
  8
MY3DLAYER
10
12.7609262701916
20
18.7091662847026
30
-6.35759999999992
 70
     32
  0
VERTEX
  8
MY3DLAYER
10
12.7529803390617
20
18.6988109456432
30
-6.35759999999992
 70
     32
  0
VERTEX
  8
MY3DLAYER
10
12.7426250000023
20
18.6908650145133
30
-6.35759999999992
 70
     32
  0
VERTEX
  8
MY3DLAYER
10
12.7305659522575
20
18.6858699933881
30
-6.35759999999992
 70
     32
  0
VERTEX
  8
MY3DLAYER
10
12.7176250000023
20
18.6841662847026
30
-6.35759999999992
 70
     32
  0
VERTEX
  8
MY3DLAYER
10
12.7046840477472
20
18.6858699933881
30
-6.35759999999992
 70
     32
  0
VERTEX
  8
MY3DLAYER
10
12.6926250000023
20
18.6908650145133
30
-6.35759999999992
 70
     32
  0
VERTEX
  8
MY3DLAYER
10
12.682269660943
20
18.6988109456432
30
-6.35759999999992
 70
     32
  0
VERTEX
  8
MY3DLAYER
10
12.6743237298131
20
18.7091662847026
30
-6.35759999999992
 70
     32
  0
VERTEX
  8
MY3DLAYER
10
12.3004887701916
20
18.4933325701326
30
-6.35759999999992
 70
     32
  0
VERTEX
  8
MY3DLAYER
10
12.3054837913168
20
18.4812735223877
30
-6.35759999999992
 70
     32
  0
VERTEX
  8
MY3DLAYER
10
12.3071875000023
20
18.4683325701326
30
-6.35759999999992
 70
     32
  0
VERTEX
  8
MY3DLAYER
10
12.3054837913168
20
18.4553916178774
30
-6.35759999999992
 70
     32
  0
SEQEND
  0
POLYLINE
 8
Layer0
 66
     1
70
    8
 10
0.0
 20
 0.0
 30
0.0
  0
VERTEX
  8
MY3DLAYER
10
14.2930112298135
20
22.2216674282394
30
-6.35759999999992
 70
     32
  0
VERTEX
  8
MY3DLAYER
10
14.2880162086883
20
22.2337264759843
30
-6.35759999999992
 70
     32
  0
VERTEX
  8
MY3DLAYER
10
14.2863125000028
20
22.2466674282395
30
-6.35759999999992
 70
     32
  0
VERTEX
  8
MY3DLAYER
10
14.2880162086883
20
22.2596083804946
30
-6.35759999999992
 70
     32
  0
VERTEX
  8
MY3DLAYER
10
14.2930112298135
20
22.2716674282395
30
-6.35759999999992
 70
     32
  0
VERTEX
  8
MY3DLAYER
10
14.3009571609434
20
22.2820227672988
30
-6.35759999999992
 70
     32
  0
VERTEX
  8
MY3DLAYER
10
14.3113125000028
20
22.2899686984287
30
-6.35759999999992
 70
     32
  0
VERTEX
  8
MY3DLAYER
10
14.3233715477476
20
22.2949637195539
30
-6.35759999999992
 70
     32
  0
VERTEX
  8
MY3DLAYER
10
14.3363125000028
20
22.2966674282395
30
-6.35759999999992
 70
     32
  0
VERTEX
  8
MY3DLAYER
10
14.3492534522579
20
22.2949637195539
30
-6.35759999999992
 70
     32
  0
VERTEX
  8
MY3DLAYER
10
14.3613125000028
20
22.2899686984287
30
-6.35759999999992
 70
     32
  0
VERTEX
  8
MY3DLAYER
10
14.3716678390621
20
22.2820227672988
30
-6.35759999999992
 70
     32
  0
VERTEX
  8
MY3DLAYER
10
14.379613770192
20
22.2716674282395
30
-6.35759999999992
 70
     32
  0
VERTEX
  8
MY3DLAYER
10
14.3846087913172
20
22.2596083804946
30
-6.35759999999992
 70
     32
  0
VERTEX
  8
MY3DLAYER
10
14.3863125000028
20
22.2466674282395
30
-6.35759999999992
 70
     32
  0
VERTEX
  8
MY3DLAYER
10
14.3846087913172
20
22.2337264759843
30
-6.35759999999992
 70
     32
  0
VERTEX
  8
MY3DLAYER
10
14.379613770192
20
22.2216674282394
30
-6.35759999999992
 70
     32
  0
VERTEX
  8
MY3DLAYER
10
14.7534487298135
20
22.0058337136695
30
-6.35759999999992
 70
     32
  0
VERTEX
  8
MY3DLAYER
10
14.7613946609434
20
22.0161890527288
30
-6.35759999999992
 70
     32
  0
VERTEX
  8
MY3DLAYER
10
14.7717500000028
20
22.0241349838587
30
-6.35759999999992
 70
     32
  0
VERTEX
  8
MY3DLAYER
10
14.7838090477476
20
22.0291300049839
30
-6.35759999999992
 70
     32
  0
VERTEX
  8
MY3DLAYER
10
14.7967500000028
20
22.0308337136695
30
-6.35759999999992
 70
     32
  0
VERTEX
  8
MY3DLAYER
10
14.8096909522579
20
22.0291300049839
30
-6.35759999999992
 70
     32
  0
VERTEX
  8
MY3DLAYER
10
14.8217500000028
20
22.0241349838587
30
-6.35759999999992
 70
     32
  0
VERTEX
  8
MY3DLAYER
10
14.8321053390621
20
22.0161890527288
30
-6.35759999999992
 70
     32
  0
VERTEX
  8
MY3DLAYER
10
14.840051270192
20
22.0058337136695
30
-6.35759999999992
 70
     32
  0
VERTEX
  8
MY3DLAYER
10
14.8450462913172
20
21.9937746659246
30
-6.35759999999992
 70
     32
  0
VERTEX
  8
MY3DLAYER
10
14.8467500000028
20
21.9808337136695
30
-6.35759999999992
 70
     32
  0
VERTEX
  8
MY3DLAYER
10
14.8450462913172
20
21.9678927614143
30
-6.35759999999992
 70
     32
  0
VERTEX
  8
MY3DLAYER
10
14.840051270192
20
21.9558337136695
30
-6.35759999999992
 70
     32
  0
VERTEX
  8
MY3DLAYER
10
14.8321053390621
20
21.9454783746101
30
-6.35759999999992
 70
     32
  0
VERTEX
  8
MY3DLAYER
10
14.8217500000028
20
21.9375324434802
30
-6.35759999999992
 70
     32
  0
VERTEX
  8
MY3DLAYER
10
14.8096909522579
20
21.932537422355
30
-6.35759999999992
 70
     32
  0
VERTEX
  8
MY3DLAYER
10
14.7967500000028
20
21.9308337136695
30
-6.35759999999992
 70
     32
  0
VERTEX
  8
MY3DLAYER
10
14.7967500000028
20
21.4991662845295
30
-6.35759999999992
 70
     32
  0
VERTEX
  8
MY3DLAYER
10
14.8096909522579
20
21.4974625758439
30
-6.35759999999992
 70
     32
  0
VERTEX
  8
MY3DLAYER
10
14.8217500000028
20
21.4924675547187
30
-6.35759999999992
 70
     32
  0
VERTEX
  8
MY3DLAYER
10
14.8321053390621
20
21.4845216235888
30
-6.35759999999992
 70
     32
  0
VERTEX
  8
MY3DLAYER
10
14.840051270192
20
21.4741662845295
30
-6.35759999999992
 70
     32
  0
VERTEX
  8
MY3DLAYER
10
14.8450462913172
20
21.4621072367846
30
-6.35759999999992
 70
     32
  0
VERTEX
  8
MY3DLAYER
10
14.8467500000028
20
21.4491662845295
30
-6.35759999999992
 70
     32
  0
VERTEX
  8
MY3DLAYER
10
14.8450462913172
20
21.4362253322743
30
-6.35759999999992
 70
     32
  0
VERTEX
  8
MY3DLAYER
10
14.840051270192
20
21.4241662845295
30
-6.35759999999992
 70
     32
  0
VERTEX
  8
MY3DLAYER
10
14.8321053390621
20
21.4138109454701
30
-6.35759999999992
 70
     32
  0
VERTEX
  8
MY3DLAYER
10
14.8217500000028
20
21.4058650143402
30
-6.35759999999992
 70
     32
  0
VERTEX
  8
MY3DLAYER
10
14.8096909522579
20
21.400869993215
30
-6.35759999999992
 70
     32
  0
VERTEX
  8
MY3DLAYER
10
14.7967500000028
20
21.3991662845295
30
-6.35759999999992
 70
     32
  0
VERTEX
  8
MY3DLAYER
10
14.7838090477476
20
21.400869993215
30
-6.35759999999992
 70
     32
  0
VERTEX
  8
MY3DLAYER
10
14.7717500000028
20
21.4058650143402
30
-6.35759999999992
 70
     32
  0
VERTEX
  8
MY3DLAYER
10
14.7613946609434
20
21.4138109454701
30
-6.35759999999992
 70
     32
  0
VERTEX
  8
MY3DLAYER
10
14.7534487298135
20
21.4241662845295
30
-6.35759999999992
 70
     32
  0
VERTEX
  8
MY3DLAYER
10
14.379613770192
20
21.2083325699595
30
-6.35759999999992
 70
     32
  0
VERTEX
  8
MY3DLAYER
10
14.3846087913172
20
21.1962735222146
30
-6.35759999999992
 70
     32
  0
VERTEX
  8
MY3DLAYER
10
14.3863125000028
20
21.1833325699595
30
-6.35759999999992
 70
     32
  0
VERTEX
  8
MY3DLAYER
10
14.3846087913172
20
21.1703916177043
30
-6.35759999999992
 70
     32
  0
VERTEX
  8
MY3DLAYER
10
14.379613770192
20
21.1583325699595
30
-6.35759999999992
 70
     32
  0
VERTEX
  8
MY3DLAYER
10
14.3716678390621
20
21.1479772309001
30
-6.35759999999992
 70
     32
  0
VERTEX
  8
MY3DLAYER
10
14.3613125000028
20
21.1400312997702
30
-6.35759999999992
 70
     32
  0
VERTEX
  8
MY3DLAYER
10
14.3492534522579
20
21.135036278645
30
-6.35759999999992
 70
     32
  0
VERTEX
  8
MY3DLAYER
10
14.3363125000028
20
21.1333325699595
30
-6.35759999999992
 70
     32
  0
VERTEX
  8
MY3DLAYER
10
14.3233715477476
20
21.135036278645
30
-6.35759999999992
 70
     32
  0
VERTEX
  8
MY3DLAYER
10
14.3113125000028
20
21.1400312997702
30
-6.35759999999992
 70
     32
  0
VERTEX
  8
MY3DLAYER
10
14.3009571609434
20
21.1479772309001
30
-6.35759999999992
 70
     32
  0
VERTEX
  8
MY3DLAYER
10
14.2930112298135
20
21.1583325699595
30
-6.35759999999992
 70
     32
  0
VERTEX
  8
MY3DLAYER
10
14.2880162086883
20
21.1703916177043
30
-6.35759999999992
 70
     32
  0
VERTEX
  8
MY3DLAYER
10
14.2863125000028
20
21.1833325699595
30
-6.35759999999992
 70
     32
  0
VERTEX
  8
MY3DLAYER
10
14.2880162086883
20
21.1962735222146
30
-6.35759999999992
 70
     32
  0
VERTEX
  8
MY3DLAYER
10
14.2930112298135
20
21.2083325699595
30
-6.35759999999992
 70
     32
  0
VERTEX
  8
MY3DLAYER
10
13.919176270192
20
21.4241662845295
30
-6.35759999999992
 70
     32
  0
VERTEX
  8
MY3DLAYER
10
13.9112303390621
20
21.4138109454701
30
-6.35759999999992
 70
     32
  0
VERTEX
  8
MY3DLAYER
10
13.9008750000028
20
21.4058650143402
30
-6.35759999999992
 70
     32
  0
VERTEX
  8
MY3DLAYER
10
13.8888159522579
20
21.400869993215
30
-6.35759999999992
 70
     32
  0
VERTEX
  8
MY3DLAYER
10
13.8758750000028
20
21.3991662845295
30
-6.35759999999992
 70
     32
  0
VERTEX
  8
MY3DLAYER
10
13.8629340477476
20
21.400869993215
30
-6.35759999999992
 70
     32
  0
VERTEX
  8
MY3DLAYER
10
13.8508750000028
20
21.4058650143402
30
-6.35759999999992
 70
     32
  0
VERTEX
  8
MY3DLAYER
10
13.8405196609434
20
21.4138109454701
30
-6.35759999999992
 70
     32
  0
VERTEX
  8
MY3DLAYER
10
13.8325737298135
20
21.4241662845295
30
-6.35759999999992
 70
     32
  0
VERTEX
  8
MY3DLAYER
10
13.8275787086883
20
21.4362253322743
30
-6.35759999999992
 70
     32
  0
VERTEX
  8
MY3DLAYER
10
13.8258750000028
20
21.4491662845295
30
-6.35759999999992
 70
     32
  0
VERTEX
  8
MY3DLAYER
10
13.8275787086883
20
21.4621072367846
30
-6.35759999999992
 70
     32
  0
VERTEX
  8
MY3DLAYER
10
13.8325737298135
20
21.4741662845295
30
-6.35759999999992
 70
     32
  0
VERTEX
  8
MY3DLAYER
10
13.8405196609434
20
21.4845216235888
30
-6.35759999999992
 70
     32
  0
VERTEX
  8
MY3DLAYER
10
13.8508750000028
20
21.4924675547187
30
-6.35759999999992
 70
     32
  0
VERTEX
  8
MY3DLAYER
10
13.8629340477476
20
21.4974625758439
30
-6.35759999999992
 70
     32
  0
VERTEX
  8
MY3DLAYER
10
13.8758750000028
20
21.4991662845295
30
-6.35759999999992
 70
     32
  0
VERTEX
  8
MY3DLAYER
10
13.8758750000028
20
21.9308337136695
30
-6.35759999999992
 70
     32
  0
VERTEX
  8
MY3DLAYER
10
13.8629340477476
20
21.932537422355
30
-6.35759999999992
 70
     32
  0
VERTEX
  8
MY3DLAYER
10
13.8508750000028
20
21.9375324434802
30
-6.35759999999992
 70
     32
  0
VERTEX
  8
MY3DLAYER
10
13.8405196609434
20
21.9454783746101
30
-6.35759999999992
 70
     32
  0
VERTEX
  8
MY3DLAYER
10
13.8325737298135
20
21.9558337136695
30
-6.35759999999992
 70
     32
  0
VERTEX
  8
MY3DLAYER
10
13.8275787086883
20
21.9678927614143
30
-6.35759999999992
 70
     32
  0
VERTEX
  8
MY3DLAYER
10
13.8258750000028
20
21.9808337136695
30
-6.35759999999992
 70
     32
  0
VERTEX
  8
MY3DLAYER
10
13.8275787086883
20
21.9937746659246
30
-6.35759999999992
 70
     32
  0
VERTEX
  8
MY3DLAYER
10
13.8325737298135
20
22.0058337136695
30
-6.35759999999992
 70
     32
  0
VERTEX
  8
MY3DLAYER
10
13.8405196609434
20
22.0161890527288
30
-6.35759999999992
 70
     32
  0
VERTEX
  8
MY3DLAYER
10
13.8508750000028
20
22.0241349838587
30
-6.35759999999992
 70
     32
  0
VERTEX
  8
MY3DLAYER
10
13.8629340477476
20
22.0291300049839
30
-6.35759999999992
 70
     32
  0
VERTEX
  8
MY3DLAYER
10
13.8758750000028
20
22.0308337136695
30
-6.35759999999992
 70
     32
  0
VERTEX
  8
MY3DLAYER
10
13.8888159522579
20
22.0291300049839
30
-6.35759999999992
 70
     32
  0
VERTEX
  8
MY3DLAYER
10
13.9008750000028
20
22.0241349838587
30
-6.35759999999992
 70
     32
  0
VERTEX
  8
MY3DLAYER
10
13.9112303390621
20
22.0161890527288
30
-6.35759999999992
 70
     32
  0
VERTEX
  8
MY3DLAYER
10
13.919176270192
20
22.0058337136695
30
-6.35759999999992
 70
     32
  0
VERTEX
  8
MY3DLAYER
10
14.2930112298135
20
22.2216674282394
30
-6.35759999999992
 70
     32
  0
SEQEND
  0
POLYLINE
 8
Layer0
 66
     1
70
    8
 10
0.0
 20
 0.0
 30
0.0
  0
VERTEX
  8
MY3DLAYER
10
12.2138862298131
20
21.1583325699595
30
-6.35759999999992
 70
     32
  0
VERTEX
  8
MY3DLAYER
10
12.2088912086879
20
21.1703916177043
30
-6.35759999999992
 70
     32
  0
VERTEX
  8
MY3DLAYER
10
12.2071875000023
20
21.1833325699595
30
-6.35759999999992
 70
     32
  0
VERTEX
  8
MY3DLAYER
10
12.2088912086879
20
21.1962735222146
30
-6.35759999999992
 70
     32
  0
VERTEX
  8
MY3DLAYER
10
12.2138862298131
20
21.2083325699595
30
-6.35759999999992
 70
     32
  0
VERTEX
  8
MY3DLAYER
10
11.8400512701916
20
21.4241662845295
30
-6.35759999999992
 70
     32
  0
VERTEX
  8
MY3DLAYER
10
11.8321053390617
20
21.4138109454701
30
-6.35759999999992
 70
     32
  0
VERTEX
  8
MY3DLAYER
10
11.8217500000023
20
21.4058650143402
30
-6.35759999999992
 70
     32
  0
VERTEX
  8
MY3DLAYER
10
11.8096909522575
20
21.400869993215
30
-6.35759999999992
 70
     32
  0
VERTEX
  8
MY3DLAYER
10
11.7967500000023
20
21.3991662845295
30
-6.35759999999992
 70
     32
  0
VERTEX
  8
MY3DLAYER
10
11.7838090477472
20
21.400869993215
30
-6.35759999999992
 70
     32
  0
VERTEX
  8
MY3DLAYER
10
11.7717500000023
20
21.4058650143402
30
-6.35759999999992
 70
     32
  0
VERTEX
  8
MY3DLAYER
10
11.761394660943
20
21.4138109454701
30
-6.35759999999992
 70
     32
  0
VERTEX
  8
MY3DLAYER
10
11.7534487298131
20
21.4241662845295
30
-6.35759999999992
 70
     32
  0
VERTEX
  8
MY3DLAYER
10
11.7484537086879
20
21.4362253322743
30
-6.35759999999992
 70
     32
  0
VERTEX
  8
MY3DLAYER
10
11.7467500000023
20
21.4491662845295
30
-6.35759999999992
 70
     32
  0
VERTEX
  8
MY3DLAYER
10
11.7484537086879
20
21.4621072367846
30
-6.35759999999992
 70
     32
  0
VERTEX
  8
MY3DLAYER
10
11.7534487298131
20
21.4741662845295
30
-6.35759999999992
 70
     32
  0
VERTEX
  8
MY3DLAYER
10
11.761394660943
20
21.4845216235888
30
-6.35759999999992
 70
     32
  0
VERTEX
  8
MY3DLAYER
10
11.7717500000023
20
21.4924675547187
30
-6.35759999999992
 70
     32
  0
VERTEX
  8
MY3DLAYER
10
11.7838090477472
20
21.4974625758439
30
-6.35759999999992
 70
     32
  0
VERTEX
  8
MY3DLAYER
10
11.7967500000023
20
21.4991662845295
30
-6.35759999999992
 70
     32
  0
VERTEX
  8
MY3DLAYER
10
11.7967500000023
20
21.9308337136695
30
-6.35759999999992
 70
     32
  0
VERTEX
  8
MY3DLAYER
10
11.7838090477472
20
21.932537422355
30
-6.35759999999992
 70
     32
  0
VERTEX
  8
MY3DLAYER
10
11.7717500000023
20
21.9375324434802
30
-6.35759999999992
 70
     32
  0
VERTEX
  8
MY3DLAYER
10
11.761394660943
20
21.9454783746101
30
-6.35759999999992
 70
     32
  0
VERTEX
  8
MY3DLAYER
10
11.7534487298131
20
21.9558337136695
30
-6.35759999999992
 70
     32
  0
VERTEX
  8
MY3DLAYER
10
11.7484537086879
20
21.9678927614143
30
-6.35759999999992
 70
     32
  0
VERTEX
  8
MY3DLAYER
10
11.7467500000023
20
21.9808337136695
30
-6.35759999999992
 70
     32
  0
VERTEX
  8
MY3DLAYER
10
11.7484537086879
20
21.9937746659246
30
-6.35759999999992
 70
     32
  0
VERTEX
  8
MY3DLAYER
10
11.7534487298131
20
22.0058337136695
30
-6.35759999999992
 70
     32
  0
VERTEX
  8
MY3DLAYER
10
11.761394660943
20
22.0161890527288
30
-6.35759999999992
 70
     32
  0
VERTEX
  8
MY3DLAYER
10
11.7717500000023
20
22.0241349838587
30
-6.35759999999992
 70
     32
  0
VERTEX
  8
MY3DLAYER
10
11.7838090477472
20
22.0291300049839
30
-6.35759999999992
 70
     32
  0
VERTEX
  8
MY3DLAYER
10
11.7967500000023
20
22.0308337136695
30
-6.35759999999992
 70
     32
  0
VERTEX
  8
MY3DLAYER
10
11.8096909522575
20
22.0291300049839
30
-6.35759999999992
 70
     32
  0
VERTEX
  8
MY3DLAYER
10
11.8217500000023
20
22.0241349838587
30
-6.35759999999992
 70
     32
  0
VERTEX
  8
MY3DLAYER
10
11.8321053390617
20
22.0161890527288
30
-6.35759999999992
 70
     32
  0
VERTEX
  8
MY3DLAYER
10
11.8400512701916
20
22.0058337136695
30
-6.35759999999992
 70
     32
  0
VERTEX
  8
MY3DLAYER
10
12.2138862298131
20
22.2216674282394
30
-6.35759999999992
 70
     32
  0
VERTEX
  8
MY3DLAYER
10
12.2088912086879
20
22.2337264759843
30
-6.35759999999992
 70
     32
  0
VERTEX
  8
MY3DLAYER
10
12.2071875000023
20
22.2466674282395
30
-6.35759999999992
 70
     32
  0
VERTEX
  8
MY3DLAYER
10
12.2088912086879
20
22.2596083804946
30
-6.35759999999992
 70
     32
  0
VERTEX
  8
MY3DLAYER
10
12.2138862298131
20
22.2716674282395
30
-6.35759999999992
 70
     32
  0
VERTEX
  8
MY3DLAYER
10
12.221832160943
20
22.2820227672988
30
-6.35759999999992
 70
     32
  0
VERTEX
  8
MY3DLAYER
10
12.2321875000023
20
22.2899686984287
30
-6.35759999999992
 70
     32
  0
VERTEX
  8
MY3DLAYER
10
12.2442465477472
20
22.2949637195539
30
-6.35759999999992
 70
     32
  0
VERTEX
  8
MY3DLAYER
10
12.2571875000023
20
22.2966674282395
30
-6.35759999999992
 70
     32
  0
VERTEX
  8
MY3DLAYER
10
12.2701284522575
20
22.2949637195539
30
-6.35759999999992
 70
     32
  0
VERTEX
  8
MY3DLAYER
10
12.2821875000023
20
22.2899686984287
30
-6.35759999999992
 70
     32
  0
VERTEX
  8
MY3DLAYER
10
12.2925428390617
20
22.2820227672988
30
-6.35759999999992
 70
     32
  0
VERTEX
  8
MY3DLAYER
10
12.3004887701916
20
22.2716674282395
30
-6.35759999999992
 70
     32
  0
VERTEX
  8
MY3DLAYER
10
12.3054837913168
20
22.2596083804946
30
-6.35759999999992
 70
     32
  0
VERTEX
  8
MY3DLAYER
10
12.3071875000023
20
22.2466674282395
30
-6.35759999999992
 70
     32
  0
VERTEX
  8
MY3DLAYER
10
12.3054837913168
20
22.2337264759843
30
-6.35759999999992
 70
     32
  0
VERTEX
  8
MY3DLAYER
10
12.3004887701916
20
22.2216674282394
30
-6.35759999999992
 70
     32
  0
VERTEX
  8
MY3DLAYER
10
12.6743237298131
20
22.0058337136695
30
-6.35759999999992
 70
     32
  0
VERTEX
  8
MY3DLAYER
10
12.682269660943
20
22.0161890527288
30
-6.35759999999992
 70
     32
  0
VERTEX
  8
MY3DLAYER
10
12.6926250000023
20
22.0241349838587
30
-6.35759999999992
 70
     32
  0
VERTEX
  8
MY3DLAYER
10
12.7046840477472
20
22.0291300049839
30
-6.35759999999992
 70
     32
  0
VERTEX
  8
MY3DLAYER
10
12.7176250000023
20
22.0308337136695
30
-6.35759999999992
 70
     32
  0
VERTEX
  8
MY3DLAYER
10
12.7305659522575
20
22.0291300049839
30
-6.35759999999992
 70
     32
  0
VERTEX
  8
MY3DLAYER
10
12.7426250000023
20
22.0241349838587
30
-6.35759999999992
 70
     32
  0
VERTEX
  8
MY3DLAYER
10
12.7529803390617
20
22.0161890527288
30
-6.35759999999992
 70
     32
  0
VERTEX
  8
MY3DLAYER
10
12.7609262701916
20
22.0058337136695
30
-6.35759999999992
 70
     32
  0
VERTEX
  8
MY3DLAYER
10
12.7659212913168
20
21.9937746659246
30
-6.35759999999992
 70
     32
  0
VERTEX
  8
MY3DLAYER
10
12.7676250000023
20
21.9808337136695
30
-6.35759999999992
 70
     32
  0
VERTEX
  8
MY3DLAYER
10
12.7659212913168
20
21.9678927614143
30
-6.35759999999992
 70
     32
  0
VERTEX
  8
MY3DLAYER
10
12.7609262701916
20
21.9558337136695
30
-6.35759999999992
 70
     32
  0
VERTEX
  8
MY3DLAYER
10
12.7529803390617
20
21.9454783746101
30
-6.35759999999992
 70
     32
  0
VERTEX
  8
MY3DLAYER
10
12.7426250000023
20
21.9375324434802
30
-6.35759999999992
 70
     32
  0
VERTEX
  8
MY3DLAYER
10
12.7305659522575
20
21.932537422355
30
-6.35759999999992
 70
     32
  0
VERTEX
  8
MY3DLAYER
10
12.7176250000023
20
21.9308337136695
30
-6.35759999999992
 70
     32
  0
VERTEX
  8
MY3DLAYER
10
12.7176250000023
20
21.4991662845295
30
-6.35759999999992
 70
     32
  0
VERTEX
  8
MY3DLAYER
10
12.7305659522575
20
21.4974625758439
30
-6.35759999999992
 70
     32
  0
VERTEX
  8
MY3DLAYER
10
12.7426250000023
20
21.4924675547187
30
-6.35759999999992
 70
     32
  0
VERTEX
  8
MY3DLAYER
10
12.7529803390617
20
21.4845216235888
30
-6.35759999999992
 70
     32
  0
VERTEX
  8
MY3DLAYER
10
12.7609262701916
20
21.4741662845295
30
-6.35759999999992
 70
     32
  0
VERTEX
  8
MY3DLAYER
10
12.7659212913168
20
21.4621072367846
30
-6.35759999999992
 70
     32
  0
VERTEX
  8
MY3DLAYER
10
12.7676250000023
20
21.4491662845295
30
-6.35759999999992
 70
     32
  0
VERTEX
  8
MY3DLAYER
10
12.7659212913168
20
21.4362253322743
30
-6.35759999999992
 70
     32
  0
VERTEX
  8
MY3DLAYER
10
12.7609262701916
20
21.4241662845295
30
-6.35759999999992
 70
     32
  0
VERTEX
  8
MY3DLAYER
10
12.7529803390617
20
21.4138109454701
30
-6.35759999999992
 70
     32
  0
VERTEX
  8
MY3DLAYER
10
12.7426250000023
20
21.4058650143402
30
-6.35759999999992
 70
     32
  0
VERTEX
  8
MY3DLAYER
10
12.7305659522575
20
21.400869993215
30
-6.35759999999992
 70
     32
  0
VERTEX
  8
MY3DLAYER
10
12.7176250000023
20
21.3991662845295
30
-6.35759999999992
 70
     32
  0
VERTEX
  8
MY3DLAYER
10
12.7046840477472
20
21.400869993215
30
-6.35759999999992
 70
     32
  0
VERTEX
  8
MY3DLAYER
10
12.6926250000023
20
21.4058650143402
30
-6.35759999999992
 70
     32
  0
VERTEX
  8
MY3DLAYER
10
12.682269660943
20
21.4138109454701
30
-6.35759999999992
 70
     32
  0
VERTEX
  8
MY3DLAYER
10
12.6743237298131
20
21.4241662845295
30
-6.35759999999992
 70
     32
  0
VERTEX
  8
MY3DLAYER
10
12.3004887701916
20
21.2083325699595
30
-6.35759999999992
 70
     32
  0
VERTEX
  8
MY3DLAYER
10
12.3054837913168
20
21.1962735222146
30
-6.35759999999992
 70
     32
  0
VERTEX
  8
MY3DLAYER
10
12.3071875000023
20
21.1833325699595
30
-6.35759999999992
 70
     32
  0
VERTEX
  8
MY3DLAYER
10
12.3054837913168
20
21.1703916177043
30
-6.35759999999992
 70
     32
  0
VERTEX
  8
MY3DLAYER
10
12.3004887701916
20
21.1583325699595
30
-6.35759999999992
 70
     32
  0
VERTEX
  8
MY3DLAYER
10
12.2925428390617
20
21.1479772309001
30
-6.35759999999992
 70
     32
  0
VERTEX
  8
MY3DLAYER
10
12.2821875000023
20
21.1400312997702
30
-6.35759999999992
 70
     32
  0
VERTEX
  8
MY3DLAYER
10
12.2701284522575
20
21.135036278645
30
-6.35759999999992
 70
     32
  0
VERTEX
  8
MY3DLAYER
10
12.2571875000023
20
21.1333325699595
30
-6.35759999999992
 70
     32
  0
VERTEX
  8
MY3DLAYER
10
12.2442465477472
20
21.135036278645
30
-6.35759999999992
 70
     32
  0
VERTEX
  8
MY3DLAYER
10
12.2321875000023
20
21.1400312997702
30
-6.35759999999992
 70
     32
  0
VERTEX
  8
MY3DLAYER
10
12.221832160943
20
21.1479772309001
30
-6.35759999999992
 70
     32
  0
VERTEX
  8
MY3DLAYER
10
12.2138862298131
20
21.1583325699595
30
-6.35759999999992
 70
     32
  0
SEQEND
  0
POLYLINE
 8
Layer0
 66
     1
70
    8
 10
0.0
 20
 0.0
 30
0.0
  0
VERTEX
  8
MY3DLAYER
10
13.8275787086883
20
24.6828927612412
30
-6.35759999999992
 70
     32
  0
VERTEX
  8
MY3DLAYER
10
13.8258750000028
20
24.6958337134963
30
-6.35759999999992
 70
     32
  0
VERTEX
  8
MY3DLAYER
10
13.8275787086883
20
24.7087746657515
30
-6.35759999999992
 70
     32
  0
VERTEX
  8
MY3DLAYER
10
13.8325737298135
20
24.7208337134963
30
-6.35759999999992
 70
     32
  0
VERTEX
  8
MY3DLAYER
10
13.8405196609434
20
24.7311890525557
30
-6.35759999999992
 70
     32
  0
VERTEX
  8
MY3DLAYER
10
13.8508750000028
20
24.7391349836856
30
-6.35759999999992
 70
     32
  0
VERTEX
  8
MY3DLAYER
10
13.8629340477476
20
24.7441300048108
30
-6.35759999999992
 70
     32
  0
VERTEX
  8
MY3DLAYER
10
13.8758750000028
20
24.7458337134963
30
-6.35759999999992
 70
     32
  0
VERTEX
  8
MY3DLAYER
10
13.8888159522579
20
24.7441300048108
30
-6.35759999999992
 70
     32
  0
VERTEX
  8
MY3DLAYER
10
13.9008750000028
20
24.7391349836856
30
-6.35759999999992
 70
     32
  0
VERTEX
  8
MY3DLAYER
10
13.9112303390621
20
24.7311890525557
30
-6.35759999999992
 70
     32
  0
VERTEX
  8
MY3DLAYER
10
13.919176270192
20
24.7208337134963
30
-6.35759999999992
 70
     32
  0
VERTEX
  8
MY3DLAYER
10
14.2930112298135
20
24.9366674280663
30
-6.35759999999992
 70
     32
  0
VERTEX
  8
MY3DLAYER
10
14.2880162086883
20
24.9487264758112
30
-6.35759999999992
 70
     32
  0
VERTEX
  8
MY3DLAYER
10
14.2863125000028
20
24.9616674280663
30
-6.35759999999992
 70
     32
  0
VERTEX
  8
MY3DLAYER
10
14.2880162086883
20
24.9746083803215
30
-6.35759999999992
 70
     32
  0
VERTEX
  8
MY3DLAYER
10
14.2930112298135
20
24.9866674280663
30
-6.35759999999992
 70
     32
  0
VERTEX
  8
MY3DLAYER
10
14.3009571609434
20
24.9970227671257
30
-6.35759999999992
 70
     32
  0
VERTEX
  8
MY3DLAYER
10
14.3113125000028
20
25.0049686982556
30
-6.35759999999992
 70
     32
  0
VERTEX
  8
MY3DLAYER
10
14.3233715477476
20
25.0099637193808
30
-6.35759999999992
 70
     32
  0
VERTEX
  8
MY3DLAYER
10
14.3363125000028
20
25.0116674280663
30
-6.35759999999992
 70
     32
  0
VERTEX
  8
MY3DLAYER
10
14.3492534522579
20
25.0099637193808
30
-6.35759999999992
 70
     32
  0
VERTEX
  8
MY3DLAYER
10
14.3613125000028
20
25.0049686982556
30
-6.35759999999992
 70
     32
  0
VERTEX
  8
MY3DLAYER
10
14.3716678390621
20
24.9970227671257
30
-6.35759999999992
 70
     32
  0
VERTEX
  8
MY3DLAYER
10
14.379613770192
20
24.9866674280663
30
-6.35759999999992
 70
     32
  0
VERTEX
  8
MY3DLAYER
10
14.3846087913172
20
24.9746083803215
30
-6.35759999999992
 70
     32
  0
VERTEX
  8
MY3DLAYER
10
14.3863125000028
20
24.9616674280663
30
-6.35759999999992
 70
     32
  0
VERTEX
  8
MY3DLAYER
10
14.3846087913172
20
24.9487264758112
30
-6.35759999999992
 70
     32
  0
VERTEX
  8
MY3DLAYER
10
14.379613770192
20
24.9366674280663
30
-6.35759999999992
 70
     32
  0
VERTEX
  8
MY3DLAYER
10
14.7534487298135
20
24.7208337134963
30
-6.35759999999992
 70
     32
  0
VERTEX
  8
MY3DLAYER
10
14.7613946609434
20
24.7311890525557
30
-6.35759999999992
 70
     32
  0
VERTEX
  8
MY3DLAYER
10
14.7717500000028
20
24.7391349836856
30
-6.35759999999992
 70
     32
  0
VERTEX
  8
MY3DLAYER
10
14.7838090477476
20
24.7441300048108
30
-6.35759999999992
 70
     32
  0
VERTEX
  8
MY3DLAYER
10
14.7967500000028
20
24.7458337134963
30
-6.35759999999992
 70
     32
  0
VERTEX
  8
MY3DLAYER
10
14.8096909522579
20
24.7441300048108
30
-6.35759999999992
 70
     32
  0
VERTEX
  8
MY3DLAYER
10
14.8217500000028
20
24.7391349836856
30
-6.35759999999992
 70
     32
  0
VERTEX
  8
MY3DLAYER
10
14.8321053390621
20
24.7311890525557
30
-6.35759999999992
 70
     32
  0
VERTEX
  8
MY3DLAYER
10
14.840051270192
20
24.7208337134963
30
-6.35759999999992
 70
     32
  0
VERTEX
  8
MY3DLAYER
10
14.8450462913172
20
24.7087746657515
30
-6.35759999999992
 70
     32
  0
VERTEX
  8
MY3DLAYER
10
14.8467500000028
20
24.6958337134963
30
-6.35759999999992
 70
     32
  0
VERTEX
  8
MY3DLAYER
10
14.8450462913172
20
24.6828927612412
30
-6.35759999999992
 70
     32
  0
VERTEX
  8
MY3DLAYER
10
14.840051270192
20
24.6708337134963
30
-6.35759999999992
 70
     32
  0
VERTEX
  8
MY3DLAYER
10
14.8321053390621
20
24.660478374437
30
-6.35759999999992
 70
     32
  0
VERTEX
  8
MY3DLAYER
10
14.8217500000028
20
24.6525324433071
30
-6.35759999999992
 70
     32
  0
VERTEX
  8
MY3DLAYER
10
14.8096909522579
20
24.6475374221819
30
-6.35759999999992
 70
     32
  0
VERTEX
  8
MY3DLAYER
10
14.7967500000028
20
24.6458337134963
30
-6.35759999999992
 70
     32
  0
VERTEX
  8
MY3DLAYER
10
14.7967500000028
20
24.2141662843563
30
-6.35759999999992
 70
     32
  0
VERTEX
  8
MY3DLAYER
10
14.8096909522579
20
24.2124625756708
30
-6.35759999999992
 70
     32
  0
VERTEX
  8
MY3DLAYER
10
14.8217500000028
20
24.2074675545456
30
-6.35759999999992
 70
     32
  0
VERTEX
  8
MY3DLAYER
10
14.8321053390621
20
24.1995216234157
30
-6.35759999999992
 70
     32
  0
VERTEX
  8
MY3DLAYER
10
14.840051270192
20
24.1891662843563
30
-6.35759999999992
 70
     32
  0
VERTEX
  8
MY3DLAYER
10
14.8450462913172
20
24.1771072366115
30
-6.35759999999992
 70
     32
  0
VERTEX
  8
MY3DLAYER
10
14.8467500000028
20
24.1641662843563
30
-6.35759999999992
 70
     32
  0
VERTEX
  8
MY3DLAYER
10
14.8450462913172
20
24.1512253321012
30
-6.35759999999992
 70
     32
  0
VERTEX
  8
MY3DLAYER
10
14.840051270192
20
24.1391662843563
30
-6.35759999999992
 70
     32
  0
VERTEX
  8
MY3DLAYER
10
14.8321053390621
20
24.128810945297
30
-6.35759999999992
 70
     32
  0
VERTEX
  8
MY3DLAYER
10
14.8217500000028
20
24.1208650141671
30
-6.35759999999992
 70
     32
  0
VERTEX
  8
MY3DLAYER
10
14.8096909522579
20
24.1158699930419
30
-6.35759999999992
 70
     32
  0
VERTEX
  8
MY3DLAYER
10
14.7967500000028
20
24.1141662843563
30
-6.35759999999992
 70
     32
  0
VERTEX
  8
MY3DLAYER
10
14.7838090477476
20
24.1158699930419
30
-6.35759999999992
 70
     32
  0
VERTEX
  8
MY3DLAYER
10
14.7717500000028
20
24.1208650141671
30
-6.35759999999992
 70
     32
  0
VERTEX
  8
MY3DLAYER
10
14.7613946609434
20
24.128810945297
30
-6.35759999999992
 70
     32
  0
VERTEX
  8
MY3DLAYER
10
14.7534487298135
20
24.1391662843563
30
-6.35759999999992
 70
     32
  0
VERTEX
  8
MY3DLAYER
10
14.379613770192
20
23.9233325697863
30
-6.35759999999992
 70
     32
  0
VERTEX
  8
MY3DLAYER
10
14.3846087913172
20
23.9112735220415
30
-6.35759999999992
 70
     32
  0
VERTEX
  8
MY3DLAYER
10
14.3863125000028
20
23.8983325697863
30
-6.35759999999992
 70
     32
  0
VERTEX
  8
MY3DLAYER
10
14.3846087913172
20
23.8853916175312
30
-6.35759999999992
 70
     32
  0
VERTEX
  8
MY3DLAYER
10
14.379613770192
20
23.8733325697863
30
-6.35759999999992
 70
     32
  0
VERTEX
  8
MY3DLAYER
10
14.3716678390621
20
23.862977230727
30
-6.35759999999992
 70
     32
  0
VERTEX
  8
MY3DLAYER
10
14.3613125000028
20
23.8550312995971
30
-6.35759999999992
 70
     32
  0
VERTEX
  8
MY3DLAYER
10
14.3492534522579
20
23.8500362784719
30
-6.35759999999992
 70
     32
  0
VERTEX
  8
MY3DLAYER
10
14.3363125000028
20
23.8483325697863
30
-6.35759999999992
 70
     32
  0
VERTEX
  8
MY3DLAYER
10
14.3233715477476
20
23.8500362784719
30
-6.35759999999992
 70
     32
  0
VERTEX
  8
MY3DLAYER
10
14.3113125000028
20
23.8550312995971
30
-6.35759999999992
 70
     32
  0
VERTEX
  8
MY3DLAYER
10
14.3009571609434
20
23.862977230727
30
-6.35759999999992
 70
     32
  0
VERTEX
  8
MY3DLAYER
10
14.2930112298135
20
23.8733325697863
30
-6.35759999999992
 70
     32
  0
VERTEX
  8
MY3DLAYER
10
14.2880162086883
20
23.8853916175312
30
-6.35759999999992
 70
     32
  0
VERTEX
  8
MY3DLAYER
10
14.2863125000028
20
23.8983325697863
30
-6.35759999999992
 70
     32
  0
VERTEX
  8
MY3DLAYER
10
14.2880162086883
20
23.9112735220415
30
-6.35759999999992
 70
     32
  0
VERTEX
  8
MY3DLAYER
10
14.2930112298135
20
23.9233325697863
30
-6.35759999999992
 70
     32
  0
VERTEX
  8
MY3DLAYER
10
13.919176270192
20
24.1391662843563
30
-6.35759999999992
 70
     32
  0
VERTEX
  8
MY3DLAYER
10
13.9112303390621
20
24.128810945297
30
-6.35759999999992
 70
     32
  0
VERTEX
  8
MY3DLAYER
10
13.9008750000028
20
24.1208650141671
30
-6.35759999999992
 70
     32
  0
VERTEX
  8
MY3DLAYER
10
13.8888159522579
20
24.1158699930419
30
-6.35759999999992
 70
     32
  0
VERTEX
  8
MY3DLAYER
10
13.8758750000028
20
24.1141662843563
30
-6.35759999999992
 70
     32
  0
VERTEX
  8
MY3DLAYER
10
13.8629340477476
20
24.1158699930419
30
-6.35759999999992
 70
     32
  0
VERTEX
  8
MY3DLAYER
10
13.8508750000028
20
24.1208650141671
30
-6.35759999999992
 70
     32
  0
VERTEX
  8
MY3DLAYER
10
13.8405196609434
20
24.128810945297
30
-6.35759999999992
 70
     32
  0
VERTEX
  8
MY3DLAYER
10
13.8325737298135
20
24.1391662843563
30
-6.35759999999992
 70
     32
  0
VERTEX
  8
MY3DLAYER
10
13.8275787086883
20
24.1512253321012
30
-6.35759999999992
 70
     32
  0
VERTEX
  8
MY3DLAYER
10
13.8258750000028
20
24.1641662843563
30
-6.35759999999992
 70
     32
  0
VERTEX
  8
MY3DLAYER
10
13.8275787086883
20
24.1771072366115
30
-6.35759999999992
 70
     32
  0
VERTEX
  8
MY3DLAYER
10
13.8325737298135
20
24.1891662843563
30
-6.35759999999992
 70
     32
  0
VERTEX
  8
MY3DLAYER
10
13.8405196609434
20
24.1995216234157
30
-6.35759999999992
 70
     32
  0
VERTEX
  8
MY3DLAYER
10
13.8508750000028
20
24.2074675545456
30
-6.35759999999992
 70
     32
  0
VERTEX
  8
MY3DLAYER
10
13.8629340477476
20
24.2124625756708
30
-6.35759999999992
 70
     32
  0
VERTEX
  8
MY3DLAYER
10
13.8758750000028
20
24.2141662843563
30
-6.35759999999992
 70
     32
  0
VERTEX
  8
MY3DLAYER
10
13.8758750000028
20
24.6458337134963
30
-6.35759999999992
 70
     32
  0
VERTEX
  8
MY3DLAYER
10
13.8629340477476
20
24.6475374221819
30
-6.35759999999992
 70
     32
  0
VERTEX
  8
MY3DLAYER
10
13.8508750000028
20
24.6525324433071
30
-6.35759999999992
 70
     32
  0
VERTEX
  8
MY3DLAYER
10
13.8405196609434
20
24.660478374437
30
-6.35759999999992
 70
     32
  0
VERTEX
  8
MY3DLAYER
10
13.8325737298135
20
24.6708337134963
30
-6.35759999999992
 70
     32
  0
VERTEX
  8
MY3DLAYER
10
13.8275787086883
20
24.6828927612412
30
-6.35759999999992
 70
     32
  0
SEQEND
  0
POLYLINE
 8
Layer0
 66
     1
70
    8
 10
0.0
 20
 0.0
 30
0.0
  0
VERTEX
  8
MY3DLAYER
10
12.2571875000023
20
25.0116674280663
30
-6.35759999999992
 70
     32
  0
VERTEX
  8
MY3DLAYER
10
12.2701284522575
20
25.0099637193808
30
-6.35759999999992
 70
     32
  0
VERTEX
  8
MY3DLAYER
10
12.2821875000023
20
25.0049686982556
30
-6.35759999999992
 70
     32
  0
VERTEX
  8
MY3DLAYER
10
12.2925428390617
20
24.9970227671257
30
-6.35759999999992
 70
     32
  0
VERTEX
  8
MY3DLAYER
10
12.3004887701916
20
24.9866674280663
30
-6.35759999999992
 70
     32
  0
VERTEX
  8
MY3DLAYER
10
12.3054837913168
20
24.9746083803215
30
-6.35759999999992
 70
     32
  0
VERTEX
  8
MY3DLAYER
10
12.3071875000023
20
24.9616674280663
30
-6.35759999999992
 70
     32
  0
VERTEX
  8
MY3DLAYER
10
12.3054837913168
20
24.9487264758112
30
-6.35759999999992
 70
     32
  0
VERTEX
  8
MY3DLAYER
10
12.3004887701916
20
24.9366674280663
30
-6.35759999999992
 70
     32
  0
VERTEX
  8
MY3DLAYER
10
12.6743237298131
20
24.7208337134963
30
-6.35759999999992
 70
     32
  0
VERTEX
  8
MY3DLAYER
10
12.682269660943
20
24.7311890525557
30
-6.35759999999992
 70
     32
  0
VERTEX
  8
MY3DLAYER
10
12.6926250000023
20
24.7391349836856
30
-6.35759999999992
 70
     32
  0
VERTEX
  8
MY3DLAYER
10
12.7046840477472
20
24.7441300048108
30
-6.35759999999992
 70
     32
  0
VERTEX
  8
MY3DLAYER
10
12.7176250000023
20
24.7458337134963
30
-6.35759999999992
 70
     32
  0
VERTEX
  8
MY3DLAYER
10
12.7305659522575
20
24.7441300048108
30
-6.35759999999992
 70
     32
  0
VERTEX
  8
MY3DLAYER
10
12.7426250000023
20
24.7391349836856
30
-6.35759999999992
 70
     32
  0
VERTEX
  8
MY3DLAYER
10
12.7529803390617
20
24.7311890525557
30
-6.35759999999992
 70
     32
  0
VERTEX
  8
MY3DLAYER
10
12.7609262701916
20
24.7208337134963
30
-6.35759999999992
 70
     32
  0
VERTEX
  8
MY3DLAYER
10
12.7659212913168
20
24.7087746657515
30
-6.35759999999992
 70
     32
  0
VERTEX
  8
MY3DLAYER
10
12.7676250000023
20
24.6958337134963
30
-6.35759999999992
 70
     32
  0
VERTEX
  8
MY3DLAYER
10
12.7659212913168
20
24.6828927612412
30
-6.35759999999992
 70
     32
  0
VERTEX
  8
MY3DLAYER
10
12.7609262701916
20
24.6708337134963
30
-6.35759999999992
 70
     32
  0
VERTEX
  8
MY3DLAYER
10
12.7529803390617
20
24.660478374437
30
-6.35759999999992
 70
     32
  0
VERTEX
  8
MY3DLAYER
10
12.7426250000023
20
24.6525324433071
30
-6.35759999999992
 70
     32
  0
VERTEX
  8
MY3DLAYER
10
12.7305659522575
20
24.6475374221819
30
-6.35759999999992
 70
     32
  0
VERTEX
  8
MY3DLAYER
10
12.7176250000023
20
24.6458337134963
30
-6.35759999999992
 70
     32
  0
VERTEX
  8
MY3DLAYER
10
12.7176250000023
20
24.2141662843563
30
-6.35759999999992
 70
     32
  0
VERTEX
  8
MY3DLAYER
10
12.7305659522575
20
24.2124625756708
30
-6.35759999999992
 70
     32
  0
VERTEX
  8
MY3DLAYER
10
12.7426250000023
20
24.2074675545456
30
-6.35759999999992
 70
     32
  0
VERTEX
  8
MY3DLAYER
10
12.7529803390617
20
24.1995216234157
30
-6.35759999999992
 70
     32
  0
VERTEX
  8
MY3DLAYER
10
12.7609262701916
20
24.1891662843563
30
-6.35759999999992
 70
     32
  0
VERTEX
  8
MY3DLAYER
10
12.7659212913168
20
24.1771072366115
30
-6.35759999999992
 70
     32
  0
VERTEX
  8
MY3DLAYER
10
12.7676250000023
20
24.1641662843563
30
-6.35759999999992
 70
     32
  0
VERTEX
  8
MY3DLAYER
10
12.7659212913168
20
24.1512253321012
30
-6.35759999999992
 70
     32
  0
VERTEX
  8
MY3DLAYER
10
12.7609262701916
20
24.1391662843563
30
-6.35759999999992
 70
     32
  0
VERTEX
  8
MY3DLAYER
10
12.7529803390617
20
24.128810945297
30
-6.35759999999992
 70
     32
  0
VERTEX
  8
MY3DLAYER
10
12.7426250000023
20
24.1208650141671
30
-6.35759999999992
 70
     32
  0
VERTEX
  8
MY3DLAYER
10
12.7305659522575
20
24.1158699930419
30
-6.35759999999992
 70
     32
  0
VERTEX
  8
MY3DLAYER
10
12.7176250000023
20
24.1141662843563
30
-6.35759999999992
 70
     32
  0
VERTEX
  8
MY3DLAYER
10
12.7046840477472
20
24.1158699930419
30
-6.35759999999992
 70
     32
  0
VERTEX
  8
MY3DLAYER
10
12.6926250000023
20
24.1208650141671
30
-6.35759999999992
 70
     32
  0
VERTEX
  8
MY3DLAYER
10
12.682269660943
20
24.128810945297
30
-6.35759999999992
 70
     32
  0
VERTEX
  8
MY3DLAYER
10
12.6743237298131
20
24.1391662843563
30
-6.35759999999992
 70
     32
  0
VERTEX
  8
MY3DLAYER
10
12.3004887701916
20
23.9233325697863
30
-6.35759999999992
 70
     32
  0
VERTEX
  8
MY3DLAYER
10
12.3054837913168
20
23.9112735220415
30
-6.35759999999992
 70
     32
  0
VERTEX
  8
MY3DLAYER
10
12.3071875000023
20
23.8983325697863
30
-6.35759999999992
 70
     32
  0
VERTEX
  8
MY3DLAYER
10
12.3054837913168
20
23.8853916175312
30
-6.35759999999992
 70
     32
  0
VERTEX
  8
MY3DLAYER
10
12.3004887701916
20
23.8733325697863
30
-6.35759999999992
 70
     32
  0
VERTEX
  8
MY3DLAYER
10
12.2925428390617
20
23.862977230727
30
-6.35759999999992
 70
     32
  0
VERTEX
  8
MY3DLAYER
10
12.2821875000023
20
23.8550312995971
30
-6.35759999999992
 70
     32
  0
VERTEX
  8
MY3DLAYER
10
12.2701284522575
20
23.8500362784719
30
-6.35759999999992
 70
     32
  0
VERTEX
  8
MY3DLAYER
10
12.2571875000023
20
23.8483325697863
30
-6.35759999999992
 70
     32
  0
VERTEX
  8
MY3DLAYER
10
12.2442465477472
20
23.8500362784719
30
-6.35759999999992
 70
     32
  0
VERTEX
  8
MY3DLAYER
10
12.2321875000023
20
23.8550312995971
30
-6.35759999999992
 70
     32
  0
VERTEX
  8
MY3DLAYER
10
12.221832160943
20
23.862977230727
30
-6.35759999999992
 70
     32
  0
VERTEX
  8
MY3DLAYER
10
12.2138862298131
20
23.8733325697863
30
-6.35759999999992
 70
     32
  0
VERTEX
  8
MY3DLAYER
10
12.2088912086879
20
23.8853916175312
30
-6.35759999999992
 70
     32
  0
VERTEX
  8
MY3DLAYER
10
12.2071875000023
20
23.8983325697863
30
-6.35759999999992
 70
     32
  0
VERTEX
  8
MY3DLAYER
10
12.2088912086879
20
23.9112735220415
30
-6.35759999999992
 70
     32
  0
VERTEX
  8
MY3DLAYER
10
12.2138862298131
20
23.9233325697863
30
-6.35759999999992
 70
     32
  0
VERTEX
  8
MY3DLAYER
10
11.8400512701916
20
24.1391662843563
30
-6.35759999999992
 70
     32
  0
VERTEX
  8
MY3DLAYER
10
11.8321053390617
20
24.128810945297
30
-6.35759999999992
 70
     32
  0
VERTEX
  8
MY3DLAYER
10
11.8217500000023
20
24.1208650141671
30
-6.35759999999992
 70
     32
  0
VERTEX
  8
MY3DLAYER
10
11.8096909522575
20
24.1158699930419
30
-6.35759999999992
 70
     32
  0
VERTEX
  8
MY3DLAYER
10
11.7967500000023
20
24.1141662843563
30
-6.35759999999992
 70
     32
  0
VERTEX
  8
MY3DLAYER
10
11.7838090477472
20
24.1158699930419
30
-6.35759999999992
 70
     32
  0
VERTEX
  8
MY3DLAYER
10
11.7717500000023
20
24.1208650141671
30
-6.35759999999992
 70
     32
  0
VERTEX
  8
MY3DLAYER
10
11.761394660943
20
24.128810945297
30
-6.35759999999992
 70
     32
  0
VERTEX
  8
MY3DLAYER
10
11.7534487298131
20
24.1391662843563
30
-6.35759999999992
 70
     32
  0
VERTEX
  8
MY3DLAYER
10
11.7484537086879
20
24.1512253321012
30
-6.35759999999992
 70
     32
  0
VERTEX
  8
MY3DLAYER
10
11.7467500000023
20
24.1641662843563
30
-6.35759999999992
 70
     32
  0
VERTEX
  8
MY3DLAYER
10
11.7484537086879
20
24.1771072366115
30
-6.35759999999992
 70
     32
  0
VERTEX
  8
MY3DLAYER
10
11.7534487298131
20
24.1891662843563
30
-6.35759999999992
 70
     32
  0
VERTEX
  8
MY3DLAYER
10
11.761394660943
20
24.1995216234157
30
-6.35759999999992
 70
     32
  0
VERTEX
  8
MY3DLAYER
10
11.7717500000023
20
24.2074675545456
30
-6.35759999999992
 70
     32
  0
VERTEX
  8
MY3DLAYER
10
11.7838090477472
20
24.2124625756708
30
-6.35759999999992
 70
     32
  0
VERTEX
  8
MY3DLAYER
10
11.7967500000023
20
24.2141662843563
30
-6.35759999999992
 70
     32
  0
VERTEX
  8
MY3DLAYER
10
11.7967500000023
20
24.6458337134963
30
-6.35759999999992
 70
     32
  0
VERTEX
  8
MY3DLAYER
10
11.7838090477472
20
24.6475374221819
30
-6.35759999999992
 70
     32
  0
VERTEX
  8
MY3DLAYER
10
11.7717500000023
20
24.6525324433071
30
-6.35759999999992
 70
     32
  0
VERTEX
  8
MY3DLAYER
10
11.761394660943
20
24.660478374437
30
-6.35759999999992
 70
     32
  0
VERTEX
  8
MY3DLAYER
10
11.7534487298131
20
24.6708337134963
30
-6.35759999999992
 70
     32
  0
VERTEX
  8
MY3DLAYER
10
11.7484537086879
20
24.6828927612412
30
-6.35759999999992
 70
     32
  0
VERTEX
  8
MY3DLAYER
10
11.7467500000023
20
24.6958337134963
30
-6.35759999999992
 70
     32
  0
VERTEX
  8
MY3DLAYER
10
11.7484537086879
20
24.7087746657515
30
-6.35759999999992
 70
     32
  0
VERTEX
  8
MY3DLAYER
10
11.7534487298131
20
24.7208337134963
30
-6.35759999999992
 70
     32
  0
VERTEX
  8
MY3DLAYER
10
11.761394660943
20
24.7311890525557
30
-6.35759999999992
 70
     32
  0
VERTEX
  8
MY3DLAYER
10
11.7717500000023
20
24.7391349836856
30
-6.35759999999992
 70
     32
  0
VERTEX
  8
MY3DLAYER
10
11.7838090477472
20
24.7441300048108
30
-6.35759999999992
 70
     32
  0
VERTEX
  8
MY3DLAYER
10
11.7967500000023
20
24.7458337134963
30
-6.35759999999992
 70
     32
  0
VERTEX
  8
MY3DLAYER
10
11.8096909522575
20
24.7441300048108
30
-6.35759999999992
 70
     32
  0
VERTEX
  8
MY3DLAYER
10
11.8217500000023
20
24.7391349836856
30
-6.35759999999992
 70
     32
  0
VERTEX
  8
MY3DLAYER
10
11.8321053390617
20
24.7311890525557
30
-6.35759999999992
 70
     32
  0
VERTEX
  8
MY3DLAYER
10
11.8400512701916
20
24.7208337134963
30
-6.35759999999992
 70
     32
  0
VERTEX
  8
MY3DLAYER
10
12.2138862298131
20
24.9366674280663
30
-6.35759999999992
 70
     32
  0
VERTEX
  8
MY3DLAYER
10
12.2088912086879
20
24.9487264758112
30
-6.35759999999992
 70
     32
  0
VERTEX
  8
MY3DLAYER
10
12.2071875000023
20
24.9616674280663
30
-6.35759999999992
 70
     32
  0
VERTEX
  8
MY3DLAYER
10
12.2088912086879
20
24.9746083803215
30
-6.35759999999992
 70
     32
  0
VERTEX
  8
MY3DLAYER
10
12.2138862298131
20
24.9866674280663
30
-6.35759999999992
 70
     32
  0
VERTEX
  8
MY3DLAYER
10
12.221832160943
20
24.9970227671257
30
-6.35759999999992
 70
     32
  0
VERTEX
  8
MY3DLAYER
10
12.2321875000023
20
25.0049686982556
30
-6.35759999999992
 70
     32
  0
VERTEX
  8
MY3DLAYER
10
12.2442465477472
20
25.0099637193808
30
-6.35759999999992
 70
     32
  0
VERTEX
  8
MY3DLAYER
10
12.2571875000023
20
25.0116674280663
30
-6.35759999999992
 70
     32
  0
SEQEND
  0
POLYLINE
 8
Layer0
 66
     1
70
    8
 10
0.0
 20
 0.0
 30
0.0
  0
VERTEX
  8
MY3DLAYER
10
14.2930112298135
20
27.6516674278932
30
-6.35759999999992
 70
     32
  0
VERTEX
  8
MY3DLAYER
10
14.2880162086883
20
27.6637264756381
30
-6.35759999999992
 70
     32
  0
VERTEX
  8
MY3DLAYER
10
14.2863125000028
20
27.6766674278932
30
-6.35759999999992
 70
     32
  0
VERTEX
  8
MY3DLAYER
10
14.2880162086883
20
27.6896083801483
30
-6.35759999999992
 70
     32
  0
VERTEX
  8
MY3DLAYER
10
14.2930112298135
20
27.7016674278932
30
-6.35759999999992
 70
     32
  0
VERTEX
  8
MY3DLAYER
10
14.3009571609434
20
27.7120227669526
30
-6.35759999999992
 70
     32
  0
VERTEX
  8
MY3DLAYER
10
14.3113125000028
20
27.7199686980824
30
-6.35759999999992
 70
     32
  0
VERTEX
  8
MY3DLAYER
10
14.3233715477476
20
27.7249637192077
30
-6.35759999999992
 70
     32
  0
VERTEX
  8
MY3DLAYER
10
14.3363125000028
20
27.7266674278932
30
-6.35759999999992
 70
     32
  0
VERTEX
  8
MY3DLAYER
10
14.3492534522579
20
27.7249637192077
30
-6.35759999999992
 70
     32
  0
VERTEX
  8
MY3DLAYER
10
14.3613125000028
20
27.7199686980824
30
-6.35759999999992
 70
     32
  0
VERTEX
  8
MY3DLAYER
10
14.3716678390621
20
27.7120227669526
30
-6.35759999999992
 70
     32
  0
VERTEX
  8
MY3DLAYER
10
14.379613770192
20
27.7016674278932
30
-6.35759999999992
 70
     32
  0
VERTEX
  8
MY3DLAYER
10
14.3846087913172
20
27.6896083801483
30
-6.35759999999992
 70
     32
  0
VERTEX
  8
MY3DLAYER
10
14.3863125000028
20
27.6766674278932
30
-6.35759999999992
 70
     32
  0
VERTEX
  8
MY3DLAYER
10
14.3846087913172
20
27.6637264756381
30
-6.35759999999992
 70
     32
  0
VERTEX
  8
MY3DLAYER
10
14.379613770192
20
27.6516674278932
30
-6.35759999999992
 70
     32
  0
VERTEX
  8
MY3DLAYER
10
14.7534487298135
20
27.4358337133232
30
-6.35759999999992
 70
     32
  0
VERTEX
  8
MY3DLAYER
10
14.7613946609434
20
27.4461890523826
30
-6.35759999999992
 70
     32
  0
VERTEX
  8
MY3DLAYER
10
14.7717500000028
20
27.4541349835124
30
-6.35759999999992
 70
     32
  0
VERTEX
  8
MY3DLAYER
10
14.7838090477476
20
27.4591300046377
30
-6.35759999999992
 70
     32
  0
VERTEX
  8
MY3DLAYER
10
14.7967500000028
20
27.4608337133232
30
-6.35759999999992
 70
     32
  0
VERTEX
  8
MY3DLAYER
10
14.8096909522579
20
27.4591300046377
30
-6.35759999999992
 70
     32
  0
VERTEX
  8
MY3DLAYER
10
14.8217500000028
20
27.4541349835124
30
-6.35759999999992
 70
     32
  0
VERTEX
  8
MY3DLAYER
10
14.8321053390621
20
27.4461890523826
30
-6.35759999999992
 70
     32
  0
VERTEX
  8
MY3DLAYER
10
14.840051270192
20
27.4358337133232
30
-6.35759999999992
 70
     32
  0
VERTEX
  8
MY3DLAYER
10
14.8450462913172
20
27.4237746655784
30
-6.35759999999992
 70
     32
  0
VERTEX
  8
MY3DLAYER
10
14.8467500000028
20
27.4108337133232
30
-6.35759999999992
 70
     32
  0
VERTEX
  8
MY3DLAYER
10
14.8450462913172
20
27.3978927610681
30
-6.35759999999992
 70
     32
  0
VERTEX
  8
MY3DLAYER
10
14.840051270192
20
27.3858337133232
30
-6.35759999999992
 70
     32
  0
VERTEX
  8
MY3DLAYER
10
14.8321053390621
20
27.3754783742639
30
-6.35759999999992
 70
     32
  0
VERTEX
  8
MY3DLAYER
10
14.8217500000028
20
27.367532443134
30
-6.35759999999992
 70
     32
  0
VERTEX
  8
MY3DLAYER
10
14.8096909522579
20
27.3625374220088
30
-6.35759999999992
 70
     32
  0
VERTEX
  8
MY3DLAYER
10
14.7967500000028
20
27.3608337133232
30
-6.35759999999992
 70
     32
  0
VERTEX
  8
MY3DLAYER
10
14.7967500000028
20
26.9291662841832
30
-6.35759999999992
 70
     32
  0
VERTEX
  8
MY3DLAYER
10
14.8096909522579
20
26.9274625754977
30
-6.35759999999992
 70
     32
  0
VERTEX
  8
MY3DLAYER
10
14.8217500000028
20
26.9224675543725
30
-6.35759999999992
 70
     32
  0
VERTEX
  8
MY3DLAYER
10
14.8321053390621
20
26.9145216232426
30
-6.35759999999992
 70
     32
  0
VERTEX
  8
MY3DLAYER
10
14.840051270192
20
26.9041662841832
30
-6.35759999999992
 70
     32
  0
VERTEX
  8
MY3DLAYER
10
14.8450462913172
20
26.8921072364384
30
-6.35759999999992
 70
     32
  0
VERTEX
  8
MY3DLAYER
10
14.8467500000028
20
26.8791662841832
30
-6.35759999999992
 70
     32
  0
VERTEX
  8
MY3DLAYER
10
14.8450462913172
20
26.8662253319281
30
-6.35759999999992
 70
     32
  0
VERTEX
  8
MY3DLAYER
10
14.840051270192
20
26.8541662841832
30
-6.35759999999992
 70
     32
  0
VERTEX
  8
MY3DLAYER
10
14.8321053390621
20
26.8438109451239
30
-6.35759999999992
 70
     32
  0
VERTEX
  8
MY3DLAYER
10
14.8217500000028
20
26.835865013994
30
-6.35759999999992
 70
     32
  0
VERTEX
  8
MY3DLAYER
10
14.8096909522579
20
26.8308699928688
30
-6.35759999999992
 70
     32
  0
VERTEX
  8
MY3DLAYER
10
14.7967500000028
20
26.8291662841832
30
-6.35759999999992
 70
     32
  0
VERTEX
  8
MY3DLAYER
10
14.7838090477476
20
26.8308699928688
30
-6.35759999999992
 70
     32
  0
VERTEX
  8
MY3DLAYER
10
14.7717500000028
20
26.835865013994
30
-6.35759999999992
 70
     32
  0
VERTEX
  8
MY3DLAYER
10
14.7613946609434
20
26.8438109451239
30
-6.35759999999992
 70
     32
  0
VERTEX
  8
MY3DLAYER
10
14.7534487298135
20
26.8541662841832
30
-6.35759999999992
 70
     32
  0
VERTEX
  8
MY3DLAYER
10
14.379613770192
20
26.6383325696132
30
-6.35759999999992
 70
     32
  0
VERTEX
  8
MY3DLAYER
10
14.3846087913172
20
26.6262735218684
30
-6.35759999999992
 70
     32
  0
VERTEX
  8
MY3DLAYER
10
14.3863125000028
20
26.6133325696132
30
-6.35759999999992
 70
     32
  0
VERTEX
  8
MY3DLAYER
10
14.3846087913172
20
26.6003916173581
30
-6.35759999999992
 70
     32
  0
VERTEX
  8
MY3DLAYER
10
14.379613770192
20
26.5883325696132
30
-6.35759999999992
 70
     32
  0
VERTEX
  8
MY3DLAYER
10
14.3716678390621
20
26.5779772305539
30
-6.35759999999992
 70
     32
  0
VERTEX
  8
MY3DLAYER
10
14.3613125000028
20
26.570031299424
30
-6.35759999999992
 70
     32
  0
VERTEX
  8
MY3DLAYER
10
14.3492534522579
20
26.5650362782988
30
-6.35759999999992
 70
     32
  0
VERTEX
  8
MY3DLAYER
10
14.3363125000028
20
26.5633325696132
30
-6.35759999999992
 70
     32
  0
VERTEX
  8
MY3DLAYER
10
14.3233715477476
20
26.5650362782988
30
-6.35759999999992
 70
     32
  0
VERTEX
  8
MY3DLAYER
10
14.3113125000028
20
26.570031299424
30
-6.35759999999992
 70
     32
  0
VERTEX
  8
MY3DLAYER
10
14.3009571609434
20
26.5779772305539
30
-6.35759999999992
 70
     32
  0
VERTEX
  8
MY3DLAYER
10
14.2930112298135
20
26.5883325696132
30
-6.35759999999992
 70
     32
  0
VERTEX
  8
MY3DLAYER
10
14.2880162086883
20
26.6003916173581
30
-6.35759999999992
 70
     32
  0
VERTEX
  8
MY3DLAYER
10
14.2863125000028
20
26.6133325696132
30
-6.35759999999992
 70
     32
  0
VERTEX
  8
MY3DLAYER
10
14.2880162086883
20
26.6262735218684
30
-6.35759999999992
 70
     32
  0
VERTEX
  8
MY3DLAYER
10
14.2930112298135
20
26.6383325696132
30
-6.35759999999992
 70
     32
  0
VERTEX
  8
MY3DLAYER
10
13.919176270192
20
26.8541662841832
30
-6.35759999999992
 70
     32
  0
VERTEX
  8
MY3DLAYER
10
13.9112303390621
20
26.8438109451239
30
-6.35759999999992
 70
     32
  0
VERTEX
  8
MY3DLAYER
10
13.9008750000028
20
26.835865013994
30
-6.35759999999992
 70
     32
  0
VERTEX
  8
MY3DLAYER
10
13.8888159522579
20
26.8308699928688
30
-6.35759999999992
 70
     32
  0
VERTEX
  8
MY3DLAYER
10
13.8758750000028
20
26.8291662841832
30
-6.35759999999992
 70
     32
  0
VERTEX
  8
MY3DLAYER
10
13.8629340477476
20
26.8308699928688
30
-6.35759999999992
 70
     32
  0
VERTEX
  8
MY3DLAYER
10
13.8508750000028
20
26.835865013994
30
-6.35759999999992
 70
     32
  0
VERTEX
  8
MY3DLAYER
10
13.8405196609434
20
26.8438109451239
30
-6.35759999999992
 70
     32
  0
VERTEX
  8
MY3DLAYER
10
13.8325737298135
20
26.8541662841832
30
-6.35759999999992
 70
     32
  0
VERTEX
  8
MY3DLAYER
10
13.8275787086883
20
26.8662253319281
30
-6.35759999999992
 70
     32
  0
VERTEX
  8
MY3DLAYER
10
13.8258750000028
20
26.8791662841832
30
-6.35759999999992
 70
     32
  0
VERTEX
  8
MY3DLAYER
10
13.8275787086883
20
26.8921072364384
30
-6.35759999999992
 70
     32
  0
VERTEX
  8
MY3DLAYER
10
13.8325737298135
20
26.9041662841832
30
-6.35759999999992
 70
     32
  0
VERTEX
  8
MY3DLAYER
10
13.8405196609434
20
26.9145216232426
30
-6.35759999999992
 70
     32
  0
VERTEX
  8
MY3DLAYER
10
13.8508750000028
20
26.9224675543725
30
-6.35759999999992
 70
     32
  0
VERTEX
  8
MY3DLAYER
10
13.8629340477476
20
26.9274625754977
30
-6.35759999999992
 70
     32
  0
VERTEX
  8
MY3DLAYER
10
13.8758750000028
20
26.9291662841832
30
-6.35759999999992
 70
     32
  0
VERTEX
  8
MY3DLAYER
10
13.8758750000028
20
27.3608337133232
30
-6.35759999999992
 70
     32
  0
VERTEX
  8
MY3DLAYER
10
13.8629340477476
20
27.3625374220088
30
-6.35759999999992
 70
     32
  0
VERTEX
  8
MY3DLAYER
10
13.8508750000028
20
27.367532443134
30
-6.35759999999992
 70
     32
  0
VERTEX
  8
MY3DLAYER
10
13.8405196609434
20
27.3754783742639
30
-6.35759999999992
 70
     32
  0
VERTEX
  8
MY3DLAYER
10
13.8325737298135
20
27.3858337133232
30
-6.35759999999992
 70
     32
  0
VERTEX
  8
MY3DLAYER
10
13.8275787086883
20
27.3978927610681
30
-6.35759999999992
 70
     32
  0
VERTEX
  8
MY3DLAYER
10
13.8258750000028
20
27.4108337133232
30
-6.35759999999992
 70
     32
  0
VERTEX
  8
MY3DLAYER
10
13.8275787086883
20
27.4237746655784
30
-6.35759999999992
 70
     32
  0
VERTEX
  8
MY3DLAYER
10
13.8325737298135
20
27.4358337133232
30
-6.35759999999992
 70
     32
  0
VERTEX
  8
MY3DLAYER
10
13.8405196609434
20
27.4461890523826
30
-6.35759999999992
 70
     32
  0
VERTEX
  8
MY3DLAYER
10
13.8508750000028
20
27.4541349835124
30
-6.35759999999992
 70
     32
  0
VERTEX
  8
MY3DLAYER
10
13.8629340477476
20
27.4591300046377
30
-6.35759999999992
 70
     32
  0
VERTEX
  8
MY3DLAYER
10
13.8758750000028
20
27.4608337133232
30
-6.35759999999992
 70
     32
  0
VERTEX
  8
MY3DLAYER
10
13.8888159522579
20
27.4591300046377
30
-6.35759999999992
 70
     32
  0
VERTEX
  8
MY3DLAYER
10
13.9008750000028
20
27.4541349835124
30
-6.35759999999992
 70
     32
  0
VERTEX
  8
MY3DLAYER
10
13.9112303390621
20
27.4461890523826
30
-6.35759999999992
 70
     32
  0
VERTEX
  8
MY3DLAYER
10
13.919176270192
20
27.4358337133232
30
-6.35759999999992
 70
     32
  0
VERTEX
  8
MY3DLAYER
10
14.2930112298135
20
27.6516674278932
30
-6.35759999999992
 70
     32
  0
SEQEND
  0
POLYLINE
 8
Layer0
 66
     1
70
    8
 10
0.0
 20
 0.0
 30
0.0
  0
VERTEX
  8
MY3DLAYER
10
12.3054837913168
20
26.6003916173581
30
-6.35759999999992
 70
     32
  0
VERTEX
  8
MY3DLAYER
10
12.3004887701916
20
26.5883325696132
30
-6.35759999999992
 70
     32
  0
VERTEX
  8
MY3DLAYER
10
12.2925428390617
20
26.5779772305539
30
-6.35759999999992
 70
     32
  0
VERTEX
  8
MY3DLAYER
10
12.2821875000023
20
26.570031299424
30
-6.35759999999992
 70
     32
  0
VERTEX
  8
MY3DLAYER
10
12.2701284522575
20
26.5650362782988
30
-6.35759999999992
 70
     32
  0
VERTEX
  8
MY3DLAYER
10
12.2571875000023
20
26.5633325696132
30
-6.35759999999992
 70
     32
  0
VERTEX
  8
MY3DLAYER
10
12.2442465477472
20
26.5650362782988
30
-6.35759999999992
 70
     32
  0
VERTEX
  8
MY3DLAYER
10
12.2321875000023
20
26.570031299424
30
-6.35759999999992
 70
     32
  0
VERTEX
  8
MY3DLAYER
10
12.221832160943
20
26.5779772305539
30
-6.35759999999992
 70
     32
  0
VERTEX
  8
MY3DLAYER
10
12.2138862298131
20
26.5883325696132
30
-6.35759999999992
 70
     32
  0
VERTEX
  8
MY3DLAYER
10
12.2088912086879
20
26.6003916173581
30
-6.35759999999992
 70
     32
  0
VERTEX
  8
MY3DLAYER
10
12.2071875000023
20
26.6133325696132
30
-6.35759999999992
 70
     32
  0
VERTEX
  8
MY3DLAYER
10
12.2088912086879
20
26.6262735218684
30
-6.35759999999992
 70
     32
  0
VERTEX
  8
MY3DLAYER
10
12.2138862298131
20
26.6383325696132
30
-6.35759999999992
 70
     32
  0
VERTEX
  8
MY3DLAYER
10
11.8400512701916
20
26.8541662841832
30
-6.35759999999992
 70
     32
  0
VERTEX
  8
MY3DLAYER
10
11.8321053390617
20
26.8438109451239
30
-6.35759999999992
 70
     32
  0
VERTEX
  8
MY3DLAYER
10
11.8217500000023
20
26.835865013994
30
-6.35759999999992
 70
     32
  0
VERTEX
  8
MY3DLAYER
10
11.8096909522575
20
26.8308699928688
30
-6.35759999999992
 70
     32
  0
VERTEX
  8
MY3DLAYER
10
11.7967500000023
20
26.8291662841832
30
-6.35759999999992
 70
     32
  0
VERTEX
  8
MY3DLAYER
10
11.7838090477472
20
26.8308699928688
30
-6.35759999999992
 70
     32
  0
VERTEX
  8
MY3DLAYER
10
11.7717500000023
20
26.835865013994
30
-6.35759999999992
 70
     32
  0
VERTEX
  8
MY3DLAYER
10
11.761394660943
20
26.8438109451239
30
-6.35759999999992
 70
     32
  0
VERTEX
  8
MY3DLAYER
10
11.7534487298131
20
26.8541662841832
30
-6.35759999999992
 70
     32
  0
VERTEX
  8
MY3DLAYER
10
11.7484537086879
20
26.8662253319281
30
-6.35759999999992
 70
     32
  0
VERTEX
  8
MY3DLAYER
10
11.7467500000023
20
26.8791662841832
30
-6.35759999999992
 70
     32
  0
VERTEX
  8
MY3DLAYER
10
11.7484537086879
20
26.8921072364384
30
-6.35759999999992
 70
     32
  0
VERTEX
  8
MY3DLAYER
10
11.7534487298131
20
26.9041662841832
30
-6.35759999999992
 70
     32
  0
VERTEX
  8
MY3DLAYER
10
11.761394660943
20
26.9145216232426
30
-6.35759999999992
 70
     32
  0
VERTEX
  8
MY3DLAYER
10
11.7717500000023
20
26.9224675543725
30
-6.35759999999992
 70
     32
  0
VERTEX
  8
MY3DLAYER
10
11.7838090477472
20
26.9274625754977
30
-6.35759999999992
 70
     32
  0
VERTEX
  8
MY3DLAYER
10
11.7967500000023
20
26.9291662841832
30
-6.35759999999992
 70
     32
  0
VERTEX
  8
MY3DLAYER
10
11.7967500000023
20
27.3608337133232
30
-6.35759999999992
 70
     32
  0
VERTEX
  8
MY3DLAYER
10
11.7838090477472
20
27.3625374220088
30
-6.35759999999992
 70
     32
  0
VERTEX
  8
MY3DLAYER
10
11.7717500000023
20
27.367532443134
30
-6.35759999999992
 70
     32
  0
VERTEX
  8
MY3DLAYER
10
11.761394660943
20
27.3754783742639
30
-6.35759999999992
 70
     32
  0
VERTEX
  8
MY3DLAYER
10
11.7534487298131
20
27.3858337133232
30
-6.35759999999992
 70
     32
  0
VERTEX
  8
MY3DLAYER
10
11.7484537086879
20
27.3978927610681
30
-6.35759999999992
 70
     32
  0
VERTEX
  8
MY3DLAYER
10
11.7467500000023
20
27.4108337133232
30
-6.35759999999992
 70
     32
  0
VERTEX
  8
MY3DLAYER
10
11.7484537086879
20
27.4237746655784
30
-6.35759999999992
 70
     32
  0
VERTEX
  8
MY3DLAYER
10
11.7534487298131
20
27.4358337133232
30
-6.35759999999992
 70
     32
  0
VERTEX
  8
MY3DLAYER
10
11.761394660943
20
27.4461890523826
30
-6.35759999999992
 70
     32
  0
VERTEX
  8
MY3DLAYER
10
11.7717500000023
20
27.4541349835124
30
-6.35759999999992
 70
     32
  0
VERTEX
  8
MY3DLAYER
10
11.7838090477472
20
27.4591300046377
30
-6.35759999999992
 70
     32
  0
VERTEX
  8
MY3DLAYER
10
11.7967500000023
20
27.4608337133232
30
-6.35759999999992
 70
     32
  0
VERTEX
  8
MY3DLAYER
10
11.8096909522575
20
27.4591300046377
30
-6.35759999999992
 70
     32
  0
VERTEX
  8
MY3DLAYER
10
11.8217500000023
20
27.4541349835124
30
-6.35759999999992
 70
     32
  0
VERTEX
  8
MY3DLAYER
10
11.8321053390617
20
27.4461890523826
30
-6.35759999999992
 70
     32
  0
VERTEX
  8
MY3DLAYER
10
11.8400512701916
20
27.4358337133232
30
-6.35759999999992
 70
     32
  0
VERTEX
  8
MY3DLAYER
10
12.2138862298131
20
27.6516674278932
30
-6.35759999999992
 70
     32
  0
VERTEX
  8
MY3DLAYER
10
12.2088912086879
20
27.6637264756381
30
-6.35759999999992
 70
     32
  0
VERTEX
  8
MY3DLAYER
10
12.2071875000023
20
27.6766674278932
30
-6.35759999999992
 70
     32
  0
VERTEX
  8
MY3DLAYER
10
12.2088912086879
20
27.6896083801483
30
-6.35759999999992
 70
     32
  0
VERTEX
  8
MY3DLAYER
10
12.2138862298131
20
27.7016674278932
30
-6.35759999999992
 70
     32
  0
VERTEX
  8
MY3DLAYER
10
12.221832160943
20
27.7120227669526
30
-6.35759999999992
 70
     32
  0
VERTEX
  8
MY3DLAYER
10
12.2321875000023
20
27.7199686980824
30
-6.35759999999992
 70
     32
  0
VERTEX
  8
MY3DLAYER
10
12.2442465477472
20
27.7249637192077
30
-6.35759999999992
 70
     32
  0
VERTEX
  8
MY3DLAYER
10
12.2571875000023
20
27.7266674278932
30
-6.35759999999992
 70
     32
  0
VERTEX
  8
MY3DLAYER
10
12.2701284522575
20
27.7249637192077
30
-6.35759999999992
 70
     32
  0
VERTEX
  8
MY3DLAYER
10
12.2821875000023
20
27.7199686980824
30
-6.35759999999992
 70
     32
  0
VERTEX
  8
MY3DLAYER
10
12.2925428390617
20
27.7120227669526
30
-6.35759999999992
 70
     32
  0
VERTEX
  8
MY3DLAYER
10
12.3004887701916
20
27.7016674278932
30
-6.35759999999992
 70
     32
  0
VERTEX
  8
MY3DLAYER
10
12.3054837913168
20
27.6896083801483
30
-6.35759999999992
 70
     32
  0
VERTEX
  8
MY3DLAYER
10
12.3071875000023
20
27.6766674278932
30
-6.35759999999992
 70
     32
  0
VERTEX
  8
MY3DLAYER
10
12.3054837913168
20
27.6637264756381
30
-6.35759999999992
 70
     32
  0
VERTEX
  8
MY3DLAYER
10
12.3004887701916
20
27.6516674278932
30
-6.35759999999992
 70
     32
  0
VERTEX
  8
MY3DLAYER
10
12.6743237298131
20
27.4358337133232
30
-6.35759999999992
 70
     32
  0
VERTEX
  8
MY3DLAYER
10
12.682269660943
20
27.4461890523826
30
-6.35759999999992
 70
     32
  0
VERTEX
  8
MY3DLAYER
10
12.6926250000023
20
27.4541349835124
30
-6.35759999999992
 70
     32
  0
VERTEX
  8
MY3DLAYER
10
12.7046840477472
20
27.4591300046377
30
-6.35759999999992
 70
     32
  0
VERTEX
  8
MY3DLAYER
10
12.7176250000023
20
27.4608337133232
30
-6.35759999999992
 70
     32
  0
VERTEX
  8
MY3DLAYER
10
12.7305659522575
20
27.4591300046377
30
-6.35759999999992
 70
     32
  0
VERTEX
  8
MY3DLAYER
10
12.7426250000023
20
27.4541349835124
30
-6.35759999999992
 70
     32
  0
VERTEX
  8
MY3DLAYER
10
12.7529803390617
20
27.4461890523826
30
-6.35759999999992
 70
     32
  0
VERTEX
  8
MY3DLAYER
10
12.7609262701916
20
27.4358337133232
30
-6.35759999999992
 70
     32
  0
VERTEX
  8
MY3DLAYER
10
12.7659212913168
20
27.4237746655784
30
-6.35759999999992
 70
     32
  0
VERTEX
  8
MY3DLAYER
10
12.7676250000023
20
27.4108337133232
30
-6.35759999999992
 70
     32
  0
VERTEX
  8
MY3DLAYER
10
12.7659212913168
20
27.3978927610681
30
-6.35759999999992
 70
     32
  0
VERTEX
  8
MY3DLAYER
10
12.7609262701916
20
27.3858337133232
30
-6.35759999999992
 70
     32
  0
VERTEX
  8
MY3DLAYER
10
12.7529803390617
20
27.3754783742639
30
-6.35759999999992
 70
     32
  0
VERTEX
  8
MY3DLAYER
10
12.7426250000023
20
27.367532443134
30
-6.35759999999992
 70
     32
  0
VERTEX
  8
MY3DLAYER
10
12.7305659522575
20
27.3625374220088
30
-6.35759999999992
 70
     32
  0
VERTEX
  8
MY3DLAYER
10
12.7176250000023
20
27.3608337133232
30
-6.35759999999992
 70
     32
  0
VERTEX
  8
MY3DLAYER
10
12.7176250000023
20
26.9291662841832
30
-6.35759999999992
 70
     32
  0
VERTEX
  8
MY3DLAYER
10
12.7305659522575
20
26.9274625754977
30
-6.35759999999992
 70
     32
  0
VERTEX
  8
MY3DLAYER
10
12.7426250000023
20
26.9224675543725
30
-6.35759999999992
 70
     32
  0
VERTEX
  8
MY3DLAYER
10
12.7529803390617
20
26.9145216232426
30
-6.35759999999992
 70
     32
  0
VERTEX
  8
MY3DLAYER
10
12.7609262701916
20
26.9041662841832
30
-6.35759999999992
 70
     32
  0
VERTEX
  8
MY3DLAYER
10
12.7659212913168
20
26.8921072364384
30
-6.35759999999992
 70
     32
  0
VERTEX
  8
MY3DLAYER
10
12.7676250000023
20
26.8791662841832
30
-6.35759999999992
 70
     32
  0
VERTEX
  8
MY3DLAYER
10
12.7659212913168
20
26.8662253319281
30
-6.35759999999992
 70
     32
  0
VERTEX
  8
MY3DLAYER
10
12.7609262701916
20
26.8541662841832
30
-6.35759999999992
 70
     32
  0
VERTEX
  8
MY3DLAYER
10
12.7529803390617
20
26.8438109451239
30
-6.35759999999992
 70
     32
  0
VERTEX
  8
MY3DLAYER
10
12.7426250000023
20
26.835865013994
30
-6.35759999999992
 70
     32
  0
VERTEX
  8
MY3DLAYER
10
12.7305659522575
20
26.8308699928688
30
-6.35759999999992
 70
     32
  0
VERTEX
  8
MY3DLAYER
10
12.7176250000023
20
26.8291662841832
30
-6.35759999999992
 70
     32
  0
VERTEX
  8
MY3DLAYER
10
12.7046840477472
20
26.8308699928688
30
-6.35759999999992
 70
     32
  0
VERTEX
  8
MY3DLAYER
10
12.6926250000023
20
26.835865013994
30
-6.35759999999992
 70
     32
  0
VERTEX
  8
MY3DLAYER
10
12.682269660943
20
26.8438109451239
30
-6.35759999999992
 70
     32
  0
VERTEX
  8
MY3DLAYER
10
12.6743237298131
20
26.8541662841832
30
-6.35759999999992
 70
     32
  0
VERTEX
  8
MY3DLAYER
10
12.3004887701916
20
26.6383325696132
30
-6.35759999999992
 70
     32
  0
VERTEX
  8
MY3DLAYER
10
12.3054837913168
20
26.6262735218684
30
-6.35759999999992
 70
     32
  0
VERTEX
  8
MY3DLAYER
10
12.3071875000023
20
26.6133325696132
30
-6.35759999999992
 70
     32
  0
VERTEX
  8
MY3DLAYER
10
12.3054837913168
20
26.6003916173581
30
-6.35759999999992
 70
     32
  0
SEQEND
  0
POLYLINE
 8
Layer0
 66
     1
70
    8
 10
0.0
 20
 0.0
 30
0.0
  0
VERTEX
  8
MY3DLAYER
10
11.8321053390617
20
30.1611890522094
30
-6.35759999999992
 70
     32
  0
VERTEX
  8
MY3DLAYER
10
11.8400512701916
20
30.1508337131501
30
-6.35759999999992
 70
     32
  0
VERTEX
  8
MY3DLAYER
10
12.2138862298131
20
30.3666674277201
30
-6.35759999999992
 70
     32
  0
VERTEX
  8
MY3DLAYER
10
12.2088912086879
20
30.378726475465
30
-6.35759999999992
 70
     32
  0
VERTEX
  8
MY3DLAYER
10
12.2071875000023
20
30.3916674277201
30
-6.35759999999992
 70
     32
  0
VERTEX
  8
MY3DLAYER
10
12.2088912086879
20
30.4046083799752
30
-6.35759999999992
 70
     32
  0
VERTEX
  8
MY3DLAYER
10
12.2138862298131
20
30.4166674277201
30
-6.35759999999992
 70
     32
  0
VERTEX
  8
MY3DLAYER
10
12.221832160943
20
30.4270227667794
30
-6.35759999999992
 70
     32
  0
VERTEX
  8
MY3DLAYER
10
12.2321875000023
20
30.4349686979093
30
-6.35759999999992
 70
     32
  0
VERTEX
  8
MY3DLAYER
10
12.2442465477472
20
30.4399637190346
30
-6.35759999999992
 70
     32
  0
VERTEX
  8
MY3DLAYER
10
12.2571875000023
20
30.4416674277201
30
-6.35759999999992
 70
     32
  0
VERTEX
  8
MY3DLAYER
10
12.2701284522575
20
30.4399637190346
30
-6.35759999999992
 70
     32
  0
VERTEX
  8
MY3DLAYER
10
12.2821875000023
20
30.4349686979093
30
-6.35759999999992
 70
     32
  0
VERTEX
  8
MY3DLAYER
10
12.2925428390617
20
30.4270227667794
30
-6.35759999999992
 70
     32
  0
VERTEX
  8
MY3DLAYER
10
12.3004887701916
20
30.4166674277201
30
-6.35759999999992
 70
     32
  0
VERTEX
  8
MY3DLAYER
10
12.3054837913168
20
30.4046083799752
30
-6.35759999999992
 70
     32
  0
VERTEX
  8
MY3DLAYER
10
12.3071875000023
20
30.3916674277201
30
-6.35759999999992
 70
     32
  0
VERTEX
  8
MY3DLAYER
10
12.3054837913168
20
30.378726475465
30
-6.35759999999992
 70
     32
  0
VERTEX
  8
MY3DLAYER
10
12.3004887701916
20
30.3666674277201
30
-6.35759999999992
 70
     32
  0
VERTEX
  8
MY3DLAYER
10
12.6743237298131
20
30.1508337131501
30
-6.35759999999992
 70
     32
  0
VERTEX
  8
MY3DLAYER
10
12.682269660943
20
30.1611890522094
30
-6.35759999999992
 70
     32
  0
VERTEX
  8
MY3DLAYER
10
12.6926250000023
20
30.1691349833393
30
-6.35759999999992
 70
     32
  0
VERTEX
  8
MY3DLAYER
10
12.7046840477472
20
30.1741300044646
30
-6.35759999999992
 70
     32
  0
VERTEX
  8
MY3DLAYER
10
12.7176250000023
20
30.1758337131501
30
-6.35759999999992
 70
     32
  0
VERTEX
  8
MY3DLAYER
10
12.7305659522575
20
30.1741300044646
30
-6.35759999999992
 70
     32
  0
VERTEX
  8
MY3DLAYER
10
12.7426250000023
20
30.1691349833393
30
-6.35759999999992
 70
     32
  0
VERTEX
  8
MY3DLAYER
10
12.7529803390617
20
30.1611890522094
30
-6.35759999999992
 70
     32
  0
VERTEX
  8
MY3DLAYER
10
12.7609262701916
20
30.1508337131501
30
-6.35759999999992
 70
     32
  0
VERTEX
  8
MY3DLAYER
10
12.7659212913168
20
30.1387746654052
30
-6.35759999999992
 70
     32
  0
VERTEX
  8
MY3DLAYER
10
12.7676250000023
20
30.1258337131501
30
-6.35759999999992
 70
     32
  0
VERTEX
  8
MY3DLAYER
10
12.7659212913168
20
30.112892760895
30
-6.35759999999992
 70
     32
  0
VERTEX
  8
MY3DLAYER
10
12.7609262701916
20
30.1008337131501
30
-6.35759999999992
 70
     32
  0
VERTEX
  8
MY3DLAYER
10
12.7529803390617
20
30.0904783740908
30
-6.35759999999992
 70
     32
  0
VERTEX
  8
MY3DLAYER
10
12.7426250000023
20
30.0825324429609
30
-6.35759999999992
 70
     32
  0
VERTEX
  8
MY3DLAYER
10
12.7305659522575
20
30.0775374218357
30
-6.35759999999992
 70
     32
  0
VERTEX
  8
MY3DLAYER
10
12.7176250000023
20
30.0758337131501
30
-6.35759999999992
 70
     32
  0
VERTEX
  8
MY3DLAYER
10
12.7176250000023
20
29.6441662840101
30
-6.35759999999992
 70
     32
  0
VERTEX
  8
MY3DLAYER
10
12.7305659522575
20
29.6424625753246
30
-6.35759999999992
 70
     32
  0
VERTEX
  8
MY3DLAYER
10
12.7426250000023
20
29.6374675541993
30
-6.35759999999992
 70
     32
  0
VERTEX
  8
MY3DLAYER
10
12.7529803390617
20
29.6295216230694
30
-6.35759999999992
 70
     32
  0
VERTEX
  8
MY3DLAYER
10
12.7609262701916
20
29.6191662840101
30
-6.35759999999992
 70
     32
  0
VERTEX
  8
MY3DLAYER
10
12.7659212913168
20
29.6071072362652
30
-6.35759999999992
 70
     32
  0
VERTEX
  8
MY3DLAYER
10
12.7676250000023
20
29.5941662840101
30
-6.35759999999992
 70
     32
  0
VERTEX
  8
MY3DLAYER
10
12.7659212913168
20
29.581225331755
30
-6.35759999999992
 70
     32
  0
VERTEX
  8
MY3DLAYER
10
12.7609262701916
20
29.5691662840101
30
-6.35759999999992
 70
     32
  0
VERTEX
  8
MY3DLAYER
10
12.7529803390617
20
29.5588109449508
30
-6.35759999999992
 70
     32
  0
VERTEX
  8
MY3DLAYER
10
12.7426250000023
20
29.5508650138209
30
-6.35759999999992
 70
     32
  0
VERTEX
  8
MY3DLAYER
10
12.7305659522575
20
29.5458699926957
30
-6.35759999999992
 70
     32
  0
VERTEX
  8
MY3DLAYER
10
12.7176250000023
20
29.5441662840101
30
-6.35759999999992
 70
     32
  0
VERTEX
  8
MY3DLAYER
10
12.7046840477472
20
29.5458699926957
30
-6.35759999999992
 70
     32
  0
VERTEX
  8
MY3DLAYER
10
12.6926250000023
20
29.5508650138209
30
-6.35759999999992
 70
     32
  0
VERTEX
  8
MY3DLAYER
10
12.682269660943
20
29.5588109449508
30
-6.35759999999992
 70
     32
  0
VERTEX
  8
MY3DLAYER
10
12.6743237298131
20
29.5691662840101
30
-6.35759999999992
 70
     32
  0
VERTEX
  8
MY3DLAYER
10
12.3004887701916
20
29.3533325694401
30
-6.35759999999992
 70
     32
  0
VERTEX
  8
MY3DLAYER
10
12.3054837913168
20
29.3412735216952
30
-6.35759999999992
 70
     32
  0
VERTEX
  8
MY3DLAYER
10
12.3071875000023
20
29.3283325694401
30
-6.35759999999992
 70
     32
  0
VERTEX
  8
MY3DLAYER
10
12.3054837913168
20
29.315391617185
30
-6.35759999999992
 70
     32
  0
VERTEX
  8
MY3DLAYER
10
12.3004887701916
20
29.3033325694401
30
-6.35759999999992
 70
     32
  0
VERTEX
  8
MY3DLAYER
10
12.2925428390617
20
29.2929772303808
30
-6.35759999999992
 70
     32
  0
VERTEX
  8
MY3DLAYER
10
12.2821875000023
20
29.2850312992509
30
-6.35759999999992
 70
     32
  0
VERTEX
  8
MY3DLAYER
10
12.2701284522575
20
29.2800362781257
30
-6.35759999999992
 70
     32
  0
VERTEX
  8
MY3DLAYER
10
12.2571875000023
20
29.2783325694401
30
-6.35759999999992
 70
     32
  0
VERTEX
  8
MY3DLAYER
10
12.2442465477472
20
29.2800362781257
30
-6.35759999999992
 70
     32
  0
VERTEX
  8
MY3DLAYER
10
12.2321875000023
20
29.2850312992509
30
-6.35759999999992
 70
     32
  0
VERTEX
  8
MY3DLAYER
10
12.221832160943
20
29.2929772303808
30
-6.35759999999992
 70
     32
  0
VERTEX
  8
MY3DLAYER
10
12.2138862298131
20
29.3033325694401
30
-6.35759999999992
 70
     32
  0
VERTEX
  8
MY3DLAYER
10
12.2088912086879
20
29.315391617185
30
-6.35759999999992
 70
     32
  0
VERTEX
  8
MY3DLAYER
10
12.2071875000023
20
29.3283325694401
30
-6.35759999999992
 70
     32
  0
VERTEX
  8
MY3DLAYER
10
12.2088912086879
20
29.3412735216952
30
-6.35759999999992
 70
     32
  0
VERTEX
  8
MY3DLAYER
10
12.2138862298131
20
29.3533325694401
30
-6.35759999999992
 70
     32
  0
VERTEX
  8
MY3DLAYER
10
11.8400512701916
20
29.5691662840101
30
-6.35759999999992
 70
     32
  0
VERTEX
  8
MY3DLAYER
10
11.8321053390617
20
29.5588109449508
30
-6.35759999999992
 70
     32
  0
VERTEX
  8
MY3DLAYER
10
11.8217500000023
20
29.5508650138209
30
-6.35759999999992
 70
     32
  0
VERTEX
  8
MY3DLAYER
10
11.8096909522575
20
29.5458699926957
30
-6.35759999999992
 70
     32
  0
VERTEX
  8
MY3DLAYER
10
11.7967500000023
20
29.5441662840101
30
-6.35759999999992
 70
     32
  0
VERTEX
  8
MY3DLAYER
10
11.7838090477472
20
29.5458699926957
30
-6.35759999999992
 70
     32
  0
VERTEX
  8
MY3DLAYER
10
11.7717500000023
20
29.5508650138209
30
-6.35759999999992
 70
     32
  0
VERTEX
  8
MY3DLAYER
10
11.761394660943
20
29.5588109449508
30
-6.35759999999992
 70
     32
  0
VERTEX
  8
MY3DLAYER
10
11.7534487298131
20
29.5691662840101
30
-6.35759999999992
 70
     32
  0
VERTEX
  8
MY3DLAYER
10
11.7484537086879
20
29.581225331755
30
-6.35759999999992
 70
     32
  0
VERTEX
  8
MY3DLAYER
10
11.7467500000023
20
29.5941662840101
30
-6.35759999999992
 70
     32
  0
VERTEX
  8
MY3DLAYER
10
11.7484537086879
20
29.6071072362652
30
-6.35759999999992
 70
     32
  0
VERTEX
  8
MY3DLAYER
10
11.7534487298131
20
29.6191662840101
30
-6.35759999999992
 70
     32
  0
VERTEX
  8
MY3DLAYER
10
11.761394660943
20
29.6295216230694
30
-6.35759999999992
 70
     32
  0
VERTEX
  8
MY3DLAYER
10
11.7717500000023
20
29.6374675541993
30
-6.35759999999992
 70
     32
  0
VERTEX
  8
MY3DLAYER
10
11.7838090477472
20
29.6424625753246
30
-6.35759999999992
 70
     32
  0
VERTEX
  8
MY3DLAYER
10
11.7967500000023
20
29.6441662840101
30
-6.35759999999992
 70
     32
  0
VERTEX
  8
MY3DLAYER
10
11.7967500000023
20
30.0758337131501
30
-6.35759999999992
 70
     32
  0
VERTEX
  8
MY3DLAYER
10
11.7838090477472
20
30.0775374218357
30
-6.35759999999992
 70
     32
  0
VERTEX
  8
MY3DLAYER
10
11.7717500000023
20
30.0825324429609
30
-6.35759999999992
 70
     32
  0
VERTEX
  8
MY3DLAYER
10
11.761394660943
20
30.0904783740908
30
-6.35759999999992
 70
     32
  0
VERTEX
  8
MY3DLAYER
10
11.7534487298131
20
30.1008337131501
30
-6.35759999999992
 70
     32
  0
VERTEX
  8
MY3DLAYER
10
11.7484537086879
20
30.112892760895
30
-6.35759999999992
 70
     32
  0
VERTEX
  8
MY3DLAYER
10
11.7467500000023
20
30.1258337131501
30
-6.35759999999992
 70
     32
  0
VERTEX
  8
MY3DLAYER
10
11.7484537086879
20
30.1387746654052
30
-6.35759999999992
 70
     32
  0
VERTEX
  8
MY3DLAYER
10
11.7534487298131
20
30.1508337131501
30
-6.35759999999992
 70
     32
  0
VERTEX
  8
MY3DLAYER
10
11.761394660943
20
30.1611890522094
30
-6.35759999999992
 70
     32
  0
VERTEX
  8
MY3DLAYER
10
11.7717500000023
20
30.1691349833393
30
-6.35759999999992
 70
     32
  0
VERTEX
  8
MY3DLAYER
10
11.7838090477472
20
30.1741300044646
30
-6.35759999999992
 70
     32
  0
VERTEX
  8
MY3DLAYER
10
11.7967500000023
20
30.1758337131501
30
-6.35759999999992
 70
     32
  0
VERTEX
  8
MY3DLAYER
10
11.8096909522575
20
30.1741300044646
30
-6.35759999999992
 70
     32
  0
VERTEX
  8
MY3DLAYER
10
11.8217500000023
20
30.1691349833393
30
-6.35759999999992
 70
     32
  0
VERTEX
  8
MY3DLAYER
10
11.8321053390617
20
30.1611890522094
30
-6.35759999999992
 70
     32
  0
SEQEND
  0
POLYLINE
 8
Layer0
 66
     1
70
    8
 10
0.0
 20
 0.0
 30
0.0
  0
VERTEX
  8
MY3DLAYER
10
13.8508750000028
20
29.6374675541993
30
-6.35759999999992
 70
     32
  0
VERTEX
  8
MY3DLAYER
10
13.8629340477476
20
29.6424625753246
30
-6.35759999999992
 70
     32
  0
VERTEX
  8
MY3DLAYER
10
13.8758750000028
20
29.6441662840101
30
-6.35759999999992
 70
     32
  0
VERTEX
  8
MY3DLAYER
10
13.8758750000028
20
30.0758337131501
30
-6.35759999999992
 70
     32
  0
VERTEX
  8
MY3DLAYER
10
13.8629340477476
20
30.0775374218357
30
-6.35759999999992
 70
     32
  0
VERTEX
  8
MY3DLAYER
10
13.8508750000028
20
30.0825324429609
30
-6.35759999999992
 70
     32
  0
VERTEX
  8
MY3DLAYER
10
13.8405196609434
20
30.0904783740908
30
-6.35759999999992
 70
     32
  0
VERTEX
  8
MY3DLAYER
10
13.8325737298135
20
30.1008337131501
30
-6.35759999999992
 70
     32
  0
VERTEX
  8
MY3DLAYER
10
13.8275787086883
20
30.112892760895
30
-6.35759999999992
 70
     32
  0
VERTEX
  8
MY3DLAYER
10
13.8258750000028
20
30.1258337131501
30
-6.35759999999992
 70
     32
  0
VERTEX
  8
MY3DLAYER
10
13.8275787086883
20
30.1387746654052
30
-6.35759999999992
 70
     32
  0
VERTEX
  8
MY3DLAYER
10
13.8325737298135
20
30.1508337131501
30
-6.35759999999992
 70
     32
  0
VERTEX
  8
MY3DLAYER
10
13.8405196609434
20
30.1611890522094
30
-6.35759999999992
 70
     32
  0
VERTEX
  8
MY3DLAYER
10
13.8508750000028
20
30.1691349833393
30
-6.35759999999992
 70
     32
  0
VERTEX
  8
MY3DLAYER
10
13.8629340477476
20
30.1741300044646
30
-6.35759999999992
 70
     32
  0
VERTEX
  8
MY3DLAYER
10
13.8758750000028
20
30.1758337131501
30
-6.35759999999992
 70
     32
  0
VERTEX
  8
MY3DLAYER
10
13.8888159522579
20
30.1741300044646
30
-6.35759999999992
 70
     32
  0
VERTEX
  8
MY3DLAYER
10
13.9008750000028
20
30.1691349833393
30
-6.35759999999992
 70
     32
  0
VERTEX
  8
MY3DLAYER
10
13.9112303390621
20
30.1611890522094
30
-6.35759999999992
 70
     32
  0
VERTEX
  8
MY3DLAYER
10
13.919176270192
20
30.1508337131501
30
-6.35759999999992
 70
     32
  0
VERTEX
  8
MY3DLAYER
10
14.2930112298135
20
30.3666674277201
30
-6.35759999999992
 70
     32
  0
VERTEX
  8
MY3DLAYER
10
14.2880162086883
20
30.378726475465
30
-6.35759999999992
 70
     32
  0
VERTEX
  8
MY3DLAYER
10
14.2863125000028
20
30.3916674277201
30
-6.35759999999992
 70
     32
  0
VERTEX
  8
MY3DLAYER
10
14.2880162086883
20
30.4046083799752
30
-6.35759999999992
 70
     32
  0
VERTEX
  8
MY3DLAYER
10
14.2930112298135
20
30.4166674277201
30
-6.35759999999992
 70
     32
  0
VERTEX
  8
MY3DLAYER
10
14.3009571609434
20
30.4270227667794
30
-6.35759999999992
 70
     32
  0
VERTEX
  8
MY3DLAYER
10
14.3113125000028
20
30.4349686979093
30
-6.35759999999992
 70
     32
  0
VERTEX
  8
MY3DLAYER
10
14.3233715477476
20
30.4399637190346
30
-6.35759999999992
 70
     32
  0
VERTEX
  8
MY3DLAYER
10
14.3363125000028
20
30.4416674277201
30
-6.35759999999992
 70
     32
  0
VERTEX
  8
MY3DLAYER
10
14.3492534522579
20
30.4399637190346
30
-6.35759999999992
 70
     32
  0
VERTEX
  8
MY3DLAYER
10
14.3613125000028
20
30.4349686979093
30
-6.35759999999992
 70
     32
  0
VERTEX
  8
MY3DLAYER
10
14.3716678390621
20
30.4270227667794
30
-6.35759999999992
 70
     32
  0
VERTEX
  8
MY3DLAYER
10
14.379613770192
20
30.4166674277201
30
-6.35759999999992
 70
     32
  0
VERTEX
  8
MY3DLAYER
10
14.3846087913172
20
30.4046083799752
30
-6.35759999999992
 70
     32
  0
VERTEX
  8
MY3DLAYER
10
14.3863125000028
20
30.3916674277201
30
-6.35759999999992
 70
     32
  0
VERTEX
  8
MY3DLAYER
10
14.3846087913172
20
30.378726475465
30
-6.35759999999992
 70
     32
  0
VERTEX
  8
MY3DLAYER
10
14.379613770192
20
30.3666674277201
30
-6.35759999999992
 70
     32
  0
VERTEX
  8
MY3DLAYER
10
14.7534487298135
20
30.1508337131501
30
-6.35759999999992
 70
     32
  0
VERTEX
  8
MY3DLAYER
10
14.7613946609434
20
30.1611890522094
30
-6.35759999999992
 70
     32
  0
VERTEX
  8
MY3DLAYER
10
14.7717500000028
20
30.1691349833393
30
-6.35759999999992
 70
     32
  0
VERTEX
  8
MY3DLAYER
10
14.7838090477476
20
30.1741300044646
30
-6.35759999999992
 70
     32
  0
VERTEX
  8
MY3DLAYER
10
14.7967500000028
20
30.1758337131501
30
-6.35759999999992
 70
     32
  0
VERTEX
  8
MY3DLAYER
10
14.8096909522579
20
30.1741300044646
30
-6.35759999999992
 70
     32
  0
VERTEX
  8
MY3DLAYER
10
14.8217500000028
20
30.1691349833393
30
-6.35759999999992
 70
     32
  0
VERTEX
  8
MY3DLAYER
10
14.8321053390621
20
30.1611890522094
30
-6.35759999999992
 70
     32
  0
VERTEX
  8
MY3DLAYER
10
14.840051270192
20
30.1508337131501
30
-6.35759999999992
 70
     32
  0
VERTEX
  8
MY3DLAYER
10
14.8450462913172
20
30.1387746654052
30
-6.35759999999992
 70
     32
  0
VERTEX
  8
MY3DLAYER
10
14.8467500000028
20
30.1258337131501
30
-6.35759999999992
 70
     32
  0
VERTEX
  8
MY3DLAYER
10
14.8450462913172
20
30.112892760895
30
-6.35759999999992
 70
     32
  0
VERTEX
  8
MY3DLAYER
10
14.840051270192
20
30.1008337131501
30
-6.35759999999992
 70
     32
  0
VERTEX
  8
MY3DLAYER
10
14.8321053390621
20
30.0904783740908
30
-6.35759999999992
 70
     32
  0
VERTEX
  8
MY3DLAYER
10
14.8217500000028
20
30.0825324429609
30
-6.35759999999992
 70
     32
  0
VERTEX
  8
MY3DLAYER
10
14.8096909522579
20
30.0775374218357
30
-6.35759999999992
 70
     32
  0
VERTEX
  8
MY3DLAYER
10
14.7967500000028
20
30.0758337131501
30
-6.35759999999992
 70
     32
  0
VERTEX
  8
MY3DLAYER
10
14.7967500000028
20
29.6441662840101
30
-6.35759999999992
 70
     32
  0
VERTEX
  8
MY3DLAYER
10
14.8096909522579
20
29.6424625753246
30
-6.35759999999992
 70
     32
  0
VERTEX
  8
MY3DLAYER
10
14.8217500000028
20
29.6374675541993
30
-6.35759999999992
 70
     32
  0
VERTEX
  8
MY3DLAYER
10
14.8321053390621
20
29.6295216230694
30
-6.35759999999992
 70
     32
  0
VERTEX
  8
MY3DLAYER
10
14.840051270192
20
29.6191662840101
30
-6.35759999999992
 70
     32
  0
VERTEX
  8
MY3DLAYER
10
14.8450462913172
20
29.6071072362652
30
-6.35759999999992
 70
     32
  0
VERTEX
  8
MY3DLAYER
10
14.8467500000028
20
29.5941662840101
30
-6.35759999999992
 70
     32
  0
VERTEX
  8
MY3DLAYER
10
14.8450462913172
20
29.581225331755
30
-6.35759999999992
 70
     32
  0
VERTEX
  8
MY3DLAYER
10
14.840051270192
20
29.5691662840101
30
-6.35759999999992
 70
     32
  0
VERTEX
  8
MY3DLAYER
10
14.8321053390621
20
29.5588109449508
30
-6.35759999999992
 70
     32
  0
VERTEX
  8
MY3DLAYER
10
14.8217500000028
20
29.5508650138209
30
-6.35759999999992
 70
     32
  0
VERTEX
  8
MY3DLAYER
10
14.8096909522579
20
29.5458699926957
30
-6.35759999999992
 70
     32
  0
VERTEX
  8
MY3DLAYER
10
14.7967500000028
20
29.5441662840101
30
-6.35759999999992
 70
     32
  0
VERTEX
  8
MY3DLAYER
10
14.7838090477476
20
29.5458699926957
30
-6.35759999999992
 70
     32
  0
VERTEX
  8
MY3DLAYER
10
14.7717500000028
20
29.5508650138209
30
-6.35759999999992
 70
     32
  0
VERTEX
  8
MY3DLAYER
10
14.7613946609434
20
29.5588109449508
30
-6.35759999999992
 70
     32
  0
VERTEX
  8
MY3DLAYER
10
14.7534487298135
20
29.5691662840101
30
-6.35759999999992
 70
     32
  0
VERTEX
  8
MY3DLAYER
10
14.379613770192
20
29.3533325694401
30
-6.35759999999992
 70
     32
  0
VERTEX
  8
MY3DLAYER
10
14.3846087913172
20
29.3412735216952
30
-6.35759999999992
 70
     32
  0
VERTEX
  8
MY3DLAYER
10
14.3863125000028
20
29.3283325694401
30
-6.35759999999992
 70
     32
  0
VERTEX
  8
MY3DLAYER
10
14.3846087913172
20
29.315391617185
30
-6.35759999999992
 70
     32
  0
VERTEX
  8
MY3DLAYER
10
14.379613770192
20
29.3033325694401
30
-6.35759999999992
 70
     32
  0
VERTEX
  8
MY3DLAYER
10
14.3716678390621
20
29.2929772303808
30
-6.35759999999992
 70
     32
  0
VERTEX
  8
MY3DLAYER
10
14.3613125000028
20
29.2850312992509
30
-6.35759999999992
 70
     32
  0
VERTEX
  8
MY3DLAYER
10
14.3492534522579
20
29.2800362781257
30
-6.35759999999992
 70
     32
  0
VERTEX
  8
MY3DLAYER
10
14.3363125000028
20
29.2783325694401
30
-6.35759999999992
 70
     32
  0
VERTEX
  8
MY3DLAYER
10
14.3233715477476
20
29.2800362781257
30
-6.35759999999992
 70
     32
  0
VERTEX
  8
MY3DLAYER
10
14.3113125000028
20
29.2850312992509
30
-6.35759999999992
 70
     32
  0
VERTEX
  8
MY3DLAYER
10
14.3009571609434
20
29.2929772303808
30
-6.35759999999992
 70
     32
  0
VERTEX
  8
MY3DLAYER
10
14.2930112298135
20
29.3033325694401
30
-6.35759999999992
 70
     32
  0
VERTEX
  8
MY3DLAYER
10
14.2880162086883
20
29.315391617185
30
-6.35759999999992
 70
     32
  0
VERTEX
  8
MY3DLAYER
10
14.2863125000028
20
29.3283325694401
30
-6.35759999999992
 70
     32
  0
VERTEX
  8
MY3DLAYER
10
14.2880162086883
20
29.3412735216952
30
-6.35759999999992
 70
     32
  0
VERTEX
  8
MY3DLAYER
10
14.2930112298135
20
29.3533325694401
30
-6.35759999999992
 70
     32
  0
VERTEX
  8
MY3DLAYER
10
13.919176270192
20
29.5691662840101
30
-6.35759999999992
 70
     32
  0
VERTEX
  8
MY3DLAYER
10
13.9112303390621
20
29.5588109449508
30
-6.35759999999992
 70
     32
  0
VERTEX
  8
MY3DLAYER
10
13.9008750000028
20
29.5508650138209
30
-6.35759999999992
 70
     32
  0
VERTEX
  8
MY3DLAYER
10
13.8888159522579
20
29.5458699926957
30
-6.35759999999992
 70
     32
  0
VERTEX
  8
MY3DLAYER
10
13.8758750000028
20
29.5441662840101
30
-6.35759999999992
 70
     32
  0
VERTEX
  8
MY3DLAYER
10
13.8629340477476
20
29.5458699926957
30
-6.35759999999992
 70
     32
  0
VERTEX
  8
MY3DLAYER
10
13.8508750000028
20
29.5508650138209
30
-6.35759999999992
 70
     32
  0
VERTEX
  8
MY3DLAYER
10
13.8405196609434
20
29.5588109449508
30
-6.35759999999992
 70
     32
  0
VERTEX
  8
MY3DLAYER
10
13.8325737298135
20
29.5691662840101
30
-6.35759999999992
 70
     32
  0
VERTEX
  8
MY3DLAYER
10
13.8275787086883
20
29.581225331755
30
-6.35759999999992
 70
     32
  0
VERTEX
  8
MY3DLAYER
10
13.8258750000028
20
29.5941662840101
30
-6.35759999999992
 70
     32
  0
VERTEX
  8
MY3DLAYER
10
13.8275787086883
20
29.6071072362652
30
-6.35759999999992
 70
     32
  0
VERTEX
  8
MY3DLAYER
10
13.8325737298135
20
29.6191662840101
30
-6.35759999999992
 70
     32
  0
VERTEX
  8
MY3DLAYER
10
13.8405196609434
20
29.6295216230694
30
-6.35759999999992
 70
     32
  0
VERTEX
  8
MY3DLAYER
10
13.8508750000028
20
29.6374675541993
30
-6.35759999999992
 70
     32
  0
SEQEND
  0
POLYLINE
 8
Layer0
 66
     1
70
    8
 10
0.0
 20
 0.0
 30
0.0
  0
VERTEX
  8
MY3DLAYER
10
14.2930112298135
20
33.081667427547
30
-6.35759999999992
 70
     32
  0
VERTEX
  8
MY3DLAYER
10
14.2880162086883
20
33.0937264752919
30
-6.35759999999992
 70
     32
  0
VERTEX
  8
MY3DLAYER
10
14.2863125000028
20
33.106667427547
30
-6.35759999999992
 70
     32
  0
VERTEX
  8
MY3DLAYER
10
14.2880162086883
20
33.1196083798021
30
-6.35759999999992
 70
     32
  0
VERTEX
  8
MY3DLAYER
10
14.2930112298135
20
33.131667427547
30
-6.35759999999992
 70
     32
  0
VERTEX
  8
MY3DLAYER
10
14.3009571609434
20
33.1420227666063
30
-6.35759999999992
 70
     32
  0
VERTEX
  8
MY3DLAYER
10
14.3113125000028
20
33.1499686977362
30
-6.35759999999992
 70
     32
  0
VERTEX
  8
MY3DLAYER
10
14.3233715477476
20
33.1549637188615
30
-6.35759999999992
 70
     32
  0
VERTEX
  8
MY3DLAYER
10
14.3363125000028
20
33.156667427547
30
-6.35759999999992
 70
     32
  0
VERTEX
  8
MY3DLAYER
10
14.3492534522579
20
33.1549637188615
30
-6.35759999999992
 70
     32
  0
VERTEX
  8
MY3DLAYER
10
14.3613125000028
20
33.1499686977362
30
-6.35759999999992
 70
     32
  0
VERTEX
  8
MY3DLAYER
10
14.3716678390621
20
33.1420227666063
30
-6.35759999999992
 70
     32
  0
VERTEX
  8
MY3DLAYER
10
14.379613770192
20
33.131667427547
30
-6.35759999999992
 70
     32
  0
VERTEX
  8
MY3DLAYER
10
14.3846087913172
20
33.1196083798021
30
-6.35759999999992
 70
     32
  0
VERTEX
  8
MY3DLAYER
10
14.3863125000028
20
33.106667427547
30
-6.35759999999992
 70
     32
  0
VERTEX
  8
MY3DLAYER
10
14.3846087913172
20
33.0937264752919
30
-6.35759999999992
 70
     32
  0
VERTEX
  8
MY3DLAYER
10
14.379613770192
20
33.081667427547
30
-6.35759999999992
 70
     32
  0
VERTEX
  8
MY3DLAYER
10
14.7534487298135
20
32.865833712977
30
-6.35759999999992
 70
     32
  0
VERTEX
  8
MY3DLAYER
10
14.7613946609434
20
32.8761890520363
30
-6.35759999999992
 70
     32
  0
VERTEX
  8
MY3DLAYER
10
14.7717500000028
20
32.8841349831662
30
-6.35759999999992
 70
     32
  0
VERTEX
  8
MY3DLAYER
10
14.7838090477476
20
32.8891300042915
30
-6.35759999999992
 70
     32
  0
VERTEX
  8
MY3DLAYER
10
14.7967500000028
20
32.890833712977
30
-6.35759999999992
 70
     32
  0
VERTEX
  8
MY3DLAYER
10
14.8096909522579
20
32.8891300042915
30
-6.35759999999992
 70
     32
  0
VERTEX
  8
MY3DLAYER
10
14.8217500000028
20
32.8841349831662
30
-6.35759999999992
 70
     32
  0
VERTEX
  8
MY3DLAYER
10
14.8321053390621
20
32.8761890520363
30
-6.35759999999992
 70
     32
  0
VERTEX
  8
MY3DLAYER
10
14.840051270192
20
32.865833712977
30
-6.35759999999992
 70
     32
  0
VERTEX
  8
MY3DLAYER
10
14.8450462913172
20
32.8537746652321
30
-6.35759999999992
 70
     32
  0
VERTEX
  8
MY3DLAYER
10
14.8467500000028
20
32.840833712977
30
-6.35759999999992
 70
     32
  0
VERTEX
  8
MY3DLAYER
10
14.8450462913172
20
32.8278927607219
30
-6.35759999999992
 70
     32
  0
VERTEX
  8
MY3DLAYER
10
14.840051270192
20
32.815833712977
30
-6.35759999999992
 70
     32
  0
VERTEX
  8
MY3DLAYER
10
14.8321053390621
20
32.8054783739177
30
-6.35759999999992
 70
     32
  0
VERTEX
  8
MY3DLAYER
10
14.8217500000028
20
32.7975324427878
30
-6.35759999999992
 70
     32
  0
VERTEX
  8
MY3DLAYER
10
14.8096909522579
20
32.7925374216626
30
-6.35759999999992
 70
     32
  0
VERTEX
  8
MY3DLAYER
10
14.7967500000028
20
32.790833712977
30
-6.35759999999992
 70
     32
  0
VERTEX
  8
MY3DLAYER
10
14.7967500000028
20
32.359166283837
30
-6.35759999999992
 70
     32
  0
VERTEX
  8
MY3DLAYER
10
14.8096909522579
20
32.3574625751515
30
-6.35759999999992
 70
     32
  0
VERTEX
  8
MY3DLAYER
10
14.8217500000028
20
32.3524675540262
30
-6.35759999999992
 70
     32
  0
VERTEX
  8
MY3DLAYER
10
14.8321053390621
20
32.3445216228963
30
-6.35759999999992
 70
     32
  0
VERTEX
  8
MY3DLAYER
10
14.840051270192
20
32.334166283837
30
-6.35759999999992
 70
     32
  0
VERTEX
  8
MY3DLAYER
10
14.8450462913172
20
32.3221072360921
30
-6.35759999999992
 70
     32
  0
VERTEX
  8
MY3DLAYER
10
14.8467500000028
20
32.309166283837
30
-6.35759999999992
 70
     32
  0
VERTEX
  8
MY3DLAYER
10
14.8450462913172
20
32.2962253315819
30
-6.35759999999992
 70
     32
  0
VERTEX
  8
MY3DLAYER
10
14.840051270192
20
32.284166283837
30
-6.35759999999992
 70
     32
  0
VERTEX
  8
MY3DLAYER
10
14.8321053390621
20
32.2738109447777
30
-6.35759999999992
 70
     32
  0
VERTEX
  8
MY3DLAYER
10
14.8217500000028
20
32.2658650136478
30
-6.35759999999992
 70
     32
  0
VERTEX
  8
MY3DLAYER
10
14.8096909522579
20
32.2608699925226
30
-6.35759999999992
 70
     32
  0
VERTEX
  8
MY3DLAYER
10
14.7967500000028
20
32.259166283837
30
-6.35759999999992
 70
     32
  0
VERTEX
  8
MY3DLAYER
10
14.7838090477476
20
32.2608699925226
30
-6.35759999999992
 70
     32
  0
VERTEX
  8
MY3DLAYER
10
14.7717500000028
20
32.2658650136478
30
-6.35759999999992
 70
     32
  0
VERTEX
  8
MY3DLAYER
10
14.7613946609434
20
32.2738109447777
30
-6.35759999999992
 70
     32
  0
VERTEX
  8
MY3DLAYER
10
14.7534487298135
20
32.284166283837
30
-6.35759999999992
 70
     32
  0
VERTEX
  8
MY3DLAYER
10
14.379613770192
20
32.068332569267
30
-6.35759999999992
 70
     32
  0
VERTEX
  8
MY3DLAYER
10
14.3846087913172
20
32.0562735215221
30
-6.35759999999992
 70
     32
  0
VERTEX
  8
MY3DLAYER
10
14.3863125000028
20
32.043332569267
30
-6.35759999999992
 70
     32
  0
VERTEX
  8
MY3DLAYER
10
14.3846087913172
20
32.0303916170119
30
-6.35759999999992
 70
     32
  0
VERTEX
  8
MY3DLAYER
10
14.379613770192
20
32.018332569267
30
-6.35759999999992
 70
     32
  0
VERTEX
  8
MY3DLAYER
10
14.3716678390621
20
32.0079772302077
30
-6.35759999999992
 70
     32
  0
VERTEX
  8
MY3DLAYER
10
14.3613125000028
20
32.0000312990778
30
-6.35759999999992
 70
     32
  0
VERTEX
  8
MY3DLAYER
10
14.3492534522579
20
31.9950362779526
30
-6.35759999999992
 70
     32
  0
VERTEX
  8
MY3DLAYER
10
14.3363125000028
20
31.993332569267
30
-6.35759999999992
 70
     32
  0
VERTEX
  8
MY3DLAYER
10
14.3233715477476
20
31.9950362779526
30
-6.35759999999992
 70
     32
  0
VERTEX
  8
MY3DLAYER
10
14.3113125000028
20
32.0000312990778
30
-6.35759999999992
 70
     32
  0
VERTEX
  8
MY3DLAYER
10
14.3009571609434
20
32.0079772302077
30
-6.35759999999992
 70
     32
  0
VERTEX
  8
MY3DLAYER
10
14.2930112298135
20
32.018332569267
30
-6.35759999999992
 70
     32
  0
VERTEX
  8
MY3DLAYER
10
14.2880162086883
20
32.0303916170119
30
-6.35759999999992
 70
     32
  0
VERTEX
  8
MY3DLAYER
10
14.2863125000028
20
32.043332569267
30
-6.35759999999992
 70
     32
  0
VERTEX
  8
MY3DLAYER
10
14.2880162086883
20
32.0562735215221
30
-6.35759999999992
 70
     32
  0
VERTEX
  8
MY3DLAYER
10
14.2930112298135
20
32.068332569267
30
-6.35759999999992
 70
     32
  0
VERTEX
  8
MY3DLAYER
10
13.919176270192
20
32.284166283837
30
-6.35759999999992
 70
     32
  0
VERTEX
  8
MY3DLAYER
10
13.9112303390621
20
32.2738109447777
30
-6.35759999999992
 70
     32
  0
VERTEX
  8
MY3DLAYER
10
13.9008750000028
20
32.2658650136478
30
-6.35759999999992
 70
     32
  0
VERTEX
  8
MY3DLAYER
10
13.8888159522579
20
32.2608699925226
30
-6.35759999999992
 70
     32
  0
VERTEX
  8
MY3DLAYER
10
13.8758750000028
20
32.259166283837
30
-6.35759999999992
 70
     32
  0
VERTEX
  8
MY3DLAYER
10
13.8629340477476
20
32.2608699925226
30
-6.35759999999992
 70
     32
  0
VERTEX
  8
MY3DLAYER
10
13.8508750000028
20
32.2658650136478
30
-6.35759999999992
 70
     32
  0
VERTEX
  8
MY3DLAYER
10
13.8405196609434
20
32.2738109447777
30
-6.35759999999992
 70
     32
  0
VERTEX
  8
MY3DLAYER
10
13.8325737298135
20
32.284166283837
30
-6.35759999999992
 70
     32
  0
VERTEX
  8
MY3DLAYER
10
13.8275787086883
20
32.2962253315819
30
-6.35759999999992
 70
     32
  0
VERTEX
  8
MY3DLAYER
10
13.8258750000028
20
32.309166283837
30
-6.35759999999992
 70
     32
  0
VERTEX
  8
MY3DLAYER
10
13.8275787086883
20
32.3221072360921
30
-6.35759999999992
 70
     32
  0
VERTEX
  8
MY3DLAYER
10
13.8325737298135
20
32.334166283837
30
-6.35759999999992
 70
     32
  0
VERTEX
  8
MY3DLAYER
10
13.8405196609434
20
32.3445216228963
30
-6.35759999999992
 70
     32
  0
VERTEX
  8
MY3DLAYER
10
13.8508750000028
20
32.3524675540262
30
-6.35759999999992
 70
     32
  0
VERTEX
  8
MY3DLAYER
10
13.8629340477476
20
32.3574625751515
30
-6.35759999999992
 70
     32
  0
VERTEX
  8
MY3DLAYER
10
13.8758750000028
20
32.359166283837
30
-6.35759999999992
 70
     32
  0
VERTEX
  8
MY3DLAYER
10
13.8758750000028
20
32.790833712977
30
-6.35759999999992
 70
     32
  0
VERTEX
  8
MY3DLAYER
10
13.8629340477476
20
32.7925374216626
30
-6.35759999999992
 70
     32
  0
VERTEX
  8
MY3DLAYER
10
13.8508750000028
20
32.7975324427878
30
-6.35759999999992
 70
     32
  0
VERTEX
  8
MY3DLAYER
10
13.8405196609434
20
32.8054783739177
30
-6.35759999999992
 70
     32
  0
VERTEX
  8
MY3DLAYER
10
13.8325737298135
20
32.815833712977
30
-6.35759999999992
 70
     32
  0
VERTEX
  8
MY3DLAYER
10
13.8275787086883
20
32.8278927607219
30
-6.35759999999992
 70
     32
  0
VERTEX
  8
MY3DLAYER
10
13.8258750000028
20
32.840833712977
30
-6.35759999999992
 70
     32
  0
VERTEX
  8
MY3DLAYER
10
13.8275787086883
20
32.8537746652321
30
-6.35759999999992
 70
     32
  0
VERTEX
  8
MY3DLAYER
10
13.8325737298135
20
32.865833712977
30
-6.35759999999992
 70
     32
  0
VERTEX
  8
MY3DLAYER
10
13.8405196609434
20
32.8761890520363
30
-6.35759999999992
 70
     32
  0
VERTEX
  8
MY3DLAYER
10
13.8508750000028
20
32.8841349831662
30
-6.35759999999992
 70
     32
  0
VERTEX
  8
MY3DLAYER
10
13.8629340477476
20
32.8891300042915
30
-6.35759999999992
 70
     32
  0
VERTEX
  8
MY3DLAYER
10
13.8758750000028
20
32.890833712977
30
-6.35759999999992
 70
     32
  0
VERTEX
  8
MY3DLAYER
10
13.8888159522579
20
32.8891300042915
30
-6.35759999999992
 70
     32
  0
VERTEX
  8
MY3DLAYER
10
13.9008750000028
20
32.8841349831662
30
-6.35759999999992
 70
     32
  0
VERTEX
  8
MY3DLAYER
10
13.9112303390621
20
32.8761890520363
30
-6.35759999999992
 70
     32
  0
VERTEX
  8
MY3DLAYER
10
13.919176270192
20
32.865833712977
30
-6.35759999999992
 70
     32
  0
VERTEX
  8
MY3DLAYER
10
14.2930112298135
20
33.081667427547
30
-6.35759999999992
 70
     32
  0
SEQEND
  0
POLYLINE
 8
Layer0
 66
     1
70
    8
 10
0.0
 20
 0.0
 30
0.0
  0
VERTEX
  8
MY3DLAYER
10
12.7529803390617
20
32.8054783739177
30
-6.35759999999992
 70
     32
  0
VERTEX
  8
MY3DLAYER
10
12.7426250000023
20
32.7975324427878
30
-6.35759999999992
 70
     32
  0
VERTEX
  8
MY3DLAYER
10
12.7305659522575
20
32.7925374216626
30
-6.35759999999992
 70
     32
  0
VERTEX
  8
MY3DLAYER
10
12.7176250000023
20
32.790833712977
30
-6.35759999999992
 70
     32
  0
VERTEX
  8
MY3DLAYER
10
12.7176250000023
20
32.359166283837
30
-6.35759999999992
 70
     32
  0
VERTEX
  8
MY3DLAYER
10
12.7305659522575
20
32.3574625751515
30
-6.35759999999992
 70
     32
  0
VERTEX
  8
MY3DLAYER
10
12.7426250000023
20
32.3524675540262
30
-6.35759999999992
 70
     32
  0
VERTEX
  8
MY3DLAYER
10
12.7529803390617
20
32.3445216228963
30
-6.35759999999992
 70
     32
  0
VERTEX
  8
MY3DLAYER
10
12.7609262701916
20
32.334166283837
30
-6.35759999999992
 70
     32
  0
VERTEX
  8
MY3DLAYER
10
12.7659212913168
20
32.3221072360921
30
-6.35759999999992
 70
     32
  0
VERTEX
  8
MY3DLAYER
10
12.7676250000023
20
32.309166283837
30
-6.35759999999992
 70
     32
  0
VERTEX
  8
MY3DLAYER
10
12.7659212913168
20
32.2962253315819
30
-6.35759999999992
 70
     32
  0
VERTEX
  8
MY3DLAYER
10
12.7609262701916
20
32.284166283837
30
-6.35759999999992
 70
     32
  0
VERTEX
  8
MY3DLAYER
10
12.7529803390617
20
32.2738109447777
30
-6.35759999999992
 70
     32
  0
VERTEX
  8
MY3DLAYER
10
12.7426250000023
20
32.2658650136478
30
-6.35759999999992
 70
     32
  0
VERTEX
  8
MY3DLAYER
10
12.7305659522575
20
32.2608699925226
30
-6.35759999999992
 70
     32
  0
VERTEX
  8
MY3DLAYER
10
12.7176250000023
20
32.259166283837
30
-6.35759999999992
 70
     32
  0
VERTEX
  8
MY3DLAYER
10
12.7046840477472
20
32.2608699925226
30
-6.35759999999992
 70
     32
  0
VERTEX
  8
MY3DLAYER
10
12.6926250000023
20
32.2658650136478
30
-6.35759999999992
 70
     32
  0
VERTEX
  8
MY3DLAYER
10
12.682269660943
20
32.2738109447777
30
-6.35759999999992
 70
     32
  0
VERTEX
  8
MY3DLAYER
10
12.6743237298131
20
32.284166283837
30
-6.35759999999992
 70
     32
  0
VERTEX
  8
MY3DLAYER
10
12.3004887701916
20
32.068332569267
30
-6.35759999999992
 70
     32
  0
VERTEX
  8
MY3DLAYER
10
12.3054837913168
20
32.0562735215221
30
-6.35759999999992
 70
     32
  0
VERTEX
  8
MY3DLAYER
10
12.3071875000023
20
32.043332569267
30
-6.35759999999992
 70
     32
  0
VERTEX
  8
MY3DLAYER
10
12.3054837913168
20
32.0303916170119
30
-6.35759999999992
 70
     32
  0
VERTEX
  8
MY3DLAYER
10
12.3004887701916
20
32.018332569267
30
-6.35759999999992
 70
     32
  0
VERTEX
  8
MY3DLAYER
10
12.2925428390617
20
32.0079772302077
30
-6.35759999999992
 70
     32
  0
VERTEX
  8
MY3DLAYER
10
12.2821875000023
20
32.0000312990778
30
-6.35759999999992
 70
     32
  0
VERTEX
  8
MY3DLAYER
10
12.2701284522575
20
31.9950362779526
30
-6.35759999999992
 70
     32
  0
VERTEX
  8
MY3DLAYER
10
12.2571875000023
20
31.993332569267
30
-6.35759999999992
 70
     32
  0
VERTEX
  8
MY3DLAYER
10
12.2442465477472
20
31.9950362779526
30
-6.35759999999992
 70
     32
  0
VERTEX
  8
MY3DLAYER
10
12.2321875000023
20
32.0000312990778
30
-6.35759999999992
 70
     32
  0
VERTEX
  8
MY3DLAYER
10
12.221832160943
20
32.0079772302077
30
-6.35759999999992
 70
     32
  0
VERTEX
  8
MY3DLAYER
10
12.2138862298131
20
32.018332569267
30
-6.35759999999992
 70
     32
  0
VERTEX
  8
MY3DLAYER
10
12.2088912086879
20
32.0303916170119
30
-6.35759999999992
 70
     32
  0
VERTEX
  8
MY3DLAYER
10
12.2071875000023
20
32.043332569267
30
-6.35759999999992
 70
     32
  0
VERTEX
  8
MY3DLAYER
10
12.2088912086879
20
32.0562735215221
30
-6.35759999999992
 70
     32
  0
VERTEX
  8
MY3DLAYER
10
12.2138862298131
20
32.068332569267
30
-6.35759999999992
 70
     32
  0
VERTEX
  8
MY3DLAYER
10
11.8400512701916
20
32.284166283837
30
-6.35759999999992
 70
     32
  0
VERTEX
  8
MY3DLAYER
10
11.8321053390617
20
32.2738109447777
30
-6.35759999999992
 70
     32
  0
VERTEX
  8
MY3DLAYER
10
11.8217500000023
20
32.2658650136478
30
-6.35759999999992
 70
     32
  0
VERTEX
  8
MY3DLAYER
10
11.8096909522575
20
32.2608699925226
30
-6.35759999999992
 70
     32
  0
VERTEX
  8
MY3DLAYER
10
11.7967500000023
20
32.259166283837
30
-6.35759999999992
 70
     32
  0
VERTEX
  8
MY3DLAYER
10
11.7838090477472
20
32.2608699925226
30
-6.35759999999992
 70
     32
  0
VERTEX
  8
MY3DLAYER
10
11.7717500000023
20
32.2658650136478
30
-6.35759999999992
 70
     32
  0
VERTEX
  8
MY3DLAYER
10
11.761394660943
20
32.2738109447777
30
-6.35759999999992
 70
     32
  0
VERTEX
  8
MY3DLAYER
10
11.7534487298131
20
32.284166283837
30
-6.35759999999992
 70
     32
  0
VERTEX
  8
MY3DLAYER
10
11.7484537086879
20
32.2962253315819
30
-6.35759999999992
 70
     32
  0
VERTEX
  8
MY3DLAYER
10
11.7467500000023
20
32.309166283837
30
-6.35759999999992
 70
     32
  0
VERTEX
  8
MY3DLAYER
10
11.7484537086879
20
32.3221072360921
30
-6.35759999999992
 70
     32
  0
VERTEX
  8
MY3DLAYER
10
11.7534487298131
20
32.334166283837
30
-6.35759999999992
 70
     32
  0
VERTEX
  8
MY3DLAYER
10
11.761394660943
20
32.3445216228963
30
-6.35759999999992
 70
     32
  0
VERTEX
  8
MY3DLAYER
10
11.7717500000023
20
32.3524675540262
30
-6.35759999999992
 70
     32
  0
VERTEX
  8
MY3DLAYER
10
11.7838090477472
20
32.3574625751515
30
-6.35759999999992
 70
     32
  0
VERTEX
  8
MY3DLAYER
10
11.7967500000023
20
32.359166283837
30
-6.35759999999992
 70
     32
  0
VERTEX
  8
MY3DLAYER
10
11.7967500000023
20
32.790833712977
30
-6.35759999999992
 70
     32
  0
VERTEX
  8
MY3DLAYER
10
11.7838090477472
20
32.7925374216626
30
-6.35759999999992
 70
     32
  0
VERTEX
  8
MY3DLAYER
10
11.7717500000023
20
32.7975324427878
30
-6.35759999999992
 70
     32
  0
VERTEX
  8
MY3DLAYER
10
11.761394660943
20
32.8054783739177
30
-6.35759999999992
 70
     32
  0
VERTEX
  8
MY3DLAYER
10
11.7534487298131
20
32.815833712977
30
-6.35759999999992
 70
     32
  0
VERTEX
  8
MY3DLAYER
10
11.7484537086879
20
32.8278927607219
30
-6.35759999999992
 70
     32
  0
VERTEX
  8
MY3DLAYER
10
11.7467500000023
20
32.840833712977
30
-6.35759999999992
 70
     32
  0
VERTEX
  8
MY3DLAYER
10
11.7484537086879
20
32.8537746652321
30
-6.35759999999992
 70
     32
  0
VERTEX
  8
MY3DLAYER
10
11.7534487298131
20
32.865833712977
30
-6.35759999999992
 70
     32
  0
VERTEX
  8
MY3DLAYER
10
11.761394660943
20
32.8761890520363
30
-6.35759999999992
 70
     32
  0
VERTEX
  8
MY3DLAYER
10
11.7717500000023
20
32.8841349831662
30
-6.35759999999992
 70
     32
  0
VERTEX
  8
MY3DLAYER
10
11.7838090477472
20
32.8891300042915
30
-6.35759999999992
 70
     32
  0
VERTEX
  8
MY3DLAYER
10
11.7967500000023
20
32.890833712977
30
-6.35759999999992
 70
     32
  0
VERTEX
  8
MY3DLAYER
10
11.8096909522575
20
32.8891300042915
30
-6.35759999999992
 70
     32
  0
VERTEX
  8
MY3DLAYER
10
11.8217500000023
20
32.8841349831662
30
-6.35759999999992
 70
     32
  0
VERTEX
  8
MY3DLAYER
10
11.8321053390617
20
32.8761890520363
30
-6.35759999999992
 70
     32
  0
VERTEX
  8
MY3DLAYER
10
11.8400512701916
20
32.865833712977
30
-6.35759999999992
 70
     32
  0
VERTEX
  8
MY3DLAYER
10
12.2138862298131
20
33.081667427547
30
-6.35759999999992
 70
     32
  0
VERTEX
  8
MY3DLAYER
10
12.2088912086879
20
33.0937264752919
30
-6.35759999999992
 70
     32
  0
VERTEX
  8
MY3DLAYER
10
12.2071875000023
20
33.106667427547
30
-6.35759999999992
 70
     32
  0
VERTEX
  8
MY3DLAYER
10
12.2088912086879
20
33.1196083798021
30
-6.35759999999992
 70
     32
  0
VERTEX
  8
MY3DLAYER
10
12.2138862298131
20
33.131667427547
30
-6.35759999999992
 70
     32
  0
VERTEX
  8
MY3DLAYER
10
12.221832160943
20
33.1420227666063
30
-6.35759999999992
 70
     32
  0
VERTEX
  8
MY3DLAYER
10
12.2321875000023
20
33.1499686977362
30
-6.35759999999992
 70
     32
  0
VERTEX
  8
MY3DLAYER
10
12.2442465477472
20
33.1549637188615
30
-6.35759999999992
 70
     32
  0
VERTEX
  8
MY3DLAYER
10
12.2571875000023
20
33.156667427547
30
-6.35759999999992
 70
     32
  0
VERTEX
  8
MY3DLAYER
10
12.2701284522575
20
33.1549637188615
30
-6.35759999999992
 70
     32
  0
VERTEX
  8
MY3DLAYER
10
12.2821875000023
20
33.1499686977362
30
-6.35759999999992
 70
     32
  0
VERTEX
  8
MY3DLAYER
10
12.2925428390617
20
33.1420227666063
30
-6.35759999999992
 70
     32
  0
VERTEX
  8
MY3DLAYER
10
12.3004887701916
20
33.131667427547
30
-6.35759999999992
 70
     32
  0
VERTEX
  8
MY3DLAYER
10
12.3054837913168
20
33.1196083798021
30
-6.35759999999992
 70
     32
  0
VERTEX
  8
MY3DLAYER
10
12.3071875000023
20
33.106667427547
30
-6.35759999999992
 70
     32
  0
VERTEX
  8
MY3DLAYER
10
12.3054837913168
20
33.0937264752919
30
-6.35759999999992
 70
     32
  0
VERTEX
  8
MY3DLAYER
10
12.3004887701916
20
33.081667427547
30
-6.35759999999992
 70
     32
  0
VERTEX
  8
MY3DLAYER
10
12.6743237298131
20
32.865833712977
30
-6.35759999999992
 70
     32
  0
VERTEX
  8
MY3DLAYER
10
12.682269660943
20
32.8761890520363
30
-6.35759999999992
 70
     32
  0
VERTEX
  8
MY3DLAYER
10
12.6926250000023
20
32.8841349831662
30
-6.35759999999992
 70
     32
  0
VERTEX
  8
MY3DLAYER
10
12.7046840477472
20
32.8891300042915
30
-6.35759999999992
 70
     32
  0
VERTEX
  8
MY3DLAYER
10
12.7176250000023
20
32.890833712977
30
-6.35759999999992
 70
     32
  0
VERTEX
  8
MY3DLAYER
10
12.7305659522575
20
32.8891300042915
30
-6.35759999999992
 70
     32
  0
VERTEX
  8
MY3DLAYER
10
12.7426250000023
20
32.8841349831662
30
-6.35759999999992
 70
     32
  0
VERTEX
  8
MY3DLAYER
10
12.7529803390617
20
32.8761890520363
30
-6.35759999999992
 70
     32
  0
VERTEX
  8
MY3DLAYER
10
12.7609262701916
20
32.865833712977
30
-6.35759999999992
 70
     32
  0
VERTEX
  8
MY3DLAYER
10
12.7659212913168
20
32.8537746652321
30
-6.35759999999992
 70
     32
  0
VERTEX
  8
MY3DLAYER
10
12.7676250000023
20
32.840833712977
30
-6.35759999999992
 70
     32
  0
VERTEX
  8
MY3DLAYER
10
12.7659212913168
20
32.8278927607219
30
-6.35759999999992
 70
     32
  0
VERTEX
  8
MY3DLAYER
10
12.7609262701916
20
32.815833712977
30
-6.35759999999992
 70
     32
  0
VERTEX
  8
MY3DLAYER
10
12.7529803390617
20
32.8054783739177
30
-6.35759999999992
 70
     32
  0
SEQEND
  0
POLYLINE
 8
Layer0
 66
     1
70
    8
 10
0.0
 20
 0.0
 30
0.0
  0
VERTEX
  8
MY3DLAYER
10
13.7797129131445
20
-2.62059047742939
30
-6.35759999999992
 70
     32
  0
VERTEX
  8
MY3DLAYER
10
13.79675
20
-2.74999999998065
30
-6.35759999999992
 70
     32
  0
VERTEX
  8
MY3DLAYER
10
13.79675
20
-3.24999999998065
30
-6.35759999999992
 70
     32
  0
VERTEX
  8
MY3DLAYER
10
13.7797129131445
20
-3.37940952253191
30
-6.35759999999992
 70
     32
  0
VERTEX
  8
MY3DLAYER
10
13.7297627018922
20
-3.49999999998065
30
-6.35759999999992
 70
     32
  0
VERTEX
  8
MY3DLAYER
10
13.6503033905933
20
-3.60355339057392
30
-6.35759999999992
 70
     32
  0
VERTEX
  8
MY3DLAYER
10
13.54675
20
-3.68301270187287
30
-6.35759999999992
 70
     32
  0
VERTEX
  8
MY3DLAYER
10
13.4261595225513
20
-3.73296291312518
30
-6.35759999999992
 70
     32
  0
VERTEX
  8
MY3DLAYER
10
13.29675
20
-3.74999999998065
30
-6.35759999999992
 70
     32
  0
VERTEX
  8
MY3DLAYER
10
13.1673404774487
20
-3.73296291312518
30
-6.35759999999992
 70
     32
  0
VERTEX
  8
MY3DLAYER
10
13.04675
20
-3.68301270187287
30
-6.35759999999992
 70
     32
  0
VERTEX
  8
MY3DLAYER
10
12.9431966094067
20
-3.60355339057392
30
-6.35759999999992
 70
     32
  0
VERTEX
  8
MY3DLAYER
10
12.8637372981078
20
-3.49999999998065
30
-6.35759999999992
 70
     32
  0
VERTEX
  8
MY3DLAYER
10
12.8137870868555
20
-3.37940952253191
30
-6.35759999999992
 70
     32
  0
VERTEX
  8
MY3DLAYER
10
12.79675
20
-3.24999999998065
30
-6.35759999999992
 70
     32
  0
VERTEX
  8
MY3DLAYER
10
12.79675
20
-2.74999999998065
30
-6.35759999999992
 70
     32
  0
VERTEX
  8
MY3DLAYER
10
12.8137870868555
20
-2.62059047742939
30
-6.35759999999992
 70
     32
  0
VERTEX
  8
MY3DLAYER
10
12.8637372981078
20
-2.49999999998065
30
-6.35759999999992
 70
     32
  0
VERTEX
  8
MY3DLAYER
10
12.9431966094067
20
-2.39644660938737
30
-6.35759999999992
 70
     32
  0
VERTEX
  8
MY3DLAYER
10
13.04675
20
-2.31698729808843
30
-6.35759999999992
 70
     32
  0
VERTEX
  8
MY3DLAYER
10
13.1673404774487
20
-2.26703708683611
30
-6.35759999999992
 70
     32
  0
VERTEX
  8
MY3DLAYER
10
13.29675
20
-2.24999999998065
30
-6.35759999999992
 70
     32
  0
VERTEX
  8
MY3DLAYER
10
13.4261595225513
20
-2.26703708683611
30
-6.35759999999992
 70
     32
  0
VERTEX
  8
MY3DLAYER
10
13.54675
20
-2.31698729808843
30
-6.35759999999992
 70
     32
  0
VERTEX
  8
MY3DLAYER
10
13.6503033905933
20
-2.39644660938737
30
-6.35759999999992
 70
     32
  0
VERTEX
  8
MY3DLAYER
10
13.7297627018922
20
-2.49999999998065
30
-6.35759999999992
 70
     32
  0
VERTEX
  8
MY3DLAYER
10
13.7797129131445
20
-2.62059047742939
30
-6.35759999999992
 70
     32
  0
SEQEND
  0
POLYLINE
 8
Layer0
 66
     1
70
    8
 10
0.0
 20
 0.0
 30
0.0
  0
VERTEX
  8
MY3DLAYER
10
13.79675
20
1.25000000001935
30
-6.35759999999992
 70
     32
  0
VERTEX
  8
MY3DLAYER
10
13.79675
20
0.750000000019353
30
-6.35759999999992
 70
     32
  0
VERTEX
  8
MY3DLAYER
10
13.7797129131445
20
0.620590477468092
30
-6.35759999999992
 70
     32
  0
VERTEX
  8
MY3DLAYER
10
13.7297627018922
20
0.500000000019353
30
-6.35759999999992
 70
     32
  0
VERTEX
  8
MY3DLAYER
10
13.6503033905933
20
0.396446609426078
30
-6.35759999999992
 70
     32
  0
VERTEX
  8
MY3DLAYER
10
13.54675
20
0.316987298127132
30
-6.35759999999992
 70
     32
  0
VERTEX
  8
MY3DLAYER
10
13.4261595225513
20
0.267037086874818
30
-6.35759999999992
 70
     32
  0
VERTEX
  8
MY3DLAYER
10
13.29675
20
0.250000000019352
30
-6.35759999999992
 70
     32
  0
VERTEX
  8
MY3DLAYER
10
13.1673404774487
20
0.267037086874818
30
-6.35759999999992
 70
     32
  0
VERTEX
  8
MY3DLAYER
10
13.04675
20
0.316987298127132
30
-6.35759999999992
 70
     32
  0
VERTEX
  8
MY3DLAYER
10
12.9431966094067
20
0.396446609426078
30
-6.35759999999992
 70
     32
  0
VERTEX
  8
MY3DLAYER
10
12.8637372981078
20
0.500000000019353
30
-6.35759999999992
 70
     32
  0
VERTEX
  8
MY3DLAYER
10
12.8137870868555
20
0.620590477468092
30
-6.35759999999992
 70
     32
  0
VERTEX
  8
MY3DLAYER
10
12.79675
20
0.750000000019353
30
-6.35759999999992
 70
     32
  0
VERTEX
  8
MY3DLAYER
10
12.79675
20
1.25000000001935
30
-6.35759999999992
 70
     32
  0
VERTEX
  8
MY3DLAYER
10
12.8137870868555
20
1.37940952257061
30
-6.35759999999992
 70
     32
  0
VERTEX
  8
MY3DLAYER
10
12.8637372981078
20
1.50000000001935
30
-6.35759999999992
 70
     32
  0
VERTEX
  8
MY3DLAYER
10
12.9431966094067
20
1.60355339061263
30
-6.35759999999992
 70
     32
  0
VERTEX
  8
MY3DLAYER
10
13.04675
20
1.68301270191157
30
-6.35759999999992
 70
     32
  0
VERTEX
  8
MY3DLAYER
10
13.1673404774487
20
1.73296291316389
30
-6.35759999999992
 70
     32
  0
VERTEX
  8
MY3DLAYER
10
13.29675
20
1.75000000001935
30
-6.35759999999992
 70
     32
  0
VERTEX
  8
MY3DLAYER
10
13.4261595225513
20
1.73296291316389
30
-6.35759999999992
 70
     32
  0
VERTEX
  8
MY3DLAYER
10
13.54675
20
1.68301270191157
30
-6.35759999999992
 70
     32
  0
VERTEX
  8
MY3DLAYER
10
13.6503033905933
20
1.60355339061263
30
-6.35759999999992
 70
     32
  0
VERTEX
  8
MY3DLAYER
10
13.7297627018922
20
1.50000000001935
30
-6.35759999999992
 70
     32
  0
VERTEX
  8
MY3DLAYER
10
13.7797129131445
20
1.37940952257061
30
-6.35759999999992
 70
     32
  0
VERTEX
  8
MY3DLAYER
10
13.79675
20
1.25000000001935
30
-6.35759999999992
 70
     32
  0
SEQEND
  0
POLYLINE
 8
Layer0
 66
     1
70
    8
 10
0.0
 20
 0.0
 30
0.0
  0
VERTEX
  8
MY3DLAYER
10
13.79675
20
37.2500000000193
30
-6.35759999999992
 70
     32
  0
VERTEX
  8
MY3DLAYER
10
13.79675
20
36.7500000000193
30
-6.35759999999992
 70
     32
  0
VERTEX
  8
MY3DLAYER
10
13.7797129131445
20
36.6205904774681
30
-6.35759999999992
 70
     32
  0
VERTEX
  8
MY3DLAYER
10
13.7297627018922
20
36.5000000000193
30
-6.35759999999992
 70
     32
  0
VERTEX
  8
MY3DLAYER
10
13.6503033905933
20
36.3964466094261
30
-6.35759999999992
 70
     32
  0
VERTEX
  8
MY3DLAYER
10
13.54675
20
36.3169872981271
30
-6.35759999999992
 70
     32
  0
VERTEX
  8
MY3DLAYER
10
13.4261595225513
20
36.2670370868748
30
-6.35759999999992
 70
     32
  0
VERTEX
  8
MY3DLAYER
10
13.29675
20
36.2500000000193
30
-6.35759999999992
 70
     32
  0
VERTEX
  8
MY3DLAYER
10
13.1673404774487
20
36.2670370868748
30
-6.35759999999992
 70
     32
  0
VERTEX
  8
MY3DLAYER
10
13.04675
20
36.3169872981271
30
-6.35759999999992
 70
     32
  0
VERTEX
  8
MY3DLAYER
10
12.9431966094067
20
36.3964466094261
30
-6.35759999999992
 70
     32
  0
VERTEX
  8
MY3DLAYER
10
12.8637372981078
20
36.5000000000193
30
-6.35759999999992
 70
     32
  0
VERTEX
  8
MY3DLAYER
10
12.8137870868555
20
36.6205904774681
30
-6.35759999999992
 70
     32
  0
VERTEX
  8
MY3DLAYER
10
12.79675
20
36.7500000000193
30
-6.35759999999992
 70
     32
  0
VERTEX
  8
MY3DLAYER
10
12.79675
20
37.2500000000193
30
-6.35759999999992
 70
     32
  0
VERTEX
  8
MY3DLAYER
10
12.8137870868555
20
37.3794095225706
30
-6.35759999999992
 70
     32
  0
VERTEX
  8
MY3DLAYER
10
12.8637372981078
20
37.5000000000193
30
-6.35759999999992
 70
     32
  0
VERTEX
  8
MY3DLAYER
10
12.9431966094067
20
37.6035533906126
30
-6.35759999999992
 70
     32
  0
VERTEX
  8
MY3DLAYER
10
13.04675
20
37.6830127019116
30
-6.35759999999992
 70
     32
  0
VERTEX
  8
MY3DLAYER
10
13.1673404774487
20
37.7329629131639
30
-6.35759999999992
 70
     32
  0
VERTEX
  8
MY3DLAYER
10
13.29675
20
37.7500000000193
30
-6.35759999999992
 70
     32
  0
VERTEX
  8
MY3DLAYER
10
13.4261595225513
20
37.7329629131639
30
-6.35759999999992
 70
     32
  0
VERTEX
  8
MY3DLAYER
10
13.54675
20
37.6830127019116
30
-6.35759999999992
 70
     32
  0
VERTEX
  8
MY3DLAYER
10
13.6503033905933
20
37.6035533906126
30
-6.35759999999992
 70
     32
  0
VERTEX
  8
MY3DLAYER
10
13.7297627018922
20
37.5000000000193
30
-6.35759999999992
 70
     32
  0
VERTEX
  8
MY3DLAYER
10
13.7797129131445
20
37.3794095225706
30
-6.35759999999992
 70
     32
  0
VERTEX
  8
MY3DLAYER
10
13.79675
20
37.2500000000193
30
-6.35759999999992
 70
     32
  0
SEQEND
  0
POLYLINE
 8
Layer0
 66
     1
70
    8
 10
0.0
 20
 0.0
 30
0.0
  0
VERTEX
  8
MY3DLAYER
10
13.79675
20
41.2500000000193
30
-6.35759999999992
 70
     32
  0
VERTEX
  8
MY3DLAYER
10
13.79675
20
40.7500000000193
30
-6.35759999999992
 70
     32
  0
VERTEX
  8
MY3DLAYER
10
13.7797129131445
20
40.6205904774681
30
-6.35759999999992
 70
     32
  0
VERTEX
  8
MY3DLAYER
10
13.7297627018922
20
40.5000000000193
30
-6.35759999999992
 70
     32
  0
VERTEX
  8
MY3DLAYER
10
13.6503033905933
20
40.3964466094261
30
-6.35759999999992
 70
     32
  0
VERTEX
  8
MY3DLAYER
10
13.54675
20
40.3169872981271
30
-6.35759999999992
 70
     32
  0
VERTEX
  8
MY3DLAYER
10
13.4261595225513
20
40.2670370868748
30
-6.35759999999992
 70
     32
  0
VERTEX
  8
MY3DLAYER
10
13.29675
20
40.2500000000193
30
-6.35759999999992
 70
     32
  0
VERTEX
  8
MY3DLAYER
10
13.1673404774487
20
40.2670370868748
30
-6.35759999999992
 70
     32
  0
VERTEX
  8
MY3DLAYER
10
13.04675
20
40.3169872981271
30
-6.35759999999992
 70
     32
  0
VERTEX
  8
MY3DLAYER
10
12.9431966094067
20
40.3964466094261
30
-6.35759999999992
 70
     32
  0
VERTEX
  8
MY3DLAYER
10
12.8637372981078
20
40.5000000000193
30
-6.35759999999992
 70
     32
  0
VERTEX
  8
MY3DLAYER
10
12.8137870868555
20
40.6205904774681
30
-6.35759999999992
 70
     32
  0
VERTEX
  8
MY3DLAYER
10
12.79675
20
40.7500000000193
30
-6.35759999999992
 70
     32
  0
VERTEX
  8
MY3DLAYER
10
12.79675
20
41.2500000000193
30
-6.35759999999992
 70
     32
  0
VERTEX
  8
MY3DLAYER
10
12.8137870868555
20
41.3794095225706
30
-6.35759999999992
 70
     32
  0
VERTEX
  8
MY3DLAYER
10
12.8637372981078
20
41.5000000000193
30
-6.35759999999992
 70
     32
  0
VERTEX
  8
MY3DLAYER
10
12.9431966094067
20
41.6035533906126
30
-6.35759999999992
 70
     32
  0
VERTEX
  8
MY3DLAYER
10
13.04675
20
41.6830127019116
30
-6.35759999999992
 70
     32
  0
VERTEX
  8
MY3DLAYER
10
13.1673404774487
20
41.7329629131639
30
-6.35759999999992
 70
     32
  0
VERTEX
  8
MY3DLAYER
10
13.29675
20
41.7500000000193
30
-6.35759999999992
 70
     32
  0
VERTEX
  8
MY3DLAYER
10
13.4261595225513
20
41.7329629131639
30
-6.35759999999992
 70
     32
  0
VERTEX
  8
MY3DLAYER
10
13.54675
20
41.6830127019116
30
-6.35759999999992
 70
     32
  0
VERTEX
  8
MY3DLAYER
10
13.6503033905933
20
41.6035533906126
30
-6.35759999999992
 70
     32
  0
VERTEX
  8
MY3DLAYER
10
13.7297627018922
20
41.5000000000193
30
-6.35759999999992
 70
     32
  0
VERTEX
  8
MY3DLAYER
10
13.7797129131445
20
41.3794095225706
30
-6.35759999999992
 70
     32
  0
VERTEX
  8
MY3DLAYER
10
13.79675
20
41.2500000000193
30
-6.35759999999992
 70
     32
  0
SEQEND
 0
ENDSEC
 0
EOF
