999
dxflib 2.2.0.0
  0
SECTION
  2
HEADER
  9
$ACADVER
  1
AC1015
  9
$HANDSEED
  5
FFFF
  9
$DIMASZ
 40
0.1
  9
$PLIMMIN
 10
0.0
 20
0.0
  9
$DIMEXE
 40
0.05
  9
$DIMGAP
 40
0.025
  9
$PLIMMAX
 10
8.2677165354330722
 20
11.6929133858267722
  9
$INSUNITS
 70
1
  9
$DIMSTYLE
  2
Standard
  9
$DIMEXO
 40
0.025
  9
$DIMTXT
 40
0.1
  0
ENDSEC
  0
SECTION
  2
TABLES
  0
TABLE
  2
VPORT
  5
8
100
AcDbSymbolTable
 70
1
  0
VPORT
  5
30
100
AcDbSymbolTableRecord
100
AcDbViewportTableRecord
  2
*Active
 70
0
 10
0.0
 20
0.0
 11
1.0
 21
1.0
 12
286.3055555555554861
 22
148.5
 13
0.0
 23
0.0
 14
10.0
 24
10.0
 15
10.0
 25
10.0
 16
0.0
 26
0.0
 36
1.0
 17
0.0
 27
0.0
 37
0.0
 40
297.0
 41
1.92798353909465
 42
50.0
 43
0.0
 44
0.0
 50
0.0
 51
0.0
 71
0
 72
100
 73
1
 74
3
 75
1
 76
1
 77
0
 78
0
281
0
 65
1
110
0.0
120
0.0
130
0.0
111
1.0
121
0.0
131
0.0
112
0.0
122
1.0
132
0.0
 79
0
146
0.0
  0
ENDTAB
  0
TABLE
  2
LTYPE
  5
5
100
AcDbSymbolTable
 70
21
  0
LTYPE
  5
14
100
AcDbSymbolTableRecord
100
AcDbLinetypeTableRecord
  2
ByBlock
 70
0
  3

 72
65
 73
0
 40
0.0
  0
LTYPE
  5
15
100
AcDbSymbolTableRecord
100
AcDbLinetypeTableRecord
  2
ByLayer
 70
0
  3

 72
65
 73
0
 40
0.0
  0
LTYPE
  5
16
100
AcDbSymbolTableRecord
100
AcDbLinetypeTableRecord
  2
CONTINUOUS
 70
0
  3
Solid line
 72
65
 73
0
 40
0.0
  0
LTYPE
  5
31
100
AcDbSymbolTableRecord
100
AcDbLinetypeTableRecord
  2
DOT
 70
0
  3
Dot . . . . . . . . . . . . . . . . . . . . . .
 72
65
 73
2
 40
6.3499999999999996
 49
0.0
 74
0
 49
-6.3499999999999996
 74
0
  0
LTYPE
  5
32
100
AcDbSymbolTableRecord
100
AcDbLinetypeTableRecord
  2
DOT2
 70
0
  3
Dot (.5x) .....................................
 72
65
 73
2
 40
3.1749999999999998
 49
0.0
 74
0
 49
-3.1749999999999998
 74
0
  0
LTYPE
  5
33
100
AcDbSymbolTableRecord
100
AcDbLinetypeTableRecord
  2
DOTX2
 70
0
  3
Dot (2x) .  .  .  .  .  .  .  .  .  .  .  .  .
 72
65
 73
2
 40
12.6999999999999993
 49
0.0
 74
0
 49
-12.6999999999999993
 74
0
  0
LTYPE
  5
34
100
AcDbSymbolTableRecord
100
AcDbLinetypeTableRecord
  2
DASHED
 70
0
  3
Dashed __ __ __ __ __ __ __ __ __ __ __ __ __ _
 72
65
 73
2
 40
19.0500000000000007
 49
12.6999999999999993
 74
0
 49
-6.3499999999999996
 74
0
  0
LTYPE
  5
35
100
AcDbSymbolTableRecord
100
AcDbLinetypeTableRecord
  2
DASHED2
 70
0
  3
Dashed (.5x) _ _ _ _ _ _ _ _ _ _ _ _ _ _ _ _ _
 72
65
 73
2
 40
9.5250000000000004
 49
6.3499999999999996
 74
0
 49
-3.1749999999999998
 74
0
  0
LTYPE
  5
36
100
AcDbSymbolTableRecord
100
AcDbLinetypeTableRecord
  2
DASHEDX2
 70
0
  3
Dashed (2x) ____  ____  ____  ____  ____  ___
 72
65
 73
2
 40
38.1000000000000014
 49
25.3999999999999986
 74
0
 49
-12.6999999999999993
 74
0
  0
LTYPE
  5
37
100
AcDbSymbolTableRecord
100
AcDbLinetypeTableRecord
  2
DASHDOT
 70
0
  3
Dash dot __ . __ . __ . __ . __ . __ . __ . __
 72
65
 73
4
 40
25.3999999999999986
 49
12.6999999999999993
 74
0
 49
-6.3499999999999996
 74
0
 49
0.0
 74
0
 49
-6.3499999999999996
 74
0
  0
LTYPE
  5
38
100
AcDbSymbolTableRecord
100
AcDbLinetypeTableRecord
  2
DASHDOT2
 70
0
  3
Dash dot (.5x) _._._._._._._._._._._._._._._.
 72
65
 73
4
 40
12.6999999999999993
 49
6.3499999999999996
 74
0
 49
-3.1749999999999998
 74
0
 49
0.0
 74
0
 49
-3.1749999999999998
 74
0
  0
LTYPE
  5
39
100
AcDbSymbolTableRecord
100
AcDbLinetypeTableRecord
  2
DASHDOTX2
 70
0
  3
Dash dot (2x) ____  .  ____  .  ____  .  ___
 72
65
 73
4
 40
50.7999999999999972
 49
25.3999999999999986
 74
0
 49
-12.6999999999999993
 74
0
 49
0.0
 74
0
 49
-12.6999999999999993
 74
0
  0
LTYPE
  5
3A
100
AcDbSymbolTableRecord
100
AcDbLinetypeTableRecord
  2
DIVIDE
 70
0
  3
Divide ____ . . ____ . . ____ . . ____ . . ____
 72
65
 73
6
 40
31.75
 49
12.6999999999999993
 74
0
 49
-6.3499999999999996
 74
0
 49
0.0
 74
0
 49
-6.3499999999999996
 74
0
 49
0.0
 74
0
 49
-6.3499999999999996
 74
0
  0
LTYPE
  5
3B
100
AcDbSymbolTableRecord
100
AcDbLinetypeTableRecord
  2
DIVIDE2
 70
0
  3
Divide (.5x) __..__..__..__..__..__..__..__.._
 72
65
 73
6
 40
15.875
 49
6.3499999999999996
 74
0
 49
-3.1749999999999998
 74
0
 49
0.0
 74
0
 49
-3.1749999999999998
 74
0
 49
0.0
 74
0
 49
-3.1749999999999998
 74
0
  0
LTYPE
  5
3C
100
AcDbSymbolTableRecord
100
AcDbLinetypeTableRecord
  2
DIVIDEX2
 70
0
  3
Divide (2x) ________  .  .  ________  .  .  _
 72
65
 73
6
 40
63.5
 49
25.3999999999999986
 74
0
 49
-12.6999999999999993
 74
0
 49
0.0
 74
0
 49
-12.6999999999999993
 74
0
 49
0.0
 74
0
 49
-12.6999999999999993
 74
0
  0
LTYPE
  5
3D
100
AcDbSymbolTableRecord
100
AcDbLinetypeTableRecord
  2
CENTER
 70
0
  3
Center ____ _ ____ _ ____ _ ____ _ ____ _ ____
 72
65
 73
4
 40
50.7999999999999972
 49
31.75
 74
0
 49
-6.3499999999999996
 74
0
 49
6.3499999999999996
 74
0
 49
-6.3499999999999996
 74
0
  0
LTYPE
  5
3E
100
AcDbSymbolTableRecord
100
AcDbLinetypeTableRecord
  2
CENTER2
 70
0
  3
Center (.5x) ___ _ ___ _ ___ _ ___ _ ___ _ ___
 72
65
 73
4
 40
28.5749999999999993
 49
19.0500000000000007
 74
0
 49
-3.1749999999999998
 74
0
 49
3.1749999999999998
 74
0
 49
-3.1749999999999998
 74
0
  0
LTYPE
  5
3F
100
AcDbSymbolTableRecord
100
AcDbLinetypeTableRecord
  2
CENTERX2
 70
0
  3
Center (2x) ________  __  ________  __  _____
 72
65
 73
4
 40
101.5999999999999943
 49
63.5
 74
0
 49
-12.6999999999999993
 74
0
 49
12.6999999999999993
 74
0
 49
-12.6999999999999993
 74
0
  0
LTYPE
  5
40
100
AcDbSymbolTableRecord
100
AcDbLinetypeTableRecord
  2
BORDER
 70
0
  3
Border __ __ . __ __ . __ __ . __ __ . __ __ .
 72
65
 73
6
 40
44.4500000000000028
 49
12.6999999999999993
 74
0
 49
-6.3499999999999996
 74
0
 49
12.6999999999999993
 74
0
 49
-6.3499999999999996
 74
0
 49
0.0
 74
0
 49
-6.3499999999999996
 74
0
  0
LTYPE
  5
41
100
AcDbSymbolTableRecord
100
AcDbLinetypeTableRecord
  2
BORDER2
 70
0
  3
Border (.5x) __.__.__.__.__.__.__.__.__.__.__.
 72
65
 73
6
 40
22.2250000000000014
 49
6.3499999999999996
 74
0
 49
-3.1749999999999998
 74
0
 49
6.3499999999999996
 74
0
 49
-3.1749999999999998
 74
0
 49
0.0
 74
0
 49
-3.1749999999999998
 74
0
  0
LTYPE
  5
42
100
AcDbSymbolTableRecord
100
AcDbLinetypeTableRecord
  2
BORDERX2
 70
0
  3
Border (2x) ____  ____  .  ____  ____  .  ___
 72
65
 73
6
 40
88.9000000000000057
 49
25.3999999999999986
 74
0
 49
-12.6999999999999993
 74
0
 49
25.3999999999999986
 74
0
 49
-12.6999999999999993
 74
0
 49
0.0
 74
0
 49
-12.6999999999999993
 74
0
  0
ENDTAB
  0
TABLE
  2
LAYER
  5
2
100
AcDbSymbolTable
 70
2
  0
LAYER
  5
10
100
AcDbSymbolTableRecord
100
AcDbLayerTableRecord
  2
0
 70
0
 62
7
  6
CONTINUOUS
370
0
390
F
  0
LAYER
  5
43
100
AcDbSymbolTableRecord
100
AcDbLayerTableRecord
  2
Group#1
 70
0
 62
7
  6
ByLayer
390
F
  0
ENDTAB
  0
TABLE
  2
STYLE
  5
3
100
AcDbSymbolTable
 70
1
  0
STYLE
  5
11
100
AcDbSymbolTableRecord
100
AcDbTextStyleTableRecord
  2
Standard
 70
0
 40
0.0
 41
0.75
 50
0.0
 71
0
 42
2.5
  3
txt
  4

  0
ENDTAB
  0
TABLE
  2
VIEW
  5
6
100
AcDbSymbolTable
 70
0
  0
ENDTAB
  0
TABLE
  2
UCS
  5
7
100
AcDbSymbolTable
 70
0
  0
ENDTAB
  0
TABLE
  2
APPID
  5
9
100
AcDbSymbolTable
 70
1
  0
APPID
  5
12
100
AcDbSymbolTableRecord
100
AcDbRegAppTableRecord
  2
ACAD
 70
0
  0
ENDTAB
  0
TABLE
  2
DIMSTYLE
  5
A
100
AcDbSymbolTable
 70
1
100
AcDbDimStyleTable
 71
0
  0
DIMSTYLE
105
27
100
AcDbSymbolTableRecord
100
AcDbDimStyleTableRecord
  2
Standard
 41
0.1
 42
0.025
 43
3.75
 44
0.05
 70
0
 73
0
 74
0
 77
1
 78
8
140
0.1
141
2.5
143
0.03937007874016
147
0.025
171
3
172
1
271
2
272
2
274
3
278
44
283
0
284
8
340
11
  0
ENDTAB
  0
TABLE
  2
BLOCK_RECORD
  5
1
100
AcDbSymbolTable
 70
1
  0
BLOCK_RECORD
  5
1F
100
AcDbSymbolTableRecord
100
AcDbBlockTableRecord
  2
*Model_Space
340
22
  0
BLOCK_RECORD
  5
1B
100
AcDbSymbolTableRecord
100
AcDbBlockTableRecord
  2
*Paper_Space
340
1E
  0
BLOCK_RECORD
  5
23
100
AcDbSymbolTableRecord
100
AcDbBlockTableRecord
  2
*Paper_Space0
340
26
  0
ENDTAB
  0
ENDSEC
  0
SECTION
  2
BLOCKS
  0
BLOCK
  5
20
100
AcDbEntity
  8
0
100
AcDbBlockBegin
  2
*Model_Space
 70
0
 10
0.0
 20
0.0
 30
0.0
  3
*Model_Space
  1

  0
ENDBLK
  5
21
100
AcDbEntity
  8
0
100
AcDbBlockEnd
  0
BLOCK
  5
1C
100
AcDbEntity
 67
1
  8
0
100
AcDbBlockBegin
  2
*Paper_Space
 70
0
 10
0.0
 20
0.0
 30
0.0
  3
*Paper_Space
  1

  0
ENDBLK
  5
1D
100
AcDbEntity
 67
1
  8
0
100
AcDbBlockEnd
  0
BLOCK
  5
24
100
AcDbEntity
  8
0
100
AcDbBlockBegin
  2
*Paper_Space0
 70
0
 10
0.0
 20
0.0
 30
0.0
  3
*Paper_Space0
  1

  0
ENDBLK
  5
25
100
AcDbEntity
  8
0
100
AcDbBlockEnd
  0
ENDSEC
  0
SECTION
  2
ENTITIES
  0
LINE
  5
44
100
AcDbEntity
100
AcDbLine
  8
Group#1
 62
256
370
-1
  6
ByLayer
 10
1.8140673516745001
 20
1.5023499092869901
 30
0.0
 11
1.9492041743055999
 21
1.4711840144322199
 31
0.0
  0
LINE
  5
45
100
AcDbEntity
100
AcDbLine
  8
Group#1
 62
256
370
-1
  6
ByLayer
 10
1.9492041743055999
 20
1.4711840144322199
 30
0.0
 11
1.9492041743055999
 21
1.4711840144322199
 31
0.0
  0
LINE
  5
46
100
AcDbEntity
100
AcDbLine
  8
Group#1
 62
256
370
-1
  6
ByLayer
 10
1.8140673516745001
 20
1.5023499092869901
 30
0.0
 11
1.9492041743055999
 21
1.4711840144322199
 31
0.0
  0
LINE
  5
47
100
AcDbEntity
100
AcDbLine
  8
Group#1
 62
256
370
-1
  6
ByLayer
 10
1.8140673516745001
 20
1.5023499092869901
 30
0.0
 11
1.8140673516745001
 21
1.5023499092869901
 31
0.0
  0
LINE
  5
48
100
AcDbEntity
100
AcDbLine
  8
Group#1
 62
256
370
-1
  6
ByLayer
 10
1.9492041743055999
 20
1.4711840144322199
 30
0.0
 11
2.0878026485137
 21
1.4760560550841499
 31
0.0
  0
LINE
  5
49
100
AcDbEntity
100
AcDbLine
  8
Group#1
 62
256
370
-1
  6
ByLayer
 10
2.0878026485137
 20
1.4760560550841499
 30
0.0
 11
2.0878026485137
 21
1.4760560550841499
 31
0.0
  0
LINE
  5
4A
100
AcDbEntity
100
AcDbLine
  8
Group#1
 62
256
370
-1
  6
ByLayer
 10
1.9492041743055999
 20
1.4711840144322199
 30
0.0
 11
2.0878026485137
 21
1.4760560550841499
 31
0.0
  0
LINE
  5
4B
100
AcDbEntity
100
AcDbLine
  8
Group#1
 62
256
370
-1
  6
ByLayer
 10
1.51663400972379
 20
1.7795824826736699
 30
0.0
 11
1.5901525578006901
 21
1.6619887034096601
 31
0.0
  0
LINE
  5
4C
100
AcDbEntity
100
AcDbLine
  8
Group#1
 62
256
370
-1
  6
ByLayer
 10
1.5901525578006901
 20
1.6619887034096601
 30
0.0
 11
1.5901525578006901
 21
1.6619887034096601
 31
0.0
  0
LINE
  5
4D
100
AcDbEntity
100
AcDbLine
  8
Group#1
 62
256
370
-1
  6
ByLayer
 10
1.51663400972379
 20
1.7795824826736699
 30
0.0
 11
1.5901525578006901
 21
1.6619887034096601
 31
0.0
  0
LINE
  5
4E
100
AcDbEntity
100
AcDbLine
  8
Group#1
 62
256
370
-1
  6
ByLayer
 10
1.51663400972379
 20
1.7795824826736699
 30
0.0
 11
1.51663400972379
 21
1.7795824826736699
 31
0.0
  0
LINE
  5
4F
100
AcDbEntity
100
AcDbLine
  8
Group#1
 62
256
370
-1
  6
ByLayer
 10
1.4760560550841499
 20
1.9121973514863
 30
0.0
 11
1.51663400972379
 21
1.7795824826736699
 31
0.0
  0
LINE
  5
50
100
AcDbEntity
100
AcDbLine
  8
Group#1
 62
256
370
-1
  6
ByLayer
 10
1.4760560550841499
 20
1.9121973514863
 30
0.0
 11
1.51663400972379
 21
1.7795824826736699
 31
0.0
  0
LINE
  5
51
100
AcDbEntity
100
AcDbLine
  8
Group#1
 62
256
370
-1
  6
ByLayer
 10
1.4760560550841499
 20
1.9121973514863
 30
0.0
 11
1.4760560550841499
 21
1.9121973514863
 31
0.0
  0
LINE
  5
52
100
AcDbEntity
100
AcDbLine
  8
Group#1
 62
256
370
-1
  6
ByLayer
 10
2.0878026485137
 20
1.4760560550841499
 30
0.0
 11
2.2204175173263301
 21
1.51663400972379
 31
0.0
  0
LINE
  5
53
100
AcDbEntity
100
AcDbLine
  8
Group#1
 62
256
370
-1
  6
ByLayer
 10
2.2204175173263301
 20
1.51663400972379
 30
0.0
 11
2.2204175173263301
 21
1.51663400972379
 31
0.0
  0
LINE
  5
54
100
AcDbEntity
100
AcDbLine
  8
Group#1
 62
256
370
-1
  6
ByLayer
 10
2.0878026485137
 20
1.4760560550841499
 30
0.0
 11
2.2204175173263301
 21
1.51663400972379
 31
0.0
  0
LINE
  5
55
100
AcDbEntity
100
AcDbLine
  8
Group#1
 62
256
370
-1
  6
ByLayer
 10
1.69160153175855
 20
1.5674298354181999
 30
0.0
 11
1.8140673516745001
 21
1.5023499092869901
 31
0.0
  0
LINE
  5
56
100
AcDbEntity
100
AcDbLine
  8
Group#1
 62
256
370
-1
  6
ByLayer
 10
1.69160153175855
 20
1.5674298354181999
 30
0.0
 11
1.8140673516745001
 21
1.5023499092869901
 31
0.0
  0
LINE
  5
57
100
AcDbEntity
100
AcDbLine
  8
Group#1
 62
256
370
-1
  6
ByLayer
 10
1.69160153175855
 20
1.5674298354181999
 30
0.0
 11
1.69160153175855
 21
1.5674298354181999
 31
0.0
  0
LINE
  5
58
100
AcDbEntity
100
AcDbLine
  8
Group#1
 62
256
370
-1
  6
ByLayer
 10
1.5901525578006901
 20
1.6619887034096601
 30
0.0
 11
1.69160153175855
 21
1.5674298354181999
 31
0.0
  0
LINE
  5
59
100
AcDbEntity
100
AcDbLine
  8
Group#1
 62
256
370
-1
  6
ByLayer
 10
1.5901525578006901
 20
1.6619887034096601
 30
0.0
 11
1.69160153175855
 21
1.5674298354181999
 31
0.0
  0
LINE
  5
5A
100
AcDbEntity
100
AcDbLine
  8
Group#1
 62
256
370
-1
  6
ByLayer
 10
5.9603732305986501
 20
9.4702299728685908
 30
0.0
 11
6.0988380525689196
 21
9.4780252861829606
 31
0.0
  0
LINE
  5
5B
100
AcDbEntity
100
AcDbLine
  8
Group#1
 62
256
370
-1
  6
ByLayer
 10
6.0988380525689196
 20
9.4780252861829606
 30
0.0
 11
6.0988380525689196
 21
9.4780252861829606
 31
0.0
  0
LINE
  5
5C
100
AcDbEntity
100
AcDbLine
  8
Group#1
 62
256
370
-1
  6
ByLayer
 10
5.9603732305986501
 20
9.4702299728685908
 30
0.0
 11
6.0988380525689196
 21
9.4780252861829606
 31
0.0
  0
LINE
  5
5D
100
AcDbEntity
100
AcDbLine
  8
Group#1
 62
256
370
-1
  6
ByLayer
 10
5.9603732305986501
 20
9.4702299728685908
 30
0.0
 11
5.9603732305986501
 21
9.4702299728685908
 31
0.0
  0
LINE
  5
5E
100
AcDbEntity
100
AcDbLine
  8
Group#1
 62
256
370
-1
  6
ByLayer
 10
6.4786076863600499
 20
10.2305672245941999
 30
0.0
 11
6.4026243360142097
 21
10.3465836212937994
 31
0.0
  0
LINE
  5
5F
100
AcDbEntity
100
AcDbLine
  8
Group#1
 62
256
370
-1
  6
ByLayer
 10
6.4026243360142097
 20
10.3465836212937994
 30
0.0
 11
6.4026243360142097
 21
10.3465836212937994
 31
0.0
  0
LINE
  5
60
100
AcDbEntity
100
AcDbLine
  8
Group#1
 62
256
370
-1
  6
ByLayer
 10
6.4786076863600499
 20
10.2305672245941999
 30
0.0
 11
6.4026243360142097
 21
10.3465836212937994
 31
0.0
  0
LINE
  5
61
100
AcDbEntity
100
AcDbLine
  8
Group#1
 62
256
370
-1
  6
ByLayer
 10
6.4786076863600499
 20
10.2305672245941999
 30
0.0
 11
6.4786076863600499
 21
10.2305672245941999
 31
0.0
  0
LINE
  5
62
100
AcDbEntity
100
AcDbLine
  8
Group#1
 62
256
370
-1
  6
ByLayer
 10
6.5297700271314101
 20
9.9603732305986501
 30
0.0
 11
6.5219747138170403
 21
10.0988380525688992
 31
0.0
  0
LINE
  5
63
100
AcDbEntity
100
AcDbLine
  8
Group#1
 62
256
370
-1
  6
ByLayer
 10
6.5219747138170403
 20
10.0988380525688992
 30
0.0
 11
6.5219747138170403
 21
10.0988380525688992
 31
0.0
  0
LINE
  5
64
100
AcDbEntity
100
AcDbLine
  8
Group#1
 62
256
370
-1
  6
ByLayer
 10
6.5297700271314101
 20
9.9603732305986501
 30
0.0
 11
6.5219747138170403
 21
10.0988380525688992
 31
0.0
  0
LINE
  5
65
100
AcDbEntity
100
AcDbLine
  8
Group#1
 62
256
370
-1
  6
ByLayer
 10
6.5297700271314101
 20
9.9603732305986501
 30
0.0
 11
6.5297700271314101
 21
9.9603732305986501
 31
0.0
  0
LINE
  5
66
100
AcDbEntity
100
AcDbLine
  8
Group#1
 62
256
370
-1
  6
ByLayer
 10
6.5014623885831302
 20
9.8246089074767493
 30
0.0
 11
6.5297700271314101
 21
9.9603732305986501
 31
0.0
  0
LINE
  5
67
100
AcDbEntity
100
AcDbLine
  8
Group#1
 62
256
370
-1
  6
ByLayer
 10
6.5014623885831302
 20
9.8246089074767493
 30
0.0
 11
6.5297700271314101
 21
9.9603732305986501
 31
0.0
  0
LINE
  5
68
100
AcDbEntity
100
AcDbLine
  8
Group#1
 62
256
370
-1
  6
ByLayer
 10
6.5014623885831302
 20
9.8246089074767493
 30
0.0
 11
6.5014623885831302
 21
9.8246089074767493
 31
0.0
  0
LINE
  5
69
100
AcDbEntity
100
AcDbLine
  8
Group#1
 62
256
370
-1
  6
ByLayer
 10
6.4026243360142097
 20
10.3465836212937994
 30
0.0
 11
6.29920280253718
 21
10.4389809169587
 31
0.0
  0
LINE
  5
6A
100
AcDbEntity
100
AcDbLine
  8
Group#1
 62
256
370
-1
  6
ByLayer
 10
6.29920280253718
 20
10.4389809169587
 30
0.0
 11
6.29920280253718
 21
10.4389809169587
 31
0.0
  0
LINE
  5
6B
100
AcDbEntity
100
AcDbLine
  8
Group#1
 62
256
370
-1
  6
ByLayer
 10
6.4026243360142097
 20
10.3465836212937994
 30
0.0
 11
6.29920280253718
 21
10.4389809169587
 31
0.0
  0
LINE
  5
6C
100
AcDbEntity
100
AcDbLine
  8
Group#1
 62
256
370
-1
  6
ByLayer
 10
6.2305672245942203
 20
9.5213923136399501
 30
0.0
 11
6.3465836212937896
 21
9.5973756639857903
 31
0.0
  0
LINE
  5
6D
100
AcDbEntity
100
AcDbLine
  8
Group#1
 62
256
370
-1
  6
ByLayer
 10
6.3465836212937896
 20
9.5973756639857903
 30
0.0
 11
6.3465836212937896
 21
9.5973756639857903
 31
0.0
  0
LINE
  5
6E
100
AcDbEntity
100
AcDbLine
  8
Group#1
 62
256
370
-1
  6
ByLayer
 10
6.2305672245942203
 20
9.5213923136399501
 30
0.0
 11
6.3465836212937896
 21
9.5973756639857903
 31
0.0
  0
LINE
  5
6F
100
AcDbEntity
100
AcDbLine
  8
Group#1
 62
256
370
-1
  6
ByLayer
 10
6.2305672245942203
 20
9.5213923136399501
 30
0.0
 11
6.2305672245942203
 21
9.5213923136399501
 31
0.0
  0
LINE
  5
70
100
AcDbEntity
100
AcDbLine
  8
Group#1
 62
256
370
-1
  6
ByLayer
 10
5.70079719746282
 20
9.5610190830413107
 30
0.0
 11
5.8246089074767502
 21
9.4985376114168698
 31
0.0
  0
LINE
  5
71
100
AcDbEntity
100
AcDbLine
  8
Group#1
 62
256
370
-1
  6
ByLayer
 10
5.8246089074767502
 20
9.4985376114168698
 30
0.0
 11
5.8246089074767502
 21
9.4985376114168698
 31
0.0
  0
LINE
  5
72
100
AcDbEntity
100
AcDbLine
  8
Group#1
 62
256
370
-1
  6
ByLayer
 10
5.70079719746282
 20
9.5610190830413107
 30
0.0
 11
5.8246089074767502
 21
9.4985376114168698
 31
0.0
  0
LINE
  5
73
100
AcDbEntity
100
AcDbLine
  8
Group#1
 62
256
370
-1
  6
ByLayer
 10
5.70079719746282
 20
9.5610190830413107
 30
0.0
 11
5.70079719746282
 21
9.5610190830413107
 31
0.0
  0
LINE
  5
74
100
AcDbEntity
100
AcDbLine
  8
Group#1
 62
256
370
-1
  6
ByLayer
 10
6.5219747138170403
 20
10.0988380525688992
 30
0.0
 11
6.4786076863600499
 21
10.2305672245941999
 31
0.0
  0
LINE
  5
75
100
AcDbEntity
100
AcDbLine
  8
Group#1
 62
256
370
-1
  6
ByLayer
 10
6.5219747138170403
 20
10.0988380525688992
 30
0.0
 11
6.4786076863600499
 21
10.2305672245941999
 31
0.0
  0
LINE
  5
76
100
AcDbEntity
100
AcDbLine
  8
Group#1
 62
256
370
-1
  6
ByLayer
 10
5.5213923136399501
 20
9.7694327754057806
 30
0.0
 11
5.5973756639857903
 21
9.6534163787062095
 31
0.0
  0
LINE
  5
77
100
AcDbEntity
100
AcDbLine
  8
Group#1
 62
256
370
-1
  6
ByLayer
 10
5.5973756639857903
 20
9.6534163787062095
 30
0.0
 11
5.5973756639857903
 21
9.6534163787062095
 31
0.0
  0
LINE
  5
78
100
AcDbEntity
100
AcDbLine
  8
Group#1
 62
256
370
-1
  6
ByLayer
 10
5.5213923136399501
 20
9.7694327754057806
 30
0.0
 11
5.5973756639857903
 21
9.6534163787062095
 31
0.0
  0
LINE
  5
79
100
AcDbEntity
100
AcDbLine
  8
Group#1
 62
256
370
-1
  6
ByLayer
 10
5.5213923136399501
 20
9.7694327754057806
 30
0.0
 11
5.5213923136399501
 21
9.7694327754057806
 31
0.0
  0
LINE
  5
7A
100
AcDbEntity
100
AcDbLine
  8
Group#1
 62
256
370
-1
  6
ByLayer
 10
6.0988380525689196
 20
9.4780252861829606
 30
0.0
 11
6.2305672245942203
 21
9.5213923136399501
 31
0.0
  0
LINE
  5
7B
100
AcDbEntity
100
AcDbLine
  8
Group#1
 62
256
370
-1
  6
ByLayer
 10
6.0988380525689196
 20
9.4780252861829606
 30
0.0
 11
6.2305672245942203
 21
9.5213923136399501
 31
0.0
  0
LINE
  5
7C
100
AcDbEntity
100
AcDbLine
  8
Group#1
 62
256
370
-1
  6
ByLayer
 10
5.8246089074767502
 20
9.4985376114168698
 30
0.0
 11
5.9603732305986501
 21
9.4702299728685908
 31
0.0
  0
LINE
  5
7D
100
AcDbEntity
100
AcDbLine
  8
Group#1
 62
256
370
-1
  6
ByLayer
 10
5.8246089074767502
 20
9.4985376114168698
 30
0.0
 11
5.9603732305986501
 21
9.4702299728685908
 31
0.0
  0
LINE
  5
7E
100
AcDbEntity
100
AcDbLine
  8
Group#1
 62
256
370
-1
  6
ByLayer
 10
6.4389809169586902
 20
9.7007971974628209
 30
0.0
 11
6.5014623885831302
 21
9.8246089074767493
 31
0.0
  0
LINE
  5
7F
100
AcDbEntity
100
AcDbLine
  8
Group#1
 62
256
370
-1
  6
ByLayer
 10
6.4389809169586902
 20
9.7007971974628209
 30
0.0
 11
6.5014623885831302
 21
9.8246089074767493
 31
0.0
  0
LINE
  5
80
100
AcDbEntity
100
AcDbLine
  8
Group#1
 62
256
370
-1
  6
ByLayer
 10
6.4389809169586902
 20
9.7007971974628209
 30
0.0
 11
6.4389809169586902
 21
9.7007971974628209
 31
0.0
  0
LINE
  5
81
100
AcDbEntity
100
AcDbLine
  8
Group#1
 62
256
370
-1
  6
ByLayer
 10
5.5973756639857903
 20
9.6534163787062095
 30
0.0
 11
5.70079719746282
 21
9.5610190830413107
 31
0.0
  0
LINE
  5
82
100
AcDbEntity
100
AcDbLine
  8
Group#1
 62
256
370
-1
  6
ByLayer
 10
5.5973756639857903
 20
9.6534163787062095
 30
0.0
 11
5.70079719746282
 21
9.5610190830413107
 31
0.0
  0
LINE
  5
83
100
AcDbEntity
100
AcDbLine
  8
Group#1
 62
256
370
-1
  6
ByLayer
 10
6.3465836212937896
 20
9.5973756639857903
 30
0.0
 11
6.4389809169586902
 21
9.7007971974628209
 31
0.0
  0
LINE
  5
84
100
AcDbEntity
100
AcDbLine
  8
Group#1
 62
256
370
-1
  6
ByLayer
 10
6.3465836212937896
 20
9.5973756639857903
 30
0.0
 11
6.4389809169586902
 21
9.7007971974628209
 31
0.0
  0
LINE
  5
85
100
AcDbEntity
100
AcDbLine
  8
Group#1
 62
256
370
-1
  6
ByLayer
 10
5.4726696346148804
 20
10.0513274637233998
 30
0.0
 11
5.4702299728685899
 21
10.0396267694013996
 31
0.0
  0
LINE
  5
86
100
AcDbEntity
100
AcDbLine
  8
Group#1
 62
256
370
-1
  6
ByLayer
 10
5.4702299728685899
 20
10.0396267694013996
 30
0.0
 11
5.4702299728685899
 21
10.0396267694013996
 31
0.0
  0
LINE
  5
87
100
AcDbEntity
100
AcDbLine
  8
Group#1
 62
256
370
-1
  6
ByLayer
 10
5.4702299728685899
 20
10.0396267694013996
 30
0.0
 11
5.4726696346148804
 21
10.0513274637233998
 31
0.0
  0
LINE
  5
88
100
AcDbEntity
100
AcDbLine
  8
Group#1
 62
256
370
-1
  6
ByLayer
 10
5.4726696346148804
 20
10.0513274637233998
 30
0.0
 11
5.4726696346148804
 21
10.0513274637233998
 31
0.0
  0
LINE
  5
89
100
AcDbEntity
100
AcDbLine
  8
Group#1
 62
256
370
-1
  6
ByLayer
 10
6.29920280253718
 20
10.4389809169587
 30
0.0
 11
6.1753910925232596
 21
10.5014623885831
 31
0.0
  0
LINE
  5
8A
100
AcDbEntity
100
AcDbLine
  8
Group#1
 62
256
370
-1
  6
ByLayer
 10
6.1753910925232596
 20
10.5014623885831
 30
0.0
 11
6.1753910925232596
 21
10.5014623885831
 31
0.0
  0
LINE
  5
8B
100
AcDbEntity
100
AcDbLine
  8
Group#1
 62
256
370
-1
  6
ByLayer
 10
6.29920280253718
 20
10.4389809169587
 30
0.0
 11
6.1753910925232596
 21
10.5014623885831
 31
0.0
  0
LINE
  5
8C
100
AcDbEntity
100
AcDbLine
  8
Group#1
 62
256
370
-1
  6
ByLayer
 10
5.4780252861829597
 20
9.9011619474310795
 30
0.0
 11
5.5213923136399501
 21
9.7694327754057806
 31
0.0
  0
LINE
  5
8D
100
AcDbEntity
100
AcDbLine
  8
Group#1
 62
256
370
-1
  6
ByLayer
 10
5.4780252861829597
 20
9.9011619474310795
 30
0.0
 11
5.5213923136399501
 21
9.7694327754057806
 31
0.0
  0
LINE
  5
8E
100
AcDbEntity
100
AcDbLine
  8
Group#1
 62
256
370
-1
  6
ByLayer
 10
5.4780252861829597
 20
9.9011619474310795
 30
0.0
 11
5.4780252861829597
 21
9.9011619474310795
 31
0.0
  0
LINE
  5
8F
100
AcDbEntity
100
AcDbLine
  8
Group#1
 62
256
370
-1
  6
ByLayer
 10
5.4702299728685899
 20
10.0396267694013996
 30
0.0
 11
5.4780252861829597
 21
9.9011619474310795
 31
0.0
  0
LINE
  5
90
100
AcDbEntity
100
AcDbLine
  8
Group#1
 62
256
370
-1
  6
ByLayer
 10
5.4702299728685899
 20
10.0396267694013996
 30
0.0
 11
5.4780252861829597
 21
9.9011619474310795
 31
0.0
  0
LINE
  5
91
100
AcDbEntity
100
AcDbLine
  8
Group#1
 62
256
370
-1
  6
ByLayer
 10
6.1753910925232596
 20
10.5014623885831
 30
0.0
 11
6.0396267694013499
 21
10.5297700271314003
 31
0.0
  0
LINE
  5
92
100
AcDbEntity
100
AcDbLine
  8
Group#1
 62
256
370
-1
  6
ByLayer
 10
6.0396267694013499
 20
10.5297700271314003
 30
0.0
 11
6.0396267694013499
 21
10.5297700271314003
 31
0.0
  0
LINE
  5
93
100
AcDbEntity
100
AcDbLine
  8
Group#1
 62
256
370
-1
  6
ByLayer
 10
6.1753910925232596
 20
10.5014623885831
 30
0.0
 11
6.0396267694013499
 21
10.5297700271314003
 31
0.0
  0
LINE
  5
94
100
AcDbEntity
100
AcDbLine
  8
Group#1
 62
256
370
-1
  6
ByLayer
 10
2.7287327255184799
 20
9.8886906702206598
 30
0.0
 11
2.7287327255184799
 21
9.8886906702206598
 31
0.0
  0
LINE
  5
95
100
AcDbEntity
100
AcDbLine
  8
Group#1
 62
256
370
-1
  6
ByLayer
 10
1.66243336081746
 20
6.4102137572181102
 30
0.0
 11
1.66243336081746
 21
6.4102137572181102
 31
0.0
  0
LINE
  5
96
100
AcDbEntity
100
AcDbLine
  8
Group#1
 62
256
370
-1
  6
ByLayer
 10
1.63966140267508
 20
6.3858355608284203
 30
0.0
 11
1.63966140267508
 21
6.3858355608284203
 31
0.0
  0
LINE
  5
97
100
AcDbEntity
100
AcDbLine
  8
Group#1
 62
256
370
-1
  6
ByLayer
 10
1.7801067980510901
 20
6.4836047376077399
 30
0.0
 11
1.7801067980510901
 21
6.4836047376077399
 31
0.0
  0
LINE
  5
98
100
AcDbEntity
100
AcDbLine
  8
Group#1
 62
256
370
-1
  6
ByLayer
 10
1.91276559360684
 20
6.5240388543240204
 30
0.0
 11
1.91276559360684
 21
6.5240388543240204
 31
0.0
  0
LINE
  5
99
100
AcDbEntity
100
AcDbLine
  8
Group#1
 62
256
370
-1
  6
ByLayer
 10
2.0513692697966102
 20
6.5287605891332703
 30
0.0
 11
2.0513692697966102
 21
6.5287605891332703
 31
0.0
  0
LINE
  5
9A
100
AcDbEntity
100
AcDbLine
  8
Group#1
 62
256
370
-1
  6
ByLayer
 10
2.1864722151414799
 20
6.4974481636112804
 30
0.0
 11
2.1864722151414799
 21
6.4974481636112804
 31
0.0
  0
LINE
  5
9B
100
AcDbEntity
100
AcDbLine
  8
Group#1
 62
256
370
-1
  6
ByLayer
 10
2.3088673871843599
 20
6.4322354678111298
 30
0.0
 11
2.3088673871843599
 21
6.4322354678111298
 31
0.0
  0
LINE
  5
9C
100
AcDbEntity
100
AcDbLine
  8
Group#1
 62
256
370
-1
  6
ByLayer
 10
2.4102137572181102
 20
6.3375666391825396
 30
0.0
 11
2.4102137572181102
 21
6.3375666391825396
 31
0.0
  0
LINE
  5
9D
100
AcDbEntity
100
AcDbLine
  8
Group#1
 62
256
370
-1
  6
ByLayer
 10
2.4836047376077399
 20
6.2198932019489099
 30
0.0
 11
2.4836047376077399
 21
6.2198932019489099
 31
0.0
  0
LINE
  5
9E
100
AcDbEntity
100
AcDbLine
  8
Group#1
 62
256
370
-1
  6
ByLayer
 10
2.52403885432402
 20
6.0872344063931596
 30
0.0
 11
2.52403885432402
 21
6.0872344063931596
 31
0.0
  0
LINE
  5
9F
100
AcDbEntity
100
AcDbLine
  8
Group#1
 62
256
370
-1
  6
ByLayer
 10
2.5287605891332698
 20
5.9486307302033898
 30
0.0
 11
2.5287605891332698
 21
5.9486307302033898
 31
0.0
  0
LINE
  5
A0
100
AcDbEntity
100
AcDbLine
  8
Group#1
 62
256
370
-1
  6
ByLayer
 10
2.49744816361128
 20
5.8135277848585201
 30
0.0
 11
2.49744816361128
 21
5.8135277848585201
 31
0.0
  0
LINE
  5
A1
100
AcDbEntity
100
AcDbLine
  8
Group#1
 62
256
370
-1
  6
ByLayer
 10
2.4322354678111302
 20
5.6911326128156396
 30
0.0
 11
2.4322354678111302
 21
5.6911326128156396
 31
0.0
  0
LINE
  5
A2
100
AcDbEntity
100
AcDbLine
  8
Group#1
 62
256
370
-1
  6
ByLayer
 10
2.33756663918254
 20
5.5897862427818898
 30
0.0
 11
2.33756663918254
 21
5.5897862427818898
 31
0.0
  0
LINE
  5
A3
100
AcDbEntity
100
AcDbLine
  8
Group#1
 62
256
370
-1
  6
ByLayer
 10
2.2198932019489099
 20
5.5163952623922601
 30
0.0
 11
2.2198932019489099
 21
5.5163952623922601
 31
0.0
  0
LINE
  5
A4
100
AcDbEntity
100
AcDbLine
  8
Group#1
 62
256
370
-1
  6
ByLayer
 10
2.08723440639316
 20
5.4759611456759796
 30
0.0
 11
2.08723440639316
 21
5.4759611456759796
 31
0.0
  0
LINE
  5
A5
100
AcDbEntity
100
AcDbLine
  8
Group#1
 62
256
370
-1
  6
ByLayer
 10
1.9486307302033901
 20
5.4712394108667297
 30
0.0
 11
1.9486307302033901
 21
5.4712394108667297
 31
0.0
  0
LINE
  5
A6
100
AcDbEntity
100
AcDbLine
  8
Group#1
 62
256
370
-1
  6
ByLayer
 10
1.8135277848585201
 20
5.5025518363887196
 30
0.0
 11
1.8135277848585201
 21
5.5025518363887196
 31
0.0
  0
LINE
  5
A7
100
AcDbEntity
100
AcDbLine
  8
Group#1
 62
256
370
-1
  6
ByLayer
 10
1.6911326128156401
 20
5.5677645321888702
 30
0.0
 11
1.6911326128156401
 21
5.5677645321888702
 31
0.0
  0
LINE
  5
A8
100
AcDbEntity
100
AcDbLine
  8
Group#1
 62
256
370
-1
  6
ByLayer
 10
1.5897862427818901
 20
5.6624333608174604
 30
0.0
 11
1.5897862427818901
 21
5.6624333608174604
 31
0.0
  0
LINE
  5
A9
100
AcDbEntity
100
AcDbLine
  8
Group#1
 62
256
370
-1
  6
ByLayer
 10
1.5369149862709801
 20
5.7472059371131996
 30
0.0
 11
1.5369149862709801
 21
5.7472059371131996
 31
0.0
  0
LINE
  5
AA
100
AcDbEntity
100
AcDbLine
  8
Group#1
 62
256
370
-1
  6
ByLayer
 10
1.5163952623922601
 20
5.7801067980510901
 30
0.0
 11
1.5163952623922601
 21
5.7801067980510901
 31
0.0
  0
LINE
  5
AB
100
AcDbEntity
100
AcDbLine
  8
Group#1
 62
256
370
-1
  6
ByLayer
 10
1.47596114567598
 20
5.9127655936068404
 30
0.0
 11
1.47596114567598
 21
5.9127655936068404
 31
0.0
  0
LINE
  5
AC
100
AcDbEntity
100
AcDbLine
  8
Group#1
 62
256
370
-1
  6
ByLayer
 10
1.4712394108667299
 20
6.0513692697966102
 30
0.0
 11
1.4712394108667299
 21
6.0513692697966102
 31
0.0
  0
LINE
  5
AD
100
AcDbEntity
100
AcDbLine
  8
Group#1
 62
256
370
-1
  6
ByLayer
 10
1.50255183638872
 20
6.1864722151414799
 30
0.0
 11
1.50255183638872
 21
6.1864722151414799
 31
0.0
  0
LINE
  5
AE
100
AcDbEntity
100
AcDbLine
  8
Group#1
 62
256
370
-1
  6
ByLayer
 10
1.56776453218887
 20
6.3088673871843604
 30
0.0
 11
1.56776453218887
 21
6.3088673871843604
 31
0.0
  0
LINE
  5
AF
100
AcDbEntity
100
AcDbLine
  8
Group#1
 62
256
370
-1
  6
ByLayer
 10
1.5369149862709801
 20
5.7472059371131996
 30
0.0
 11
1.5897862427818901
 21
5.6624333608174604
 31
0.0
  0
LINE
  5
B0
100
AcDbEntity
100
AcDbLine
  8
Group#1
 62
256
370
-1
  6
ByLayer
 10
6.2643237615698002
 20
12.8132122794918004
 30
0.0
 11
6.2643237615698002
 21
12.8132122794918004
 31
0.0
  0
LINE
  5
B1
100
AcDbEntity
100
AcDbLine
  8
Group#1
 62
256
370
-1
  6
ByLayer
 10
6.36951440848821
 20
12.5400937959770005
 30
0.0
 11
6.36951440848821
 21
12.5400937959770005
 31
0.0
  0
LINE
  5
B2
100
AcDbEntity
100
AcDbLine
  8
Group#1
 62
256
370
-1
  6
ByLayer
 10
6.3820616228643701
 20
12.4219846397233002
 30
0.0
 11
6.3820616228643701
 21
12.4219846397233002
 31
0.0
  0
LINE
  5
B3
100
AcDbEntity
100
AcDbLine
  8
Group#1
 62
256
370
-1
  6
ByLayer
 10
2.5267791882728998
 20
10.0518561359220993
 30
0.0
 11
2.5267791882728998
 21
10.0518561359220993
 31
0.0
  0
LINE
  5
B4
100
AcDbEntity
100
AcDbLine
  8
Group#1
 62
256
370
-1
  6
ByLayer
 10
3.2013152870197699
 20
9.6789157512933404
 30
0.0
 11
3.2013152870197699
 21
9.6789157512933404
 31
0.0
  0
LINE
  5
B5
100
AcDbEntity
100
AcDbLine
  8
Group#1
 62
256
370
-1
  6
ByLayer
 10
3.31032439355074
 20
9.6305276423198993
 30
0.0
 11
3.31032439355074
 21
9.6305276423198993
 31
0.0
  0
LINE
  5
B6
100
AcDbEntity
100
AcDbLine
  8
Group#1
 62
256
370
-1
  6
ByLayer
 10
3.9389163144196799
 20
9.5316883064372604
 30
0.0
 11
3.9389163144196799
 21
9.5316883064372604
 31
0.0
  0
LINE
  5
B7
100
AcDbEntity
100
AcDbLine
  8
Group#1
 62
256
370
-1
  6
ByLayer
 10
4.5716709875153603
 20
9.5989083999734106
 30
0.0
 11
4.5716709875153603
 21
9.5989083999734106
 31
0.0
  0
LINE
  5
B8
100
AcDbEntity
100
AcDbLine
  8
Group#1
 62
256
370
-1
  6
ByLayer
 10
5.1654672275428402
 20
9.8276069846403402
 30
0.0
 11
5.1654672275428402
 21
9.8276069846403402
 31
0.0
  0
LINE
  5
B9
100
AcDbEntity
100
AcDbLine
  8
Group#1
 62
256
370
-1
  6
ByLayer
 10
5.9399621434673202
 20
10.5241590930728002
 30
0.0
 11
5.9399621434673202
 21
10.5241590930728002
 31
0.0
  0
LINE
  5
BA
100
AcDbEntity
100
AcDbLine
  8
Group#1
 62
256
370
-1
  6
ByLayer
 10
6.0797321382409599
 20
10.6971555339800997
 30
0.0
 11
6.0797321382409599
 21
10.6971555339800997
 31
0.0
  0
LINE
  5
BB
100
AcDbEntity
100
AcDbLine
  8
Group#1
 62
256
370
-1
  6
ByLayer
 10
6.3378951661417204
 20
11.2787472020124007
 30
0.0
 11
6.3378951661417204
 21
11.2787472020124007
 31
0.0
  0
LINE
  5
BC
100
AcDbEntity
100
AcDbLine
  8
Group#1
 62
256
370
-1
  6
ByLayer
 10
6.4367345020243603
 20
11.9073391228813001
 30
0.0
 11
6.4367345020243603
 21
11.9073391228813001
 31
0.0
  0
LINE
  5
BD
100
AcDbEntity
100
AcDbLine
  8
Group#1
 62
256
370
-1
  6
ByLayer
 10
2.06249661909811
 20
10.5237765262854008
 30
0.0
 11
2.06249661909811
 21
10.5237765262854008
 31
0.0
  0
LINE
  5
BE
100
AcDbEntity
100
AcDbLine
  8
Group#1
 62
256
370
-1
  6
ByLayer
 10
2.9647238195899202
 20
15.8637033051562995
 30
0.0
 11
2.9647238195899202
 21
15.8637033051562995
 31
0.0
  0
LINE
  5
BF
100
AcDbEntity
100
AcDbLine
  8
Group#1
 62
256
370
-1
  6
ByLayer
 10
4.0
 20
16.0
 30
0.0
 11
4.0
 21
16.0
 31
0.0
  0
LINE
  5
C0
100
AcDbEntity
100
AcDbLine
  8
Group#1
 62
256
370
-1
  6
ByLayer
 10
5.0352761804100901
 20
15.8637033051562995
 30
0.0
 11
5.0352761804100901
 21
15.8637033051562995
 31
0.0
  0
LINE
  5
C1
100
AcDbEntity
100
AcDbLine
  8
Group#1
 62
256
370
-1
  6
ByLayer
 10
6.0
 20
15.4641016151377997
 30
0.0
 11
6.0
 21
15.4641016151377997
 31
0.0
  0
LINE
  5
C2
100
AcDbEntity
100
AcDbLine
  8
Group#1
 62
256
370
-1
  6
ByLayer
 10
6.8284271247461898
 20
14.8284271247462005
 30
0.0
 11
6.8284271247461898
 21
14.8284271247462005
 31
0.0
  0
LINE
  5
C3
100
AcDbEntity
100
AcDbLine
  8
Group#1
 62
256
370
-1
  6
ByLayer
 10
7.4641016151377597
 20
14.0
 30
0.0
 11
7.4641016151377597
 21
14.0
 31
0.0
  0
LINE
  5
C4
100
AcDbEntity
100
AcDbLine
  8
Group#1
 62
256
370
-1
  6
ByLayer
 10
7.8637033051562701
 20
13.0352761804101007
 30
0.0
 11
7.8637033051562701
 21
13.0352761804101007
 31
0.0
  0
LINE
  5
C5
100
AcDbEntity
100
AcDbLine
  8
Group#1
 62
256
370
-1
  6
ByLayer
 10
8.0
 20
0.0
 30
0.0
 11
8.0
 21
0.0
 31
0.0
  0
LINE
  5
C6
100
AcDbEntity
100
AcDbLine
  8
Group#1
 62
256
370
-1
  6
ByLayer
 10
8.0
 20
12.0
 30
0.0
 11
8.0
 21
12.0
 31
0.0
  0
LINE
  5
C7
100
AcDbEntity
100
AcDbLine
  8
Group#1
 62
256
370
-1
  6
ByLayer
 10
0.0
 20
0.0
 30
0.0
 11
0.0
 21
0.0
 31
0.0
  0
LINE
  5
C8
100
AcDbEntity
100
AcDbLine
  8
Group#1
 62
256
370
-1
  6
ByLayer
 10
0.0
 20
12.0
 30
0.0
 11
0.0
 21
12.0
 31
0.0
  0
LINE
  5
C9
100
AcDbEntity
100
AcDbLine
  8
Group#1
 62
256
370
-1
  6
ByLayer
 10
0.136296694843727
 20
13.0352761804101007
 30
0.0
 11
0.136296694843727
 21
13.0352761804101007
 31
0.0
  0
LINE
  5
CA
100
AcDbEntity
100
AcDbLine
  8
Group#1
 62
256
370
-1
  6
ByLayer
 10
0.5358983848622459
 20
14.0
 30
0.0
 11
0.5358983848622459
 21
14.0
 31
0.0
  0
LINE
  5
CB
100
AcDbEntity
100
AcDbLine
  8
Group#1
 62
256
370
-1
  6
ByLayer
 10
1.1715728752538099
 20
14.8284271247462005
 30
0.0
 11
1.1715728752538099
 21
14.8284271247462005
 31
0.0
  0
LINE
  5
CC
100
AcDbEntity
100
AcDbLine
  8
Group#1
 62
256
370
-1
  6
ByLayer
 10
2.0
 20
15.4641016151377997
 30
0.0
 11
2.0
 21
15.4641016151377997
 31
0.0
  0
LINE
  5
CD
100
AcDbEntity
100
AcDbLine
  8
Group#1
 62
256
370
-1
  6
ByLayer
 10
8.0
 20
0.0
 30
0.0
 11
8.0
 21
12.0
 31
0.0
  0
LINE
  5
CE
100
AcDbEntity
100
AcDbLine
  8
Group#1
 62
256
370
-1
  6
ByLayer
 10
8.0
 20
0.0
 30
0.0
 11
8.0
 21
12.0
 31
0.0
  0
LINE
  5
CF
100
AcDbEntity
100
AcDbLine
  8
Group#1
 62
256
370
-1
  6
ByLayer
 10
8.0
 20
12.0
 30
0.0
 11
7.8637033051562701
 21
13.0352761804101007
 31
0.0
  0
LINE
  5
D0
100
AcDbEntity
100
AcDbLine
  8
Group#1
 62
256
370
-1
  6
ByLayer
 10
8.0
 20
12.0
 30
0.0
 11
7.8637033051562701
 21
13.0352761804101007
 31
0.0
  0
LINE
  5
D1
100
AcDbEntity
100
AcDbLine
  8
Group#1
 62
256
370
-1
  6
ByLayer
 10
7.8637033051562701
 20
13.0352761804101007
 30
0.0
 11
7.4641016151377597
 21
14.0
 31
0.0
  0
LINE
  5
D2
100
AcDbEntity
100
AcDbLine
  8
Group#1
 62
256
370
-1
  6
ByLayer
 10
7.4641016151377597
 20
14.0
 30
0.0
 11
6.8284271247461898
 21
14.8284271247462005
 31
0.0
  0
LINE
  5
D3
100
AcDbEntity
100
AcDbLine
  8
Group#1
 62
256
370
-1
  6
ByLayer
 10
6.8284271247461898
 20
14.8284271247462005
 30
0.0
 11
6.0
 21
15.4641016151377997
 31
0.0
  0
LINE
  5
D4
100
AcDbEntity
100
AcDbLine
  8
Group#1
 62
256
370
-1
  6
ByLayer
 10
6.0
 20
15.4641016151377997
 30
0.0
 11
5.8950006931291901
 21
15.5075937520834
 31
0.0
  0
LINE
  5
D5
100
AcDbEntity
100
AcDbLine
  8
Group#1
 62
256
370
-1
  6
ByLayer
 10
5.8950006931291901
 20
15.5075937520834
 30
0.0
 11
5.0352761804100901
 21
15.8637033051562995
 31
0.0
  0
LINE
  5
D6
100
AcDbEntity
100
AcDbLine
  8
Group#1
 62
256
370
-1
  6
ByLayer
 10
5.0352761804100901
 20
15.8637033051562995
 30
0.0
 11
4.0
 21
16.0
 31
0.0
  0
LINE
  5
D7
100
AcDbEntity
100
AcDbLine
  8
Group#1
 62
256
370
-1
  6
ByLayer
 10
4.0
 20
16.0
 30
0.0
 11
2.9647238195899202
 21
15.8637033051562995
 31
0.0
  0
LINE
  5
D8
100
AcDbEntity
100
AcDbLine
  8
Group#1
 62
256
370
-1
  6
ByLayer
 10
2.9647238195899202
 20
15.8637033051562995
 30
0.0
 11
2.0938185551997002
 21
15.5029625331037
 31
0.0
  0
LINE
  5
D9
100
AcDbEntity
100
AcDbLine
  8
Group#1
 62
256
370
-1
  6
ByLayer
 10
2.0938185551997002
 20
15.5029625331037
 30
0.0
 11
2.0
 21
15.4641016151377997
 31
0.0
  0
LINE
  5
DA
100
AcDbEntity
100
AcDbLine
  8
Group#1
 62
256
370
-1
  6
ByLayer
 10
2.0
 20
15.4641016151377997
 30
0.0
 11
1.1715728752538099
 21
14.8284271247462005
 31
0.0
  0
LINE
  5
DB
100
AcDbEntity
100
AcDbLine
  8
Group#1
 62
256
370
-1
  6
ByLayer
 10
1.1715728752538099
 20
14.8284271247462005
 30
0.0
 11
0.5358983848622459
 21
14.0
 31
0.0
  0
LINE
  5
DC
100
AcDbEntity
100
AcDbLine
  8
Group#1
 62
256
370
-1
  6
ByLayer
 10
0.5358983848622459
 20
14.0
 30
0.0
 11
0.136296694843727
 21
13.0352761804101007
 31
0.0
  0
LINE
  5
DD
100
AcDbEntity
100
AcDbLine
  8
Group#1
 62
256
370
-1
  6
ByLayer
 10
0.136296694843727
 20
13.0352761804101007
 30
0.0
 11
0.0
 21
12.0
 31
0.0
  0
LINE
  5
DE
100
AcDbEntity
100
AcDbLine
  8
Group#1
 62
256
370
-1
  6
ByLayer
 10
0.0
 20
12.0
 30
0.0
 11
0.0
 21
0.0
 31
0.0
  0
LINE
  5
DF
100
AcDbEntity
100
AcDbLine
  8
Group#1
 62
256
370
-1
  6
ByLayer
 10
0.0
 20
0.0
 30
0.0
 11
8.0
 21
0.0
 31
0.0
  0
LINE
  5
E0
100
AcDbEntity
100
AcDbLine
  8
Group#1
 62
256
370
-1
  6
ByLayer
 10
6.4987040368133
 20
2.1830869907069301
 30
0.0
 11
6.4343247087271198
 21
2.3059225553781602
 31
0.0
  0
LINE
  5
E1
100
AcDbEntity
100
AcDbLine
  8
Group#1
 62
256
370
-1
  6
ByLayer
 10
6.5290975089380403
 20
2.04777435018458
 30
0.0
 11
6.4987040368133
 21
2.1830869907069301
 31
0.0
  0
LINE
  5
E2
100
AcDbEntity
100
AcDbLine
  8
Group#1
 62
256
370
-1
  6
ByLayer
 10
6.5234338602036299
 20
1.9092059666479899
 30
0.0
 11
6.5290975089380403
 21
2.04777435018458
 31
0.0
  0
LINE
  5
E3
100
AcDbEntity
100
AcDbLine
  8
Group#1
 62
256
370
-1
  6
ByLayer
 10
6.4820990589117002
 20
1.7768250464401201
 30
0.0
 11
6.5234338602036299
 21
1.9092059666479899
 31
0.0
  0
LINE
  5
E4
100
AcDbEntity
100
AcDbLine
  8
Group#1
 62
256
370
-1
  6
ByLayer
 10
6.4079100034612901
 20
1.6596531305033
 30
0.0
 11
6.4820990589117002
 21
1.7768250464401201
 31
0.0
  0
LINE
  5
E5
100
AcDbEntity
100
AcDbLine
  8
Group#1
 62
256
370
-1
  6
ByLayer
 10
6.3059225553781602
 20
1.56567529127288
 30
0.0
 11
6.4079100034612901
 21
1.6596531305033
 31
0.0
  0
LINE
  5
E6
100
AcDbEntity
100
AcDbLine
  8
Group#1
 62
256
370
-1
  6
ByLayer
 10
6.1830869907069301
 20
1.5012959631867
 30
0.0
 11
6.3059225553781602
 21
1.56567529127288
 31
0.0
  0
LINE
  5
E7
100
AcDbEntity
100
AcDbLine
  8
Group#1
 62
256
370
-1
  6
ByLayer
 10
6.0477743501845804
 20
1.4709024910619599
 30
0.0
 11
6.1830869907069301
 21
1.5012959631867
 31
0.0
  0
LINE
  5
E8
100
AcDbEntity
100
AcDbLine
  8
Group#1
 62
256
370
-1
  6
ByLayer
 10
5.9092059666479901
 20
1.4765661397963701
 30
0.0
 11
6.0477743501845804
 21
1.4709024910619599
 31
0.0
  0
LINE
  5
E9
100
AcDbEntity
100
AcDbLine
  8
Group#1
 62
256
370
-1
  6
ByLayer
 10
5.7768250464401198
 20
1.5179009410883
 30
0.0
 11
5.9092059666479901
 21
1.4765661397963701
 31
0.0
  0
LINE
  5
EA
100
AcDbEntity
100
AcDbLine
  8
Group#1
 62
256
370
-1
  6
ByLayer
 10
5.6596531305033002
 20
1.5920899965387101
 30
0.0
 11
5.7768250464401198
 21
1.5179009410883
 31
0.0
  0
LINE
  5
EB
100
AcDbEntity
100
AcDbLine
  8
Group#1
 62
256
370
-1
  6
ByLayer
 10
5.5656752912728802
 20
1.6940774446218401
 30
0.0
 11
5.6596531305033002
 21
1.5920899965387101
 31
0.0
  0
LINE
  5
EC
100
AcDbEntity
100
AcDbLine
  8
Group#1
 62
256
370
-1
  6
ByLayer
 10
5.5012959631867
 20
1.8169130092930701
 30
0.0
 11
5.5656752912728802
 21
1.6940774446218401
 31
0.0
  0
LINE
  5
ED
100
AcDbEntity
100
AcDbLine
  8
Group#1
 62
256
370
-1
  6
ByLayer
 10
5.4709024910619597
 20
1.95222564981542
 30
0.0
 11
5.5012959631867
 21
1.8169130092930701
 31
0.0
  0
LINE
  5
EE
100
AcDbEntity
100
AcDbLine
  8
Group#1
 62
256
370
-1
  6
ByLayer
 10
5.4765661397963701
 20
2.0907940333520099
 30
0.0
 11
5.4709024910619597
 21
1.95222564981542
 31
0.0
  0
LINE
  5
EF
100
AcDbEntity
100
AcDbLine
  8
Group#1
 62
256
370
-1
  6
ByLayer
 10
5.5179009410882998
 20
2.2231749535598802
 30
0.0
 11
5.4765661397963701
 21
2.0907940333520099
 31
0.0
  0
LINE
  5
F0
100
AcDbEntity
100
AcDbLine
  8
Group#1
 62
256
370
-1
  6
ByLayer
 10
5.5920899965387099
 20
2.3403468694966998
 30
0.0
 11
5.5179009410882998
 21
2.2231749535598802
 31
0.0
  0
LINE
  5
F1
100
AcDbEntity
100
AcDbLine
  8
Group#1
 62
256
370
-1
  6
ByLayer
 10
5.6940774446218398
 20
2.4343247087271198
 30
0.0
 11
5.5920899965387099
 21
2.3403468694966998
 31
0.0
  0
LINE
  5
F2
100
AcDbEntity
100
AcDbLine
  8
Group#1
 62
256
370
-1
  6
ByLayer
 10
5.8169130092930699
 20
2.4987040368133
 30
0.0
 11
5.6940774446218398
 21
2.4343247087271198
 31
0.0
  0
LINE
  5
F3
100
AcDbEntity
100
AcDbLine
  8
Group#1
 62
256
370
-1
  6
ByLayer
 10
5.9522256498154196
 20
2.5290975089380399
 30
0.0
 11
5.8169130092930699
 21
2.4987040368133
 31
0.0
  0
LINE
  5
F4
100
AcDbEntity
100
AcDbLine
  8
Group#1
 62
256
370
-1
  6
ByLayer
 10
6.0907940333520099
 20
2.5234338602036299
 30
0.0
 11
5.9522256498154196
 21
2.5290975089380399
 31
0.0
  0
LINE
  5
F5
100
AcDbEntity
100
AcDbLine
  8
Group#1
 62
256
370
-1
  6
ByLayer
 10
6.2231749535598802
 20
2.4820990589116998
 30
0.0
 11
6.0907940333520099
 21
2.5234338602036299
 31
0.0
  0
LINE
  5
F6
100
AcDbEntity
100
AcDbLine
  8
Group#1
 62
256
370
-1
  6
ByLayer
 10
6.3403468694966998
 20
2.4079100034612901
 30
0.0
 11
6.2231749535598802
 21
2.4820990589116998
 31
0.0
  0
LINE
  5
F7
100
AcDbEntity
100
AcDbLine
  8
Group#1
 62
256
370
-1
  6
ByLayer
 10
6.4343247087271198
 20
2.3059225553781602
 30
0.0
 11
6.3403468694966998
 21
2.4079100034612901
 31
0.0
  0
LINE
  5
F8
100
AcDbEntity
100
AcDbLine
  8
Group#1
 62
256
370
-1
  6
ByLayer
 10
2.0513692697966102
 20
6.5287605891332703
 30
0.0
 11
1.91276559360684
 21
6.5240388543240204
 31
0.0
  0
LINE
  5
F9
100
AcDbEntity
100
AcDbLine
  8
Group#1
 62
256
370
-1
  6
ByLayer
 10
2.1864722151414799
 20
6.4974481636112804
 30
0.0
 11
2.0513692697966102
 21
6.5287605891332703
 31
0.0
  0
LINE
  5
FA
100
AcDbEntity
100
AcDbLine
  8
Group#1
 62
256
370
-1
  6
ByLayer
 10
2.3088673871843599
 20
6.4322354678111298
 30
0.0
 11
2.1864722151414799
 21
6.4974481636112804
 31
0.0
  0
LINE
  5
FB
100
AcDbEntity
100
AcDbLine
  8
Group#1
 62
256
370
-1
  6
ByLayer
 10
2.4102137572181102
 20
6.3375666391825396
 30
0.0
 11
2.3088673871843599
 21
6.4322354678111298
 31
0.0
  0
LINE
  5
FC
100
AcDbEntity
100
AcDbLine
  8
Group#1
 62
256
370
-1
  6
ByLayer
 10
2.4836047376077399
 20
6.2198932019489099
 30
0.0
 11
2.4102137572181102
 21
6.3375666391825396
 31
0.0
  0
LINE
  5
FD
100
AcDbEntity
100
AcDbLine
  8
Group#1
 62
256
370
-1
  6
ByLayer
 10
2.52403885432402
 20
6.0872344063931596
 30
0.0
 11
2.4836047376077399
 21
6.2198932019489099
 31
0.0
  0
LINE
  5
FE
100
AcDbEntity
100
AcDbLine
  8
Group#1
 62
256
370
-1
  6
ByLayer
 10
2.5287605891332698
 20
5.9486307302033898
 30
0.0
 11
2.52403885432402
 21
6.0872344063931596
 31
0.0
  0
LINE
  5
FF
100
AcDbEntity
100
AcDbLine
  8
Group#1
 62
256
370
-1
  6
ByLayer
 10
2.49744816361128
 20
5.8135277848585201
 30
0.0
 11
2.5287605891332698
 21
5.9486307302033898
 31
0.0
  0
LINE
  5
100
100
AcDbEntity
100
AcDbLine
  8
Group#1
 62
256
370
-1
  6
ByLayer
 10
2.4322354678111302
 20
5.6911326128156396
 30
0.0
 11
2.49744816361128
 21
5.8135277848585201
 31
0.0
  0
LINE
  5
101
100
AcDbEntity
100
AcDbLine
  8
Group#1
 62
256
370
-1
  6
ByLayer
 10
2.33756663918254
 20
5.5897862427818898
 30
0.0
 11
2.4322354678111302
 21
5.6911326128156396
 31
0.0
  0
LINE
  5
102
100
AcDbEntity
100
AcDbLine
  8
Group#1
 62
256
370
-1
  6
ByLayer
 10
2.2198932019489099
 20
5.5163952623922601
 30
0.0
 11
2.33756663918254
 21
5.5897862427818898
 31
0.0
  0
LINE
  5
103
100
AcDbEntity
100
AcDbLine
  8
Group#1
 62
256
370
-1
  6
ByLayer
 10
2.08723440639316
 20
5.4759611456759796
 30
0.0
 11
2.2198932019489099
 21
5.5163952623922601
 31
0.0
  0
LINE
  5
104
100
AcDbEntity
100
AcDbLine
  8
Group#1
 62
256
370
-1
  6
ByLayer
 10
1.9486307302033901
 20
5.4712394108667297
 30
0.0
 11
2.08723440639316
 21
5.4759611456759796
 31
0.0
  0
LINE
  5
105
100
AcDbEntity
100
AcDbLine
  8
Group#1
 62
256
370
-1
  6
ByLayer
 10
1.8135277848585201
 20
5.5025518363887196
 30
0.0
 11
1.9486307302033901
 21
5.4712394108667297
 31
0.0
  0
LINE
  5
106
100
AcDbEntity
100
AcDbLine
  8
Group#1
 62
256
370
-1
  6
ByLayer
 10
1.6911326128156401
 20
5.5677645321888702
 30
0.0
 11
1.8135277848585201
 21
5.5025518363887196
 31
0.0
  0
LINE
  5
107
100
AcDbEntity
100
AcDbLine
  8
Group#1
 62
256
370
-1
  6
ByLayer
 10
1.5897862427818901
 20
5.6624333608174604
 30
0.0
 11
1.6911326128156401
 21
5.5677645321888702
 31
0.0
  0
LINE
  5
108
100
AcDbEntity
100
AcDbLine
  8
Group#1
 62
256
370
-1
  6
ByLayer
 10
1.5163952623922601
 20
5.7801067980510901
 30
0.0
 11
1.5369149862709801
 21
5.7472059371131996
 31
0.0
  0
LINE
  5
109
100
AcDbEntity
100
AcDbLine
  8
Group#1
 62
256
370
-1
  6
ByLayer
 10
1.47596114567598
 20
5.9127655936068404
 30
0.0
 11
1.5163952623922601
 21
5.7801067980510901
 31
0.0
  0
LINE
  5
10A
100
AcDbEntity
100
AcDbLine
  8
Group#1
 62
256
370
-1
  6
ByLayer
 10
1.4712394108667299
 20
6.0513692697966102
 30
0.0
 11
1.47596114567598
 21
5.9127655936068404
 31
0.0
  0
LINE
  5
10B
100
AcDbEntity
100
AcDbLine
  8
Group#1
 62
256
370
-1
  6
ByLayer
 10
1.50255183638872
 20
6.1864722151414799
 30
0.0
 11
1.4712394108667299
 21
6.0513692697966102
 31
0.0
  0
LINE
  5
10C
100
AcDbEntity
100
AcDbLine
  8
Group#1
 62
256
370
-1
  6
ByLayer
 10
1.56776453218887
 20
6.3088673871843604
 30
0.0
 11
1.50255183638872
 21
6.1864722151414799
 31
0.0
  0
LINE
  5
10D
100
AcDbEntity
100
AcDbLine
  8
Group#1
 62
256
370
-1
  6
ByLayer
 10
1.63966140267508
 20
6.3858355608284203
 30
0.0
 11
1.56776453218887
 21
6.3088673871843604
 31
0.0
  0
LINE
  5
10E
100
AcDbEntity
100
AcDbLine
  8
Group#1
 62
256
370
-1
  6
ByLayer
 10
1.66243336081746
 20
6.4102137572181102
 30
0.0
 11
1.63966140267508
 21
6.3858355608284203
 31
0.0
  0
LINE
  5
10F
100
AcDbEntity
100
AcDbLine
  8
Group#1
 62
256
370
-1
  6
ByLayer
 10
1.7801067980510901
 20
6.4836047376077399
 30
0.0
 11
1.66243336081746
 21
6.4102137572181102
 31
0.0
  0
LINE
  5
110
100
AcDbEntity
100
AcDbLine
  8
Group#1
 62
256
370
-1
  6
ByLayer
 10
1.91276559360684
 20
6.5240388543240204
 30
0.0
 11
1.7801067980510901
 21
6.4836047376077399
 31
0.0
  0
LINE
  5
111
100
AcDbEntity
100
AcDbLine
  8
Group#1
 62
256
370
-1
  6
ByLayer
 10
5.5713732988405704
 20
6.3138561988445998
 30
0.0
 11
5.5047464378285502
 21
6.1922250547053901
 31
0.0
  0
LINE
  5
112
100
AcDbEntity
100
AcDbLine
  8
Group#1
 62
256
370
-1
  6
ByLayer
 10
5.6520903104395099
 20
6.3982834941589104
 30
0.0
 11
5.5713732988405704
 21
6.3138561988445998
 31
0.0
  0
LINE
  5
113
100
AcDbEntity
100
AcDbLine
  8
Group#1
 62
256
370
-1
  6
ByLayer
 10
5.6672103611974798
 20
6.4140985617044501
 30
0.0
 11
5.6520903104395099
 21
6.3982834941589104
 31
0.0
  0
LINE
  5
114
100
AcDbEntity
100
AcDbLine
  8
Group#1
 62
256
370
-1
  6
ByLayer
 10
5.78572648747791
 20
6.4861207919143604
 30
0.0
 11
5.6672103611974798
 21
6.4140985617044501
 31
0.0
  0
LINE
  5
115
100
AcDbEntity
100
AcDbLine
  8
Group#1
 62
256
370
-1
  6
ByLayer
 10
5.9188449995330004
 20
6.5250146935079103
 30
0.0
 11
5.78572648747791
 21
6.4861207919143604
 31
0.0
  0
LINE
  5
116
100
AcDbEntity
100
AcDbLine
  8
Group#1
 62
256
370
-1
  6
ByLayer
 10
6.0574940907549299
 20
6.5281297113666898
 30
0.0
 11
5.9188449995330004
 21
6.5250146935079103
 31
0.0
  0
LINE
  5
117
100
AcDbEntity
100
AcDbLine
  8
Group#1
 62
256
370
-1
  6
ByLayer
 10
6.1922250547053901
 20
6.4952535621714498
 30
0.0
 11
6.0574940907549299
 21
6.5281297113666898
 31
0.0
  0
LINE
  5
118
100
AcDbEntity
100
AcDbLine
  8
Group#1
 62
256
370
-1
  6
ByLayer
 10
6.3138561988445998
 20
6.4286267011594296
 30
0.0
 11
6.1922250547053901
 21
6.4952535621714498
 31
0.0
  0
LINE
  5
119
100
AcDbEntity
100
AcDbLine
  8
Group#1
 62
256
370
-1
  6
ByLayer
 10
6.4140985617044501
 20
6.3327896388025202
 30
0.0
 11
6.3138561988445998
 21
6.4286267011594296
 31
0.0
  0
LINE
  5
11A
100
AcDbEntity
100
AcDbLine
  8
Group#1
 62
256
370
-1
  6
ByLayer
 10
6.4861207919143604
 20
6.21427351252209
 30
0.0
 11
6.4140985617044501
 21
6.3327896388025202
 31
0.0
  0
LINE
  5
11B
100
AcDbEntity
100
AcDbLine
  8
Group#1
 62
256
370
-1
  6
ByLayer
 10
6.5250146935079103
 20
6.0811550004669996
 30
0.0
 11
6.4861207919143604
 21
6.21427351252209
 31
0.0
  0
LINE
  5
11C
100
AcDbEntity
100
AcDbLine
  8
Group#1
 62
256
370
-1
  6
ByLayer
 10
6.5281297113666898
 20
5.9425059092450701
 30
0.0
 11
6.5250146935079103
 21
6.0811550004669996
 31
0.0
  0
LINE
  5
11D
100
AcDbEntity
100
AcDbLine
  8
Group#1
 62
256
370
-1
  6
ByLayer
 10
6.4952535621714498
 20
5.8077749452946099
 30
0.0
 11
6.5281297113666898
 21
5.9425059092450701
 31
0.0
  0
LINE
  5
11E
100
AcDbEntity
100
AcDbLine
  8
Group#1
 62
256
370
-1
  6
ByLayer
 10
6.4286267011594296
 20
5.6861438011554002
 30
0.0
 11
6.4952535621714498
 21
5.8077749452946099
 31
0.0
  0
LINE
  5
11F
100
AcDbEntity
100
AcDbLine
  8
Group#1
 62
256
370
-1
  6
ByLayer
 10
6.3327896388025202
 20
5.5859014382955499
 30
0.0
 11
6.4286267011594296
 21
5.6861438011554002
 31
0.0
  0
LINE
  5
120
100
AcDbEntity
100
AcDbLine
  8
Group#1
 62
256
370
-1
  6
ByLayer
 10
6.21427351252209
 20
5.5138792080856396
 30
0.0
 11
6.3327896388025202
 21
5.5859014382955499
 31
0.0
  0
LINE
  5
121
100
AcDbEntity
100
AcDbLine
  8
Group#1
 62
256
370
-1
  6
ByLayer
 10
6.0811550004669996
 20
5.4749853064920897
 30
0.0
 11
6.21427351252209
 21
5.5138792080856396
 31
0.0
  0
LINE
  5
122
100
AcDbEntity
100
AcDbLine
  8
Group#1
 62
256
370
-1
  6
ByLayer
 10
5.9425059092450701
 20
5.4718702886333102
 30
0.0
 11
6.0811550004669996
 21
5.4749853064920897
 31
0.0
  0
LINE
  5
123
100
AcDbEntity
100
AcDbLine
  8
Group#1
 62
256
370
-1
  6
ByLayer
 10
5.8077749452946099
 20
5.5047464378285502
 30
0.0
 11
5.9425059092450701
 21
5.4718702886333102
 31
0.0
  0
LINE
  5
124
100
AcDbEntity
100
AcDbLine
  8
Group#1
 62
256
370
-1
  6
ByLayer
 10
5.6861438011554002
 20
5.5713732988405704
 30
0.0
 11
5.8077749452946099
 21
5.5047464378285502
 31
0.0
  0
LINE
  5
125
100
AcDbEntity
100
AcDbLine
  8
Group#1
 62
256
370
-1
  6
ByLayer
 10
5.5859014382955499
 20
5.6672103611974798
 30
0.0
 11
5.6861438011554002
 21
5.5713732988405704
 31
0.0
  0
LINE
  5
126
100
AcDbEntity
100
AcDbLine
  8
Group#1
 62
256
370
-1
  6
ByLayer
 10
5.5138792080856396
 20
5.78572648747791
 30
0.0
 11
5.5859014382955499
 21
5.6672103611974798
 31
0.0
  0
LINE
  5
127
100
AcDbEntity
100
AcDbLine
  8
Group#1
 62
256
370
-1
  6
ByLayer
 10
5.4749853064920897
 20
5.9188449995330004
 30
0.0
 11
5.5138792080856396
 21
5.78572648747791
 31
0.0
  0
LINE
  5
128
100
AcDbEntity
100
AcDbLine
  8
Group#1
 62
256
370
-1
  6
ByLayer
 10
5.4718702886333102
 20
6.0574940907549299
 30
0.0
 11
5.4749853064920897
 21
5.9188449995330004
 31
0.0
  0
LINE
  5
129
100
AcDbEntity
100
AcDbLine
  8
Group#1
 62
256
370
-1
  6
ByLayer
 10
5.5047464378285502
 20
6.1922250547053901
 30
0.0
 11
5.4718702886333102
 21
6.0574940907549299
 31
0.0
  0
LINE
  5
12A
100
AcDbEntity
100
AcDbLine
  8
Group#1
 62
256
370
-1
  6
ByLayer
 10
2.4098474421993101
 20
2.3380112965903401
 30
0.0
 11
2.30839846824145
 21
2.4325701645817999
 31
0.0
  0
LINE
  5
12B
100
AcDbEntity
100
AcDbLine
  8
Group#1
 62
256
370
-1
  6
ByLayer
 10
2.48336599027621
 20
2.2204175173263301
 30
0.0
 11
2.4098474421993101
 21
2.3380112965903401
 31
0.0
  0
LINE
  5
12C
100
AcDbEntity
100
AcDbLine
  8
Group#1
 62
256
370
-1
  6
ByLayer
 10
2.5239439449158501
 20
2.0878026485137
 30
0.0
 11
2.48336599027621
 21
2.2204175173263301
 31
0.0
  0
LINE
  5
12D
100
AcDbEntity
100
AcDbLine
  8
Group#1
 62
256
370
-1
  6
ByLayer
 10
2.5288159855677801
 20
1.9492041743055999
 30
0.0
 11
2.5239439449158501
 21
2.0878026485137
 31
0.0
  0
LINE
  5
12E
100
AcDbEntity
100
AcDbLine
  8
Group#1
 62
256
370
-1
  6
ByLayer
 10
2.4976500907130101
 20
1.8140673516745001
 30
0.0
 11
2.5288159855677801
 21
1.9492041743055999
 31
0.0
  0
LINE
  5
12F
100
AcDbEntity
100
AcDbLine
  8
Group#1
 62
256
370
-1
  6
ByLayer
 10
2.4325701645817999
 20
1.69160153175855
 30
0.0
 11
2.4976500907130101
 21
1.8140673516745001
 31
0.0
  0
LINE
  5
130
100
AcDbEntity
100
AcDbLine
  8
Group#1
 62
256
370
-1
  6
ByLayer
 10
2.3380112965903401
 20
1.5901525578006901
 30
0.0
 11
2.4325701645817999
 21
1.69160153175855
 31
0.0
  0
LINE
  5
131
100
AcDbEntity
100
AcDbLine
  8
Group#1
 62
256
370
-1
  6
ByLayer
 10
2.2204175173263301
 20
1.51663400972379
 30
0.0
 11
2.3380112965903401
 21
1.5901525578006901
 31
0.0
  0
LINE
  5
132
100
AcDbEntity
100
AcDbLine
  8
Group#1
 62
256
370
-1
  6
ByLayer
 10
1.4711840144322199
 20
2.0507958256943999
 30
0.0
 11
1.4760560550841499
 21
1.9121973514863
 31
0.0
  0
LINE
  5
133
100
AcDbEntity
100
AcDbLine
  8
Group#1
 62
256
370
-1
  6
ByLayer
 10
1.5023499092869901
 20
2.1859326483255002
 30
0.0
 11
1.4711840144322199
 21
2.0507958256943999
 31
0.0
  0
LINE
  5
134
100
AcDbEntity
100
AcDbLine
  8
Group#1
 62
256
370
-1
  6
ByLayer
 10
1.5674298354181999
 20
2.30839846824145
 30
0.0
 11
1.5023499092869901
 21
2.1859326483255002
 31
0.0
  0
LINE
  5
135
100
AcDbEntity
100
AcDbLine
  8
Group#1
 62
256
370
-1
  6
ByLayer
 10
1.6619887034096601
 20
2.4098474421993101
 30
0.0
 11
1.5674298354181999
 21
2.30839846824145
 31
0.0
  0
LINE
  5
136
100
AcDbEntity
100
AcDbLine
  8
Group#1
 62
256
370
-1
  6
ByLayer
 10
1.7795824826736699
 20
2.48336599027621
 30
0.0
 11
1.6619887034096601
 21
2.4098474421993101
 31
0.0
  0
LINE
  5
137
100
AcDbEntity
100
AcDbLine
  8
Group#1
 62
256
370
-1
  6
ByLayer
 10
1.9121973514863
 20
2.5239439449158501
 30
0.0
 11
1.7795824826736699
 21
2.48336599027621
 31
0.0
  0
LINE
  5
138
100
AcDbEntity
100
AcDbLine
  8
Group#1
 62
256
370
-1
  6
ByLayer
 10
2.0507958256943999
 20
2.5288159855677801
 30
0.0
 11
1.9121973514863
 21
2.5239439449158501
 31
0.0
  0
LINE
  5
139
100
AcDbEntity
100
AcDbLine
  8
Group#1
 62
256
370
-1
  6
ByLayer
 10
2.1859326483255002
 20
2.4976500907130101
 30
0.0
 11
2.0507958256943999
 21
2.5288159855677801
 31
0.0
  0
LINE
  5
13A
100
AcDbEntity
100
AcDbLine
  8
Group#1
 62
256
370
-1
  6
ByLayer
 10
2.30839846824145
 20
2.4325701645817999
 30
0.0
 11
2.1859326483255002
 21
2.4976500907130101
 31
0.0
  0
LINE
  5
13B
100
AcDbEntity
100
AcDbLine
  8
Group#1
 62
256
370
-1
  6
ByLayer
 10
6.0396267694013499
 20
10.5297700271314003
 30
0.0
 11
5.9399621434673202
 21
10.5241590930728002
 31
0.0
  0
LINE
  5
13C
100
AcDbEntity
100
AcDbLine
  8
Group#1
 62
256
370
-1
  6
ByLayer
 10
2.5267791882728998
 20
10.0518561359220993
 30
0.0
 11
2.5300663338615101
 21
10.0354435354700993
 31
0.0
  0
LINE
  5
13D
100
AcDbEntity
100
AcDbLine
  8
Group#1
 62
256
370
-1
  6
ByLayer
 10
2.5300663338615101
 20
10.0354435354700993
 30
0.0
 11
2.52117822352862
 21
9.8970445639145392
 31
0.0
  0
LINE
  5
13E
100
AcDbEntity
100
AcDbLine
  8
Group#1
 62
256
370
-1
  6
ByLayer
 10
2.52117822352862
 20
9.8970445639145392
 30
0.0
 11
2.4767726785500002
 21
9.7656618351863003
 31
0.0
  0
LINE
  5
13F
100
AcDbEntity
100
AcDbLine
  8
Group#1
 62
256
370
-1
  6
ByLayer
 10
2.4767726785500002
 20
9.7656618351863003
 30
0.0
 11
2.3998758634323099
 21
9.6502488651279794
 31
0.0
  0
LINE
  5
140
100
AcDbEntity
100
AcDbLine
  8
Group#1
 62
256
370
-1
  6
ByLayer
 10
2.3998758634323099
 20
9.6502488651279794
 30
0.0
 11
2.2957281690478002
 21
9.5586708569201093
 31
0.0
  0
LINE
  5
141
100
AcDbEntity
100
AcDbLine
  8
Group#1
 62
256
370
-1
  6
ByLayer
 10
2.2957281690478002
 20
9.5586708569201093
 30
0.0
 11
2.1714270886565998
 21
9.4971687004822396
 31
0.0
  0
LINE
  5
142
100
AcDbEntity
100
AcDbLine
  8
Group#1
 62
256
370
-1
  6
ByLayer
 10
2.1714270886565998
 20
9.4971687004822396
 30
0.0
 11
2.0354435354701099
 21
9.4699336661384894
 31
0.0
  0
LINE
  5
143
100
AcDbEntity
100
AcDbLine
  8
Group#1
 62
256
370
-1
  6
ByLayer
 10
2.0354435354701099
 20
9.4699336661384894
 30
0.0
 11
1.8970445639145399
 21
9.4788217764713707
 31
0.0
  0
LINE
  5
144
100
AcDbEntity
100
AcDbLine
  8
Group#1
 62
256
370
-1
  6
ByLayer
 10
1.8970445639145399
 20
9.4788217764713707
 30
0.0
 11
1.7656618351863
 21
9.5232273214499994
 31
0.0
  0
LINE
  5
145
100
AcDbEntity
100
AcDbLine
  8
Group#1
 62
256
370
-1
  6
ByLayer
 10
1.7656618351863
 20
9.5232273214499994
 30
0.0
 11
1.6502488651279801
 21
9.6001241365676897
 31
0.0
  0
LINE
  5
146
100
AcDbEntity
100
AcDbLine
  8
Group#1
 62
256
370
-1
  6
ByLayer
 10
1.6502488651279801
 20
9.6001241365676897
 30
0.0
 11
1.55867085692011
 21
9.7042718309521998
 31
0.0
  0
LINE
  5
147
100
AcDbEntity
100
AcDbLine
  8
Group#1
 62
256
370
-1
  6
ByLayer
 10
1.55867085692011
 20
9.7042718309521998
 30
0.0
 11
1.49716870048224
 21
9.8285729113434002
 31
0.0
  0
LINE
  5
148
100
AcDbEntity
100
AcDbLine
  8
Group#1
 62
256
370
-1
  6
ByLayer
 10
1.49716870048224
 20
9.8285729113434002
 30
0.0
 11
1.4699336661384901
 21
9.9645564645298901
 31
0.0
  0
LINE
  5
149
100
AcDbEntity
100
AcDbLine
  8
Group#1
 62
256
370
-1
  6
ByLayer
 10
1.4699336661384901
 20
9.9645564645298901
 30
0.0
 11
1.47882177647137
 21
10.1029554360854998
 31
0.0
  0
LINE
  5
14A
100
AcDbEntity
100
AcDbLine
  8
Group#1
 62
256
370
-1
  6
ByLayer
 10
1.47882177647137
 20
10.1029554360854998
 30
0.0
 11
1.5232273214500001
 21
10.2343381648136997
 31
0.0
  0
LINE
  5
14B
100
AcDbEntity
100
AcDbLine
  8
Group#1
 62
256
370
-1
  6
ByLayer
 10
1.5232273214500001
 20
10.2343381648136997
 30
0.0
 11
1.6001241365676899
 21
10.3497511348719993
 31
0.0
  0
LINE
  5
14C
100
AcDbEntity
100
AcDbLine
  8
Group#1
 62
256
370
-1
  6
ByLayer
 10
1.6001241365676899
 20
10.3497511348719993
 30
0.0
 11
1.7042718309522
 21
10.4413291430798996
 31
0.0
  0
LINE
  5
14D
100
AcDbEntity
100
AcDbLine
  8
Group#1
 62
256
370
-1
  6
ByLayer
 10
1.7042718309522
 20
10.4413291430798996
 30
0.0
 11
1.8285729113433999
 21
10.5028312995177995
 31
0.0
  0
LINE
  5
14E
100
AcDbEntity
100
AcDbLine
  8
Group#1
 62
256
370
-1
  6
ByLayer
 10
1.8285729113433999
 20
10.5028312995177995
 30
0.0
 11
1.9645564645298901
 21
10.5300663338614999
 31
0.0
  0
LINE
  5
14F
100
AcDbEntity
100
AcDbLine
  8
Group#1
 62
256
370
-1
  6
ByLayer
 10
1.9645564645298901
 20
10.5300663338614999
 30
0.0
 11
2.06249661909811
 21
10.5237765262854008
 31
0.0
  0
LINE
  5
150
100
AcDbEntity
100
AcDbLine
  8
Group#1
 62
256
370
-1
  6
ByLayer
 10
7.8637033051562701
 20
13.0352761804101007
 30
0.0
 11
7.4641016151377597
 21
14.0
 31
0.0
  0
LINE
  5
151
100
AcDbEntity
100
AcDbLine
  8
Group#1
 62
256
370
-1
  6
ByLayer
 10
7.4641016151377597
 20
14.0
 30
0.0
 11
6.8284271247461898
 21
14.8284271247462005
 31
0.0
  0
LINE
  5
152
100
AcDbEntity
100
AcDbLine
  8
Group#1
 62
256
370
-1
  6
ByLayer
 10
6.8284271247461898
 20
14.8284271247462005
 30
0.0
 11
6.0
 21
15.4641016151377997
 31
0.0
  0
LINE
  5
153
100
AcDbEntity
100
AcDbLine
  8
Group#1
 62
256
370
-1
  6
ByLayer
 10
6.0
 20
15.4641016151377997
 30
0.0
 11
5.0352761804100901
 21
15.8637033051562995
 31
0.0
  0
LINE
  5
154
100
AcDbEntity
100
AcDbLine
  8
Group#1
 62
256
370
-1
  6
ByLayer
 10
5.0352761804100901
 20
15.8637033051562995
 30
0.0
 11
4.0
 21
16.0
 31
0.0
  0
LINE
  5
155
100
AcDbEntity
100
AcDbLine
  8
Group#1
 62
256
370
-1
  6
ByLayer
 10
4.0
 20
16.0
 30
0.0
 11
2.9647238195899202
 21
15.8637033051562995
 31
0.0
  0
LINE
  5
156
100
AcDbEntity
100
AcDbLine
  8
Group#1
 62
256
370
-1
  6
ByLayer
 10
2.9647238195899202
 20
15.8637033051562995
 30
0.0
 11
2.0
 21
15.4641016151377997
 31
0.0
  0
LINE
  5
157
100
AcDbEntity
100
AcDbLine
  8
Group#1
 62
256
370
-1
  6
ByLayer
 10
2.0
 20
15.4641016151377997
 30
0.0
 11
1.1715728752538099
 21
14.8284271247462005
 31
0.0
  0
LINE
  5
158
100
AcDbEntity
100
AcDbLine
  8
Group#1
 62
256
370
-1
  6
ByLayer
 10
1.1715728752538099
 20
14.8284271247462005
 30
0.0
 11
0.5358983848622459
 21
14.0
 31
0.0
  0
LINE
  5
159
100
AcDbEntity
100
AcDbLine
  8
Group#1
 62
256
370
-1
  6
ByLayer
 10
0.5358983848622459
 20
14.0
 30
0.0
 11
0.136296694843727
 21
13.0352761804101007
 31
0.0
  0
LINE
  5
15A
100
AcDbEntity
100
AcDbLine
  8
Group#1
 62
256
370
-1
  6
ByLayer
 10
0.136296694843727
 20
13.0352761804101007
 30
0.0
 11
0.0
 21
12.0
 31
0.0
  0
LINE
  5
15B
100
AcDbEntity
100
AcDbLine
  8
Group#1
 62
256
370
-1
  6
ByLayer
 10
0.0
 20
12.0
 30
0.0
 11
0.0
 21
0.0
 31
0.0
  0
LINE
  5
15C
100
AcDbEntity
100
AcDbLine
  8
Group#1
 62
256
370
-1
  6
ByLayer
 10
0.0
 20
0.0
 30
0.0
 11
8.0
 21
0.0
 31
0.0
  0
LINE
  5
15D
100
AcDbEntity
100
AcDbLine
  8
Group#1
 62
256
370
-1
  6
ByLayer
 10
6.34759085483884
 20
5.60138301538265
 30
0.0
 11
6.4286267011594296
 21
5.6861438011554002
 31
0.0
  0
LINE
  5
15E
100
AcDbEntity
100
AcDbLine
  8
Group#1
 62
256
370
-1
  6
ByLayer
 10
5.9399621434673202
 20
10.5241590930728002
 30
0.0
 11
6.0396267694013499
 21
10.5297700271314003
 31
0.0
  0
LINE
  5
15F
100
AcDbEntity
100
AcDbLine
  8
Group#1
 62
256
370
-1
  6
ByLayer
 10
2.5267791882728998
 20
10.0518561359220993
 30
0.0
 11
2.5300663338615101
 21
10.0354435354700993
 31
0.0
  0
LINE
  5
160
100
AcDbEntity
100
AcDbLine
  8
Group#1
 62
256
370
-1
  6
ByLayer
 10
1.9645564645298901
 20
10.5300663338614999
 30
0.0
 11
2.06249661909811
 21
10.5237765262854008
 31
0.0
  0
LINE
  5
161
100
AcDbEntity
100
AcDbLine
  8
Group#1
 62
256
370
-1
  6
ByLayer
 10
1.7795824826736699
 20
2.48336599027621
 30
0.0
 11
1.6619887034096601
 21
2.4098474421993101
 31
0.0
  0
LINE
  5
162
100
AcDbEntity
100
AcDbLine
  8
Group#1
 62
256
370
-1
  6
ByLayer
 10
2.30839846824145
 20
2.4325701645817999
 30
0.0
 11
2.1859326483255002
 21
2.4976500907130101
 31
0.0
  0
LINE
  5
163
100
AcDbEntity
100
AcDbLine
  8
Group#1
 62
256
370
-1
  6
ByLayer
 10
2.1859326483255002
 20
2.4976500907130101
 30
0.0
 11
2.0507958256943999
 21
2.5288159855677801
 31
0.0
  0
LINE
  5
164
100
AcDbEntity
100
AcDbLine
  8
Group#1
 62
256
370
-1
  6
ByLayer
 10
2.0507958256943999
 20
2.5288159855677801
 30
0.0
 11
1.9121973514863
 21
2.5239439449158501
 31
0.0
  0
LINE
  5
165
100
AcDbEntity
100
AcDbLine
  8
Group#1
 62
256
370
-1
  6
ByLayer
 10
1.9121973514863
 20
2.5239439449158501
 30
0.0
 11
1.7795824826736699
 21
2.48336599027621
 31
0.0
  0
LINE
  5
166
100
AcDbEntity
100
AcDbLine
  8
Group#1
 62
256
370
-1
  6
ByLayer
 10
1.6619887034096601
 20
2.4098474421993101
 30
0.0
 11
1.5674298354181999
 21
2.30839846824145
 31
0.0
  0
LINE
  5
167
100
AcDbEntity
100
AcDbLine
  8
Group#1
 62
256
370
-1
  6
ByLayer
 10
1.5674298354181999
 20
2.30839846824145
 30
0.0
 11
1.5023499092869901
 21
2.1859326483255002
 31
0.0
  0
LINE
  5
168
100
AcDbEntity
100
AcDbLine
  8
Group#1
 62
256
370
-1
  6
ByLayer
 10
2.4102137572181102
 20
6.3375666391825396
 30
0.0
 11
2.3088673871843599
 21
6.4322354678111298
 31
0.0
  0
LINE
  5
169
100
AcDbEntity
100
AcDbLine
  8
Group#1
 62
256
370
-1
  6
ByLayer
 10
2.4836047376077399
 20
6.2198932019489099
 30
0.0
 11
2.4102137572181102
 21
6.3375666391825396
 31
0.0
  0
LINE
  5
16A
100
AcDbEntity
100
AcDbLine
  8
Group#1
 62
256
370
-1
  6
ByLayer
 10
1.5897862427818901
 20
5.6624333608174604
 30
0.0
 11
1.6911326128156401
 21
5.5677645321888702
 31
0.0
  0
LINE
  5
16B
100
AcDbEntity
100
AcDbLine
  8
Group#1
 62
256
370
-1
  6
ByLayer
 10
1.6911326128156401
 20
5.5677645321888702
 30
0.0
 11
1.8135277848585201
 21
5.5025518363887196
 31
0.0
  0
LINE
  5
16C
100
AcDbEntity
100
AcDbLine
  8
Group#1
 62
256
370
-1
  6
ByLayer
 10
1.8135277848585201
 20
5.5025518363887196
 30
0.0
 11
1.9486307302033901
 21
5.4712394108667297
 31
0.0
  0
LINE
  5
16D
100
AcDbEntity
100
AcDbLine
  8
Group#1
 62
256
370
-1
  6
ByLayer
 10
1.9486307302033901
 20
5.4712394108667297
 30
0.0
 11
2.08723440639316
 21
5.4759611456759796
 31
0.0
  0
LINE
  5
16E
100
AcDbEntity
100
AcDbLine
  8
Group#1
 62
256
370
-1
  6
ByLayer
 10
5.9188449995330004
 20
6.5250146935079103
 30
0.0
 11
5.9188449995330004
 21
6.5250146935079103
 31
0.0
  0
LINE
  5
16F
100
AcDbEntity
100
AcDbLine
  8
Group#1
 62
256
370
-1
  6
ByLayer
 10
6.0574940907549299
 20
6.5281297113666898
 30
0.0
 11
5.9188449995330004
 21
6.5250146935079103
 31
0.0
  0
LINE
  5
170
100
AcDbEntity
100
AcDbLine
  8
Group#1
 62
256
370
-1
  6
ByLayer
 10
6.0574940907549299
 20
6.5281297113666898
 30
0.0
 11
6.0574940907549299
 21
6.5281297113666898
 31
0.0
  0
LINE
  5
171
100
AcDbEntity
100
AcDbLine
  8
Group#1
 62
256
370
-1
  6
ByLayer
 10
1.5369149862709801
 20
5.7472059371131996
 30
0.0
 11
1.5897862427818901
 21
5.6624333608174604
 31
0.0
  0
LINE
  5
172
100
AcDbEntity
100
AcDbLine
  8
Group#1
 62
256
370
-1
  6
ByLayer
 10
1.47596114567598
 20
5.9127655936068404
 30
0.0
 11
1.5163952623922601
 21
5.7801067980510901
 31
0.0
  0
LINE
  5
173
100
AcDbEntity
100
AcDbLine
  8
Group#1
 62
256
370
-1
  6
ByLayer
 10
1.56776453218887
 20
6.3088673871843604
 30
0.0
 11
1.50255183638872
 21
6.1864722151414799
 31
0.0
  0
LINE
  5
174
100
AcDbEntity
100
AcDbLine
  8
Group#1
 62
256
370
-1
  6
ByLayer
 10
1.63966140267508
 20
6.3858355608284203
 30
0.0
 11
1.56776453218887
 21
6.3088673871843604
 31
0.0
  0
LINE
  5
175
100
AcDbEntity
100
AcDbLine
  8
Group#1
 62
256
370
-1
  6
ByLayer
 10
1.66243336081746
 20
6.4102137572181102
 30
0.0
 11
1.63966140267508
 21
6.3858355608284203
 31
0.0
  0
LINE
  5
176
100
AcDbEntity
100
AcDbLine
  8
Group#1
 62
256
370
-1
  6
ByLayer
 10
1.7801067980510901
 20
6.4836047376077399
 30
0.0
 11
1.66243336081746
 21
6.4102137572181102
 31
0.0
  0
LINE
  5
177
100
AcDbEntity
100
AcDbLine
  8
Group#1
 62
256
370
-1
  6
ByLayer
 10
1.91276559360684
 20
6.5240388543240204
 30
0.0
 11
1.7801067980510901
 21
6.4836047376077399
 31
0.0
  0
LINE
  5
178
100
AcDbEntity
100
AcDbLine
  8
Group#1
 62
256
370
-1
  6
ByLayer
 10
2.0513692697966102
 20
6.5287605891332703
 30
0.0
 11
1.91276559360684
 21
6.5240388543240204
 31
0.0
  0
LINE
  5
179
100
AcDbEntity
100
AcDbLine
  8
Group#1
 62
256
370
-1
  6
ByLayer
 10
2.52403885432402
 20
6.0872344063931596
 30
0.0
 11
2.4836047376077399
 21
6.2198932019489099
 31
0.0
  0
LINE
  5
17A
100
AcDbEntity
100
AcDbLine
  8
Group#1
 62
256
370
-1
  6
ByLayer
 10
2.5287605891332698
 20
5.9486307302033898
 30
0.0
 11
2.52403885432402
 21
6.0872344063931596
 31
0.0
  0
LINE
  5
17B
100
AcDbEntity
100
AcDbLine
  8
Group#1
 62
256
370
-1
  6
ByLayer
 10
2.49744816361128
 20
5.8135277848585201
 30
0.0
 11
2.5287605891332698
 21
5.9486307302033898
 31
0.0
  0
LINE
  5
17C
100
AcDbEntity
100
AcDbLine
  8
Group#1
 62
256
370
-1
  6
ByLayer
 10
2.4322354678111302
 20
5.6911326128156396
 30
0.0
 11
2.49744816361128
 21
5.8135277848585201
 31
0.0
  0
LINE
  5
17D
100
AcDbEntity
100
AcDbLine
  8
Group#1
 62
256
370
-1
  6
ByLayer
 10
2.36002066651126
 20
5.6138240828541699
 30
0.0
 11
2.4322354678111302
 21
5.6911326128156396
 31
0.0
  0
LINE
  5
17E
100
AcDbEntity
100
AcDbLine
  8
Group#1
 62
256
370
-1
  6
ByLayer
 10
2.33756663918254
 20
5.5897862427818898
 30
0.0
 11
2.36002066651126
 21
5.6138240828541699
 31
0.0
  0
LINE
  5
17F
100
AcDbEntity
100
AcDbLine
  8
Group#1
 62
256
370
-1
  6
ByLayer
 10
2.2198932019489099
 20
5.5163952623922601
 30
0.0
 11
2.33756663918254
 21
5.5897862427818898
 31
0.0
  0
LINE
  5
180
100
AcDbEntity
100
AcDbLine
  8
Group#1
 62
256
370
-1
  6
ByLayer
 10
2.08723440639316
 20
5.4759611456759796
 30
0.0
 11
2.2198932019489099
 21
5.5163952623922601
 31
0.0
  0
LINE
  5
181
100
AcDbEntity
100
AcDbLine
  8
Group#1
 62
256
370
-1
  6
ByLayer
 10
1.50255183638872
 20
6.1864722151414799
 30
0.0
 11
1.4712394108667299
 21
6.0513692697966102
 31
0.0
  0
LINE
  5
182
100
AcDbEntity
100
AcDbLine
  8
Group#1
 62
256
370
-1
  6
ByLayer
 10
1.4712394108667299
 20
6.0513692697966102
 30
0.0
 11
1.47596114567598
 21
5.9127655936068404
 31
0.0
  0
LINE
  5
183
100
AcDbEntity
100
AcDbLine
  8
Group#1
 62
256
370
-1
  6
ByLayer
 10
2.3088673871843599
 20
6.4322354678111298
 30
0.0
 11
2.1864722151414799
 21
6.4974481636112804
 31
0.0
  0
LINE
  5
184
100
AcDbEntity
100
AcDbLine
  8
Group#1
 62
256
370
-1
  6
ByLayer
 10
2.1864722151414799
 20
6.4974481636112804
 30
0.0
 11
2.0513692697966102
 21
6.5287605891332703
 31
0.0
  0
LINE
  5
185
100
AcDbEntity
100
AcDbLine
  8
Group#1
 62
256
370
-1
  6
ByLayer
 10
6.3327896388025202
 20
5.5859014382955499
 30
0.0
 11
6.3327896388025202
 21
5.5859014382955499
 31
0.0
  0
LINE
  5
186
100
AcDbEntity
100
AcDbLine
  8
Group#1
 62
256
370
-1
  6
ByLayer
 10
6.21427351252209
 20
5.5138792080856396
 30
0.0
 11
6.3327896388025202
 21
5.5859014382955499
 31
0.0
  0
LINE
  5
187
100
AcDbEntity
100
AcDbLine
  8
Group#1
 62
256
370
-1
  6
ByLayer
 10
6.21427351252209
 20
5.5138792080856396
 30
0.0
 11
6.21427351252209
 21
5.5138792080856396
 31
0.0
  0
LINE
  5
188
100
AcDbEntity
100
AcDbLine
  8
Group#1
 62
256
370
-1
  6
ByLayer
 10
6.1922250547053901
 20
6.4952535621714498
 30
0.0
 11
6.0574940907549299
 21
6.5281297113666898
 31
0.0
  0
LINE
  5
189
100
AcDbEntity
100
AcDbLine
  8
Group#1
 62
256
370
-1
  6
ByLayer
 10
6.1922250547053901
 20
6.4952535621714498
 30
0.0
 11
6.1922250547053901
 21
6.4952535621714498
 31
0.0
  0
LINE
  5
18A
100
AcDbEntity
100
AcDbLine
  8
Group#1
 62
256
370
-1
  6
ByLayer
 10
6.3138561988445998
 20
6.4286267011594296
 30
0.0
 11
6.1922250547053901
 21
6.4952535621714498
 31
0.0
  0
LINE
  5
18B
100
AcDbEntity
100
AcDbLine
  8
Group#1
 62
256
370
-1
  6
ByLayer
 10
6.3138561988445998
 20
6.4286267011594296
 30
0.0
 11
6.3138561988445998
 21
6.4286267011594296
 31
0.0
  0
LINE
  5
18C
100
AcDbEntity
100
AcDbLine
  8
Group#1
 62
256
370
-1
  6
ByLayer
 10
6.4140985617044501
 20
6.3327896388025202
 30
0.0
 11
6.3138561988445998
 21
6.4286267011594296
 31
0.0
  0
LINE
  5
18D
100
AcDbEntity
100
AcDbLine
  8
Group#1
 62
256
370
-1
  6
ByLayer
 10
6.4140985617044501
 20
6.3327896388025202
 30
0.0
 11
6.4140985617044501
 21
6.3327896388025202
 31
0.0
  0
LINE
  5
18E
100
AcDbEntity
100
AcDbLine
  8
Group#1
 62
256
370
-1
  6
ByLayer
 10
6.4861207919143604
 20
6.21427351252209
 30
0.0
 11
6.4140985617044501
 21
6.3327896388025202
 31
0.0
  0
LINE
  5
18F
100
AcDbEntity
100
AcDbLine
  8
Group#1
 62
256
370
-1
  6
ByLayer
 10
6.4861207919143604
 20
6.21427351252209
 30
0.0
 11
6.4861207919143604
 21
6.21427351252209
 31
0.0
  0
LINE
  5
190
100
AcDbEntity
100
AcDbLine
  8
Group#1
 62
256
370
-1
  6
ByLayer
 10
6.5250146935079103
 20
6.0811550004669996
 30
0.0
 11
6.4861207919143604
 21
6.21427351252209
 31
0.0
  0
LINE
  5
191
100
AcDbEntity
100
AcDbLine
  8
Group#1
 62
256
370
-1
  6
ByLayer
 10
6.5250146935079103
 20
6.0811550004669996
 30
0.0
 11
6.5250146935079103
 21
6.0811550004669996
 31
0.0
  0
LINE
  5
192
100
AcDbEntity
100
AcDbLine
  8
Group#1
 62
256
370
-1
  6
ByLayer
 10
6.5281297113666898
 20
5.9425059092450701
 30
0.0
 11
6.5250146935079103
 21
6.0811550004669996
 31
0.0
  0
LINE
  5
193
100
AcDbEntity
100
AcDbLine
  8
Group#1
 62
256
370
-1
  6
ByLayer
 10
6.5281297113666898
 20
5.9425059092450701
 30
0.0
 11
6.5281297113666898
 21
5.9425059092450701
 31
0.0
  0
LINE
  5
194
100
AcDbEntity
100
AcDbLine
  8
Group#1
 62
256
370
-1
  6
ByLayer
 10
6.4952535621714498
 20
5.8077749452946099
 30
0.0
 11
6.5281297113666898
 21
5.9425059092450701
 31
0.0
  0
LINE
  5
195
100
AcDbEntity
100
AcDbLine
  8
Group#1
 62
256
370
-1
  6
ByLayer
 10
6.4952535621714498
 20
5.8077749452946099
 30
0.0
 11
6.4952535621714498
 21
5.8077749452946099
 31
0.0
  0
LINE
  5
196
100
AcDbEntity
100
AcDbLine
  8
Group#1
 62
256
370
-1
  6
ByLayer
 10
6.4286267011594296
 20
5.6861438011554002
 30
0.0
 11
6.4952535621714498
 21
5.8077749452946099
 31
0.0
  0
LINE
  5
197
100
AcDbEntity
100
AcDbLine
  8
Group#1
 62
256
370
-1
  6
ByLayer
 10
6.4286267011594296
 20
5.6861438011554002
 30
0.0
 11
6.4286267011594296
 21
5.6861438011554002
 31
0.0
  0
LINE
  5
198
100
AcDbEntity
100
AcDbLine
  8
Group#1
 62
256
370
-1
  6
ByLayer
 10
6.3327896388025202
 20
5.5859014382955499
 30
0.0
 11
6.34759085483884
 21
5.60138301538265
 31
0.0
  0
LINE
  5
199
100
AcDbEntity
100
AcDbLine
  8
Group#1
 62
256
370
-1
  6
ByLayer
 10
5.5859014382955499
 20
5.6672103611974798
 30
0.0
 11
5.5859014382955499
 21
5.6672103611974798
 31
0.0
  0
LINE
  5
19A
100
AcDbEntity
100
AcDbLine
  8
Group#1
 62
256
370
-1
  6
ByLayer
 10
5.5138792080856396
 20
5.78572648747791
 30
0.0
 11
5.5859014382955499
 21
5.6672103611974798
 31
0.0
  0
LINE
  5
19B
100
AcDbEntity
100
AcDbLine
  8
Group#1
 62
256
370
-1
  6
ByLayer
 10
5.5138792080856396
 20
5.78572648747791
 30
0.0
 11
5.5138792080856396
 21
5.78572648747791
 31
0.0
  0
LINE
  5
19C
100
AcDbEntity
100
AcDbLine
  8
Group#1
 62
256
370
-1
  6
ByLayer
 10
5.6861438011554002
 20
5.5713732988405704
 30
0.0
 11
5.6861438011554002
 21
5.5713732988405704
 31
0.0
  0
LINE
  5
19D
100
AcDbEntity
100
AcDbLine
  8
Group#1
 62
256
370
-1
  6
ByLayer
 10
5.5859014382955499
 20
5.6672103611974798
 30
0.0
 11
5.6861438011554002
 21
5.5713732988405704
 31
0.0
  0
LINE
  5
19E
100
AcDbEntity
100
AcDbLine
  8
Group#1
 62
256
370
-1
  6
ByLayer
 10
5.4749853064920897
 20
5.9188449995330004
 30
0.0
 11
5.4749853064920897
 21
5.9188449995330004
 31
0.0
  0
LINE
  5
19F
100
AcDbEntity
100
AcDbLine
  8
Group#1
 62
256
370
-1
  6
ByLayer
 10
5.4718702886333102
 20
6.0574940907549299
 30
0.0
 11
5.4749853064920897
 21
5.9188449995330004
 31
0.0
  0
LINE
  5
1A0
100
AcDbEntity
100
AcDbLine
  8
Group#1
 62
256
370
-1
  6
ByLayer
 10
5.4718702886333102
 20
6.0574940907549299
 30
0.0
 11
5.4718702886333102
 21
6.0574940907549299
 31
0.0
  0
LINE
  5
1A1
100
AcDbEntity
100
AcDbLine
  8
Group#1
 62
256
370
-1
  6
ByLayer
 10
5.4749853064920897
 20
5.9188449995330004
 30
0.0
 11
5.5138792080856396
 21
5.78572648747791
 31
0.0
  0
LINE
  5
1A2
100
AcDbEntity
100
AcDbLine
  8
Group#1
 62
256
370
-1
  6
ByLayer
 10
6.0974562874229497
 20
5.4797481350493298
 30
0.0
 11
6.21427351252209
 21
5.5138792080856396
 31
0.0
  0
LINE
  5
1A3
100
AcDbEntity
100
AcDbLine
  8
Group#1
 62
256
370
-1
  6
ByLayer
 10
6.0811550004669996
 20
5.4749853064920897
 30
0.0
 11
6.0974562874229497
 21
5.4797481350493298
 31
0.0
  0
LINE
  5
1A4
100
AcDbEntity
100
AcDbLine
  8
Group#1
 62
256
370
-1
  6
ByLayer
 10
6.0811550004669996
 20
5.4749853064920897
 30
0.0
 11
6.0811550004669996
 21
5.4749853064920897
 31
0.0
  0
LINE
  5
1A5
100
AcDbEntity
100
AcDbLine
  8
Group#1
 62
256
370
-1
  6
ByLayer
 10
5.9425059092450701
 20
5.4718702886333102
 30
0.0
 11
6.0811550004669996
 21
5.4749853064920897
 31
0.0
  0
LINE
  5
1A6
100
AcDbEntity
100
AcDbLine
  8
Group#1
 62
256
370
-1
  6
ByLayer
 10
5.9425059092450701
 20
5.4718702886333102
 30
0.0
 11
5.9425059092450701
 21
5.4718702886333102
 31
0.0
  0
LINE
  5
1A7
100
AcDbEntity
100
AcDbLine
  8
Group#1
 62
256
370
-1
  6
ByLayer
 10
5.5047464378285502
 20
6.1922250547053901
 30
0.0
 11
5.4718702886333102
 21
6.0574940907549299
 31
0.0
  0
LINE
  5
1A8
100
AcDbEntity
100
AcDbLine
  8
Group#1
 62
256
370
-1
  6
ByLayer
 10
5.5047464378285502
 20
6.1922250547053901
 30
0.0
 11
5.5047464378285502
 21
6.1922250547053901
 31
0.0
  0
LINE
  5
1A9
100
AcDbEntity
100
AcDbLine
  8
Group#1
 62
256
370
-1
  6
ByLayer
 10
5.5713732988405704
 20
6.3138561988445998
 30
0.0
 11
5.5047464378285502
 21
6.1922250547053901
 31
0.0
  0
LINE
  5
1AA
100
AcDbEntity
100
AcDbLine
  8
Group#1
 62
256
370
-1
  6
ByLayer
 10
5.5713732988405704
 20
6.3138561988445998
 30
0.0
 11
5.5713732988405704
 21
6.3138561988445998
 31
0.0
  0
LINE
  5
1AB
100
AcDbEntity
100
AcDbLine
  8
Group#1
 62
256
370
-1
  6
ByLayer
 10
5.8077749452946099
 20
5.5047464378285502
 30
0.0
 11
5.8077749452946099
 21
5.5047464378285502
 31
0.0
  0
LINE
  5
1AC
100
AcDbEntity
100
AcDbLine
  8
Group#1
 62
256
370
-1
  6
ByLayer
 10
5.6861438011554002
 20
5.5713732988405704
 30
0.0
 11
5.8077749452946099
 21
5.5047464378285502
 31
0.0
  0
LINE
  5
1AD
100
AcDbEntity
100
AcDbLine
  8
Group#1
 62
256
370
-1
  6
ByLayer
 10
5.8077749452946099
 20
5.5047464378285502
 30
0.0
 11
5.9425059092450701
 21
5.4718702886333102
 31
0.0
  0
LINE
  5
1AE
100
AcDbEntity
100
AcDbLine
  8
Group#1
 62
256
370
-1
  6
ByLayer
 10
5.78572648747791
 20
6.4861207919143604
 30
0.0
 11
5.78572648747791
 21
6.4861207919143604
 31
0.0
  0
LINE
  5
1AF
100
AcDbEntity
100
AcDbLine
  8
Group#1
 62
256
370
-1
  6
ByLayer
 10
5.9188449995330004
 20
6.5250146935079103
 30
0.0
 11
5.78572648747791
 21
6.4861207919143604
 31
0.0
  0
LINE
  5
1B0
100
AcDbEntity
100
AcDbLine
  8
Group#1
 62
256
370
-1
  6
ByLayer
 10
5.6672103611974798
 20
6.4140985617044501
 30
0.0
 11
5.6672103611974798
 21
6.4140985617044501
 31
0.0
  0
LINE
  5
1B1
100
AcDbEntity
100
AcDbLine
  8
Group#1
 62
256
370
-1
  6
ByLayer
 10
5.78572648747791
 20
6.4861207919143604
 30
0.0
 11
5.6672103611974798
 21
6.4140985617044501
 31
0.0
  0
LINE
  5
1B2
100
AcDbEntity
100
AcDbLine
  8
Group#1
 62
256
370
-1
  6
ByLayer
 10
5.6520903104395099
 20
6.3982834941589104
 30
0.0
 11
5.6520903104395099
 21
6.3982834941589104
 31
0.0
  0
LINE
  5
1B3
100
AcDbEntity
100
AcDbLine
  8
Group#1
 62
256
370
-1
  6
ByLayer
 10
5.6672103611974798
 20
6.4140985617044501
 30
0.0
 11
5.6520903104395099
 21
6.3982834941589104
 31
0.0
  0
LINE
  5
1B4
100
AcDbEntity
100
AcDbLine
  8
Group#1
 62
256
370
-1
  6
ByLayer
 10
5.6520903104395099
 20
6.3982834941589104
 30
0.0
 11
5.5713732988405704
 21
6.3138561988445998
 31
0.0
  0
LINE
  5
1B5
100
AcDbEntity
100
AcDbLine
  8
Group#1
 62
256
370
-1
  6
ByLayer
 10
1.7795824826736699
 20
2.48336599027621
 30
0.0
 11
1.7795824826736699
 21
2.48336599027621
 31
0.0
  0
LINE
  5
1B6
100
AcDbEntity
100
AcDbLine
  8
Group#1
 62
256
370
-1
  6
ByLayer
 10
1.9121973514863
 20
2.5239439449158501
 30
0.0
 11
1.9121973514863
 21
2.5239439449158501
 31
0.0
  0
LINE
  5
1B7
100
AcDbEntity
100
AcDbLine
  8
Group#1
 62
256
370
-1
  6
ByLayer
 10
1.49716870048224
 20
9.8285729113434002
 30
0.0
 11
1.49716870048224
 21
9.8285729113434002
 31
0.0
  0
LINE
  5
1B8
100
AcDbEntity
100
AcDbLine
  8
Group#1
 62
256
370
-1
  6
ByLayer
 10
1.49716870048224
 20
9.8285729113434002
 30
0.0
 11
1.4699336661384901
 21
9.9645564645298901
 31
0.0
  0
LINE
  5
1B9
100
AcDbEntity
100
AcDbLine
  8
Group#1
 62
256
370
-1
  6
ByLayer
 10
1.4699336661384901
 20
9.9645564645298901
 30
0.0
 11
1.4699336661384901
 21
9.9645564645298901
 31
0.0
  0
LINE
  5
1BA
100
AcDbEntity
100
AcDbLine
  8
Group#1
 62
256
370
-1
  6
ByLayer
 10
2.3998758634323099
 20
9.6502488651279794
 30
0.0
 11
2.3998758634323099
 21
9.6502488651279794
 31
0.0
  0
LINE
  5
1BB
100
AcDbEntity
100
AcDbLine
  8
Group#1
 62
256
370
-1
  6
ByLayer
 10
2.3998758634323099
 20
9.6502488651279794
 30
0.0
 11
2.2957281690478002
 21
9.5586708569201093
 31
0.0
  0
LINE
  5
1BC
100
AcDbEntity
100
AcDbLine
  8
Group#1
 62
256
370
-1
  6
ByLayer
 10
2.2957281690478002
 20
9.5586708569201093
 30
0.0
 11
2.2957281690478002
 21
9.5586708569201093
 31
0.0
  0
LINE
  5
1BD
100
AcDbEntity
100
AcDbLine
  8
Group#1
 62
256
370
-1
  6
ByLayer
 10
2.5288159855677801
 20
1.9492041743055999
 30
0.0
 11
2.5288159855677801
 21
1.9492041743055999
 31
0.0
  0
LINE
  5
1BE
100
AcDbEntity
100
AcDbLine
  8
Group#1
 62
256
370
-1
  6
ByLayer
 10
2.4976500907130101
 20
1.8140673516745001
 30
0.0
 11
2.5288159855677801
 21
1.9492041743055999
 31
0.0
  0
LINE
  5
1BF
100
AcDbEntity
100
AcDbLine
  8
Group#1
 62
256
370
-1
  6
ByLayer
 10
2.4976500907130101
 20
1.8140673516745001
 30
0.0
 11
2.4976500907130101
 21
1.8140673516745001
 31
0.0
  0
LINE
  5
1C0
100
AcDbEntity
100
AcDbLine
  8
Group#1
 62
256
370
-1
  6
ByLayer
 10
2.4325701645817999
 20
1.69160153175855
 30
0.0
 11
2.4325701645817999
 21
1.69160153175855
 31
0.0
  0
LINE
  5
1C1
100
AcDbEntity
100
AcDbLine
  8
Group#1
 62
256
370
-1
  6
ByLayer
 10
2.3380112965903401
 20
1.5901525578006901
 30
0.0
 11
2.4325701645817999
 21
1.69160153175855
 31
0.0
  0
LINE
  5
1C2
100
AcDbEntity
100
AcDbLine
  8
Group#1
 62
256
370
-1
  6
ByLayer
 10
2.3380112965903401
 20
1.5901525578006901
 30
0.0
 11
2.3380112965903401
 21
1.5901525578006901
 31
0.0
  0
LINE
  5
1C3
100
AcDbEntity
100
AcDbLine
  8
Group#1
 62
256
370
-1
  6
ByLayer
 10
2.4325701645817999
 20
1.69160153175855
 30
0.0
 11
2.4976500907130101
 21
1.8140673516745001
 31
0.0
  0
LINE
  5
1C4
100
AcDbEntity
100
AcDbLine
  8
Group#1
 62
256
370
-1
  6
ByLayer
 10
2.5239439449158501
 20
2.0878026485137
 30
0.0
 11
2.5239439449158501
 21
2.0878026485137
 31
0.0
  0
LINE
  5
1C5
100
AcDbEntity
100
AcDbLine
  8
Group#1
 62
256
370
-1
  6
ByLayer
 10
2.5288159855677801
 20
1.9492041743055999
 30
0.0
 11
2.5239439449158501
 21
2.0878026485137
 31
0.0
  0
LINE
  5
1C6
100
AcDbEntity
100
AcDbLine
  8
Group#1
 62
256
370
-1
  6
ByLayer
 10
1.7656618351863
 20
9.5232273214499994
 30
0.0
 11
1.7656618351863
 21
9.5232273214499994
 31
0.0
  0
LINE
  5
1C7
100
AcDbEntity
100
AcDbLine
  8
Group#1
 62
256
370
-1
  6
ByLayer
 10
1.7656618351863
 20
9.5232273214499994
 30
0.0
 11
1.6502488651279801
 21
9.6001241365676897
 31
0.0
  0
LINE
  5
1C8
100
AcDbEntity
100
AcDbLine
  8
Group#1
 62
256
370
-1
  6
ByLayer
 10
1.6502488651279801
 20
9.6001241365676897
 30
0.0
 11
1.6502488651279801
 21
9.6001241365676897
 31
0.0
  0
LINE
  5
1C9
100
AcDbEntity
100
AcDbLine
  8
Group#1
 62
256
370
-1
  6
ByLayer
 10
1.7042718309522
 20
10.4413291430798996
 30
0.0
 11
1.7042718309522
 21
10.4413291430798996
 31
0.0
  0
LINE
  5
1CA
100
AcDbEntity
100
AcDbLine
  8
Group#1
 62
256
370
-1
  6
ByLayer
 10
1.7042718309522
 20
10.4413291430798996
 30
0.0
 11
1.8285729113433999
 21
10.5028312995177995
 31
0.0
  0
LINE
  5
1CB
100
AcDbEntity
100
AcDbLine
  8
Group#1
 62
256
370
-1
  6
ByLayer
 10
1.8285729113433999
 20
10.5028312995177995
 30
0.0
 11
1.8285729113433999
 21
10.5028312995177995
 31
0.0
  0
LINE
  5
1CC
100
AcDbEntity
100
AcDbLine
  8
Group#1
 62
256
370
-1
  6
ByLayer
 10
1.5232273214500001
 20
10.2343381648136997
 30
0.0
 11
1.5232273214500001
 21
10.2343381648136997
 31
0.0
  0
LINE
  5
1CD
100
AcDbEntity
100
AcDbLine
  8
Group#1
 62
256
370
-1
  6
ByLayer
 10
1.5232273214500001
 20
10.2343381648136997
 30
0.0
 11
1.6001241365676899
 21
10.3497511348719993
 31
0.0
  0
LINE
  5
1CE
100
AcDbEntity
100
AcDbLine
  8
Group#1
 62
256
370
-1
  6
ByLayer
 10
1.6001241365676899
 20
10.3497511348719993
 30
0.0
 11
1.6001241365676899
 21
10.3497511348719993
 31
0.0
  0
LINE
  5
1CF
100
AcDbEntity
100
AcDbLine
  8
Group#1
 62
256
370
-1
  6
ByLayer
 10
2.5300663338615101
 20
10.0354435354700993
 30
0.0
 11
2.5300663338615101
 21
10.0354435354700993
 31
0.0
  0
LINE
  5
1D0
100
AcDbEntity
100
AcDbLine
  8
Group#1
 62
256
370
-1
  6
ByLayer
 10
5.4765661397963701
 20
2.0907940333520099
 30
0.0
 11
5.4765661397963701
 21
2.0907940333520099
 31
0.0
  0
LINE
  5
1D1
100
AcDbEntity
100
AcDbLine
  8
Group#1
 62
256
370
-1
  6
ByLayer
 10
5.5179009410882998
 20
2.2231749535598802
 30
0.0
 11
5.4765661397963701
 21
2.0907940333520099
 31
0.0
  0
LINE
  5
1D2
100
AcDbEntity
100
AcDbLine
  8
Group#1
 62
256
370
-1
  6
ByLayer
 10
5.5179009410882998
 20
2.2231749535598802
 30
0.0
 11
5.5179009410882998
 21
2.2231749535598802
 31
0.0
  0
LINE
  5
1D3
100
AcDbEntity
100
AcDbLine
  8
Group#1
 62
256
370
-1
  6
ByLayer
 10
1.55867085692011
 20
9.7042718309521998
 30
0.0
 11
1.55867085692011
 21
9.7042718309521998
 31
0.0
  0
LINE
  5
1D4
100
AcDbEntity
100
AcDbLine
  8
Group#1
 62
256
370
-1
  6
ByLayer
 10
1.55867085692011
 20
9.7042718309521998
 30
0.0
 11
1.49716870048224
 21
9.8285729113434002
 31
0.0
  0
LINE
  5
1D5
100
AcDbEntity
100
AcDbLine
  8
Group#1
 62
256
370
-1
  6
ByLayer
 10
1.5674298354181999
 20
2.30839846824145
 30
0.0
 11
1.5674298354181999
 21
2.30839846824145
 31
0.0
  0
LINE
  5
1D6
100
AcDbEntity
100
AcDbLine
  8
Group#1
 62
256
370
-1
  6
ByLayer
 10
1.6619887034096601
 20
2.4098474421993101
 30
0.0
 11
1.6619887034096601
 21
2.4098474421993101
 31
0.0
  0
LINE
  5
1D7
100
AcDbEntity
100
AcDbLine
  8
Group#1
 62
256
370
-1
  6
ByLayer
 10
5.5920899965387099
 20
2.3403468694966998
 30
0.0
 11
5.5920899965387099
 21
2.3403468694966998
 31
0.0
  0
LINE
  5
1D8
100
AcDbEntity
100
AcDbLine
  8
Group#1
 62
256
370
-1
  6
ByLayer
 10
5.6940774446218398
 20
2.4343247087271198
 30
0.0
 11
5.5920899965387099
 21
2.3403468694966998
 31
0.0
  0
LINE
  5
1D9
100
AcDbEntity
100
AcDbLine
  8
Group#1
 62
256
370
-1
  6
ByLayer
 10
5.6940774446218398
 20
2.4343247087271198
 30
0.0
 11
5.6940774446218398
 21
2.4343247087271198
 31
0.0
  0
LINE
  5
1DA
100
AcDbEntity
100
AcDbLine
  8
Group#1
 62
256
370
-1
  6
ByLayer
 10
1.4699336661384901
 20
9.9645564645298901
 30
0.0
 11
1.47882177647137
 21
10.1029554360854998
 31
0.0
  0
LINE
  5
1DB
100
AcDbEntity
100
AcDbLine
  8
Group#1
 62
256
370
-1
  6
ByLayer
 10
1.47882177647137
 20
10.1029554360854998
 30
0.0
 11
1.47882177647137
 21
10.1029554360854998
 31
0.0
  0
LINE
  5
1DC
100
AcDbEntity
100
AcDbLine
  8
Group#1
 62
256
370
-1
  6
ByLayer
 10
1.6502488651279801
 20
9.6001241365676897
 30
0.0
 11
1.55867085692011
 21
9.7042718309521998
 31
0.0
  0
LINE
  5
1DD
100
AcDbEntity
100
AcDbLine
  8
Group#1
 62
256
370
-1
  6
ByLayer
 10
1.9645564645298901
 20
10.5300663338614999
 30
0.0
 11
1.9645564645298901
 21
10.5300663338614999
 31
0.0
  0
LINE
  5
1DE
100
AcDbEntity
100
AcDbLine
  8
Group#1
 62
256
370
-1
  6
ByLayer
 10
1.4711840144322199
 20
2.0507958256943999
 30
0.0
 11
1.4760560550841499
 21
1.9121973514863
 31
0.0
  0
LINE
  5
1DF
100
AcDbEntity
100
AcDbLine
  8
Group#1
 62
256
370
-1
  6
ByLayer
 10
1.4711840144322199
 20
2.0507958256943999
 30
0.0
 11
1.4711840144322199
 21
2.0507958256943999
 31
0.0
  0
LINE
  5
1E0
100
AcDbEntity
100
AcDbLine
  8
Group#1
 62
256
370
-1
  6
ByLayer
 10
2.1714270886565998
 20
9.4971687004822396
 30
0.0
 11
2.1714270886565998
 21
9.4971687004822396
 31
0.0
  0
LINE
  5
1E1
100
AcDbEntity
100
AcDbLine
  8
Group#1
 62
256
370
-1
  6
ByLayer
 10
2.1714270886565998
 20
9.4971687004822396
 30
0.0
 11
2.0354435354701099
 21
9.4699336661384894
 31
0.0
  0
LINE
  5
1E2
100
AcDbEntity
100
AcDbLine
  8
Group#1
 62
256
370
-1
  6
ByLayer
 10
2.0354435354701099
 20
9.4699336661384894
 30
0.0
 11
2.0354435354701099
 21
9.4699336661384894
 31
0.0
  0
LINE
  5
1E3
100
AcDbEntity
100
AcDbLine
  8
Group#1
 62
256
370
-1
  6
ByLayer
 10
1.47882177647137
 20
10.1029554360854998
 30
0.0
 11
1.5232273214500001
 21
10.2343381648136997
 31
0.0
  0
LINE
  5
1E4
100
AcDbEntity
100
AcDbLine
  8
Group#1
 62
256
370
-1
  6
ByLayer
 10
1.6001241365676899
 20
10.3497511348719993
 30
0.0
 11
1.7042718309522
 21
10.4413291430798996
 31
0.0
  0
LINE
  5
1E5
100
AcDbEntity
100
AcDbLine
  8
Group#1
 62
256
370
-1
  6
ByLayer
 10
2.48336599027621
 20
2.2204175173263301
 30
0.0
 11
2.48336599027621
 21
2.2204175173263301
 31
0.0
  0
LINE
  5
1E6
100
AcDbEntity
100
AcDbLine
  8
Group#1
 62
256
370
-1
  6
ByLayer
 10
2.5239439449158501
 20
2.0878026485137
 30
0.0
 11
2.48336599027621
 21
2.2204175173263301
 31
0.0
  0
LINE
  5
1E7
100
AcDbEntity
100
AcDbLine
  8
Group#1
 62
256
370
-1
  6
ByLayer
 10
2.52117822352862
 20
9.8970445639145392
 30
0.0
 11
2.52117822352862
 21
9.8970445639145392
 31
0.0
  0
LINE
  5
1E8
100
AcDbEntity
100
AcDbLine
  8
Group#1
 62
256
370
-1
  6
ByLayer
 10
2.52117822352862
 20
9.8970445639145392
 30
0.0
 11
2.4767726785500002
 21
9.7656618351863003
 31
0.0
  0
LINE
  5
1E9
100
AcDbEntity
100
AcDbLine
  8
Group#1
 62
256
370
-1
  6
ByLayer
 10
2.4767726785500002
 20
9.7656618351863003
 30
0.0
 11
2.4767726785500002
 21
9.7656618351863003
 31
0.0
  0
LINE
  5
1EA
100
AcDbEntity
100
AcDbLine
  8
Group#1
 62
256
370
-1
  6
ByLayer
 10
5.7768250464401198
 20
1.5179009410883
 30
0.0
 11
5.7768250464401198
 21
1.5179009410883
 31
0.0
  0
LINE
  5
1EB
100
AcDbEntity
100
AcDbLine
  8
Group#1
 62
256
370
-1
  6
ByLayer
 10
5.6596531305033002
 20
1.5920899965387101
 30
0.0
 11
5.7768250464401198
 21
1.5179009410883
 31
0.0
  0
LINE
  5
1EC
100
AcDbEntity
100
AcDbLine
  8
Group#1
 62
256
370
-1
  6
ByLayer
 10
5.6596531305033002
 20
1.5920899965387101
 30
0.0
 11
5.6596531305033002
 21
1.5920899965387101
 31
0.0
  0
LINE
  5
1ED
100
AcDbEntity
100
AcDbLine
  8
Group#1
 62
256
370
-1
  6
ByLayer
 10
5.5656752912728802
 20
1.6940774446218401
 30
0.0
 11
5.6596531305033002
 21
1.5920899965387101
 31
0.0
  0
LINE
  5
1EE
100
AcDbEntity
100
AcDbLine
  8
Group#1
 62
256
370
-1
  6
ByLayer
 10
5.5656752912728802
 20
1.6940774446218401
 30
0.0
 11
5.5656752912728802
 21
1.6940774446218401
 31
0.0
  0
LINE
  5
1EF
100
AcDbEntity
100
AcDbLine
  8
Group#1
 62
256
370
-1
  6
ByLayer
 10
5.8169130092930699
 20
2.4987040368133
 30
0.0
 11
5.8169130092930699
 21
2.4987040368133
 31
0.0
  0
LINE
  5
1F0
100
AcDbEntity
100
AcDbLine
  8
Group#1
 62
256
370
-1
  6
ByLayer
 10
5.9522256498154196
 20
2.5290975089380399
 30
0.0
 11
5.8169130092930699
 21
2.4987040368133
 31
0.0
  0
LINE
  5
1F1
100
AcDbEntity
100
AcDbLine
  8
Group#1
 62
256
370
-1
  6
ByLayer
 10
5.9522256498154196
 20
2.5290975089380399
 30
0.0
 11
5.9522256498154196
 21
2.5290975089380399
 31
0.0
  0
LINE
  5
1F2
100
AcDbEntity
100
AcDbLine
  8
Group#1
 62
256
370
-1
  6
ByLayer
 10
2.0507958256943999
 20
2.5288159855677801
 30
0.0
 11
2.0507958256943999
 21
2.5288159855677801
 31
0.0
  0
LINE
  5
1F3
100
AcDbEntity
100
AcDbLine
  8
Group#1
 62
256
370
-1
  6
ByLayer
 10
2.1859326483255002
 20
2.4976500907130101
 30
0.0
 11
2.1859326483255002
 21
2.4976500907130101
 31
0.0
  0
LINE
  5
1F4
100
AcDbEntity
100
AcDbLine
  8
Group#1
 62
256
370
-1
  6
ByLayer
 10
1.5023499092869901
 20
2.1859326483255002
 30
0.0
 11
1.4711840144322199
 21
2.0507958256943999
 31
0.0
  0
LINE
  5
1F5
100
AcDbEntity
100
AcDbLine
  8
Group#1
 62
256
370
-1
  6
ByLayer
 10
1.5023499092869901
 20
2.1859326483255002
 30
0.0
 11
1.5023499092869901
 21
2.1859326483255002
 31
0.0
  0
LINE
  5
1F6
100
AcDbEntity
100
AcDbLine
  8
Group#1
 62
256
370
-1
  6
ByLayer
 10
2.2957281690478002
 20
9.5586708569201093
 30
0.0
 11
2.1714270886565998
 21
9.4971687004822396
 31
0.0
  0
LINE
  5
1F7
100
AcDbEntity
100
AcDbLine
  8
Group#1
 62
256
370
-1
  6
ByLayer
 10
2.30839846824145
 20
2.4325701645817999
 30
0.0
 11
2.30839846824145
 21
2.4325701645817999
 31
0.0
  0
LINE
  5
1F8
100
AcDbEntity
100
AcDbLine
  8
Group#1
 62
256
370
-1
  6
ByLayer
 10
2.4098474421993101
 20
2.3380112965903401
 30
0.0
 11
2.30839846824145
 21
2.4325701645817999
 31
0.0
  0
LINE
  5
1F9
100
AcDbEntity
100
AcDbLine
  8
Group#1
 62
256
370
-1
  6
ByLayer
 10
2.4098474421993101
 20
2.3380112965903401
 30
0.0
 11
2.4098474421993101
 21
2.3380112965903401
 31
0.0
  0
LINE
  5
1FA
100
AcDbEntity
100
AcDbLine
  8
Group#1
 62
256
370
-1
  6
ByLayer
 10
6.0907940333520099
 20
2.5234338602036299
 30
0.0
 11
6.0907940333520099
 21
2.5234338602036299
 31
0.0
  0
LINE
  5
1FB
100
AcDbEntity
100
AcDbLine
  8
Group#1
 62
256
370
-1
  6
ByLayer
 10
6.2231749535598802
 20
2.4820990589116998
 30
0.0
 11
6.0907940333520099
 21
2.5234338602036299
 31
0.0
  0
LINE
  5
1FC
100
AcDbEntity
100
AcDbLine
  8
Group#1
 62
256
370
-1
  6
ByLayer
 10
6.2231749535598802
 20
2.4820990589116998
 30
0.0
 11
6.2231749535598802
 21
2.4820990589116998
 31
0.0
  0
LINE
  5
1FD
100
AcDbEntity
100
AcDbLine
  8
Group#1
 62
256
370
-1
  6
ByLayer
 10
6.5290975089380403
 20
2.04777435018458
 30
0.0
 11
6.5290975089380403
 21
2.04777435018458
 31
0.0
  0
LINE
  5
1FE
100
AcDbEntity
100
AcDbLine
  8
Group#1
 62
256
370
-1
  6
ByLayer
 10
6.5234338602036299
 20
1.9092059666479899
 30
0.0
 11
6.5290975089380403
 21
2.04777435018458
 31
0.0
  0
LINE
  5
1FF
100
AcDbEntity
100
AcDbLine
  8
Group#1
 62
256
370
-1
  6
ByLayer
 10
6.5234338602036299
 20
1.9092059666479899
 30
0.0
 11
6.5234338602036299
 21
1.9092059666479899
 31
0.0
  0
LINE
  5
200
100
AcDbEntity
100
AcDbLine
  8
Group#1
 62
256
370
-1
  6
ByLayer
 10
6.0907940333520099
 20
2.5234338602036299
 30
0.0
 11
5.9522256498154196
 21
2.5290975089380399
 31
0.0
  0
LINE
  5
201
100
AcDbEntity
100
AcDbLine
  8
Group#1
 62
256
370
-1
  6
ByLayer
 10
6.0477743501845804
 20
1.4709024910619599
 30
0.0
 11
6.0477743501845804
 21
1.4709024910619599
 31
0.0
  0
LINE
  5
202
100
AcDbEntity
100
AcDbLine
  8
Group#1
 62
256
370
-1
  6
ByLayer
 10
5.9092059666479901
 20
1.4765661397963701
 30
0.0
 11
6.0477743501845804
 21
1.4709024910619599
 31
0.0
  0
LINE
  5
203
100
AcDbEntity
100
AcDbLine
  8
Group#1
 62
256
370
-1
  6
ByLayer
 10
5.9092059666479901
 20
1.4765661397963701
 30
0.0
 11
5.9092059666479901
 21
1.4765661397963701
 31
0.0
  0
LINE
  5
204
100
AcDbEntity
100
AcDbLine
  8
Group#1
 62
256
370
-1
  6
ByLayer
 10
5.7768250464401198
 20
1.5179009410883
 30
0.0
 11
5.9092059666479901
 21
1.4765661397963701
 31
0.0
  0
LINE
  5
205
100
AcDbEntity
100
AcDbLine
  8
Group#1
 62
256
370
-1
  6
ByLayer
 10
5.4709024910619597
 20
1.95222564981542
 30
0.0
 11
5.4709024910619597
 21
1.95222564981542
 31
0.0
  0
LINE
  5
206
100
AcDbEntity
100
AcDbLine
  8
Group#1
 62
256
370
-1
  6
ByLayer
 10
5.4765661397963701
 20
2.0907940333520099
 30
0.0
 11
5.4709024910619597
 21
1.95222564981542
 31
0.0
  0
LINE
  5
207
100
AcDbEntity
100
AcDbLine
  8
Group#1
 62
256
370
-1
  6
ByLayer
 10
6.3403468694966998
 20
2.4079100034612901
 30
0.0
 11
6.2231749535598802
 21
2.4820990589116998
 31
0.0
  0
LINE
  5
208
100
AcDbEntity
100
AcDbLine
  8
Group#1
 62
256
370
-1
  6
ByLayer
 10
6.3403468694966998
 20
2.4079100034612901
 30
0.0
 11
6.3403468694966998
 21
2.4079100034612901
 31
0.0
  0
LINE
  5
209
100
AcDbEntity
100
AcDbLine
  8
Group#1
 62
256
370
-1
  6
ByLayer
 10
5.5012959631867
 20
1.8169130092930701
 30
0.0
 11
5.5656752912728802
 21
1.6940774446218401
 31
0.0
  0
LINE
  5
20A
100
AcDbEntity
100
AcDbLine
  8
Group#1
 62
256
370
-1
  6
ByLayer
 10
5.5012959631867
 20
1.8169130092930701
 30
0.0
 11
5.5012959631867
 21
1.8169130092930701
 31
0.0
  0
LINE
  5
20B
100
AcDbEntity
100
AcDbLine
  8
Group#1
 62
256
370
-1
  6
ByLayer
 10
6.4343247087271198
 20
2.3059225553781602
 30
0.0
 11
6.3403468694966998
 21
2.4079100034612901
 31
0.0
  0
LINE
  5
20C
100
AcDbEntity
100
AcDbLine
  8
Group#1
 62
256
370
-1
  6
ByLayer
 10
6.4343247087271198
 20
2.3059225553781602
 30
0.0
 11
6.4343247087271198
 21
2.3059225553781602
 31
0.0
  0
LINE
  5
20D
100
AcDbEntity
100
AcDbLine
  8
Group#1
 62
256
370
-1
  6
ByLayer
 10
6.4987040368133
 20
2.1830869907069301
 30
0.0
 11
6.4343247087271198
 21
2.3059225553781602
 31
0.0
  0
LINE
  5
20E
100
AcDbEntity
100
AcDbLine
  8
Group#1
 62
256
370
-1
  6
ByLayer
 10
6.4987040368133
 20
2.1830869907069301
 30
0.0
 11
6.4987040368133
 21
2.1830869907069301
 31
0.0
  0
LINE
  5
20F
100
AcDbEntity
100
AcDbLine
  8
Group#1
 62
256
370
-1
  6
ByLayer
 10
6.4820990589117002
 20
1.7768250464401201
 30
0.0
 11
6.4820990589117002
 21
1.7768250464401201
 31
0.0
  0
LINE
  5
210
100
AcDbEntity
100
AcDbLine
  8
Group#1
 62
256
370
-1
  6
ByLayer
 10
6.4079100034612901
 20
1.6596531305033
 30
0.0
 11
6.4820990589117002
 21
1.7768250464401201
 31
0.0
  0
LINE
  5
211
100
AcDbEntity
100
AcDbLine
  8
Group#1
 62
256
370
-1
  6
ByLayer
 10
6.4079100034612901
 20
1.6596531305033
 30
0.0
 11
6.4079100034612901
 21
1.6596531305033
 31
0.0
  0
LINE
  5
212
100
AcDbEntity
100
AcDbLine
  8
Group#1
 62
256
370
-1
  6
ByLayer
 10
6.3059225553781602
 20
1.56567529127288
 30
0.0
 11
6.4079100034612901
 21
1.6596531305033
 31
0.0
  0
LINE
  5
213
100
AcDbEntity
100
AcDbLine
  8
Group#1
 62
256
370
-1
  6
ByLayer
 10
6.3059225553781602
 20
1.56567529127288
 30
0.0
 11
6.3059225553781602
 21
1.56567529127288
 31
0.0
  0
LINE
  5
214
100
AcDbEntity
100
AcDbLine
  8
Group#1
 62
256
370
-1
  6
ByLayer
 10
6.1830869907069301
 20
1.5012959631867
 30
0.0
 11
6.3059225553781602
 21
1.56567529127288
 31
0.0
  0
LINE
  5
215
100
AcDbEntity
100
AcDbLine
  8
Group#1
 62
256
370
-1
  6
ByLayer
 10
6.1830869907069301
 20
1.5012959631867
 30
0.0
 11
6.1830869907069301
 21
1.5012959631867
 31
0.0
  0
LINE
  5
216
100
AcDbEntity
100
AcDbLine
  8
Group#1
 62
256
370
-1
  6
ByLayer
 10
6.0477743501845804
 20
1.4709024910619599
 30
0.0
 11
6.1830869907069301
 21
1.5012959631867
 31
0.0
  0
LINE
  5
217
100
AcDbEntity
100
AcDbLine
  8
Group#1
 62
256
370
-1
  6
ByLayer
 10
1.8285729113433999
 20
10.5028312995177995
 30
0.0
 11
1.9645564645298901
 21
10.5300663338614999
 31
0.0
  0
LINE
  5
218
100
AcDbEntity
100
AcDbLine
  8
Group#1
 62
256
370
-1
  6
ByLayer
 10
2.5300663338615101
 20
10.0354435354700993
 30
0.0
 11
2.52117822352862
 21
9.8970445639145392
 31
0.0
  0
LINE
  5
219
100
AcDbEntity
100
AcDbLine
  8
Group#1
 62
256
370
-1
  6
ByLayer
 10
5.4709024910619597
 20
1.95222564981542
 30
0.0
 11
5.5012959631867
 21
1.8169130092930701
 31
0.0
  0
LINE
  5
21A
100
AcDbEntity
100
AcDbLine
  8
Group#1
 62
256
370
-1
  6
ByLayer
 10
5.8169130092930699
 20
2.4987040368133
 30
0.0
 11
5.6940774446218398
 21
2.4343247087271198
 31
0.0
  0
LINE
  5
21B
100
AcDbEntity
100
AcDbLine
  8
Group#1
 62
256
370
-1
  6
ByLayer
 10
5.5920899965387099
 20
2.3403468694966998
 30
0.0
 11
5.5179009410882998
 21
2.2231749535598802
 31
0.0
  0
LINE
  5
21C
100
AcDbEntity
100
AcDbLine
  8
Group#1
 62
256
370
-1
  6
ByLayer
 10
6.4820990589117002
 20
1.7768250464401201
 30
0.0
 11
6.5234338602036299
 21
1.9092059666479899
 31
0.0
  0
LINE
  5
21D
100
AcDbEntity
100
AcDbLine
  8
Group#1
 62
256
370
-1
  6
ByLayer
 10
6.5290975089380403
 20
2.04777435018458
 30
0.0
 11
6.4987040368133
 21
2.1830869907069301
 31
0.0
  0
LINE
  5
21E
100
AcDbEntity
100
AcDbLine
  8
Group#1
 62
256
370
-1
  6
ByLayer
 10
2.4767726785500002
 20
9.7656618351863003
 30
0.0
 11
2.3998758634323099
 21
9.6502488651279794
 31
0.0
  0
LINE
  5
21F
100
AcDbEntity
100
AcDbLine
  8
Group#1
 62
256
370
-1
  6
ByLayer
 10
2.0354435354701099
 20
9.4699336661384894
 30
0.0
 11
1.8970445639145399
 21
9.4788217764713707
 31
0.0
  0
LINE
  5
220
100
AcDbEntity
100
AcDbLine
  8
Group#1
 62
256
370
-1
  6
ByLayer
 10
1.8970445639145399
 20
9.4788217764713707
 30
0.0
 11
1.8970445639145399
 21
9.4788217764713707
 31
0.0
  0
LINE
  5
221
100
AcDbEntity
100
AcDbLine
  8
Group#1
 62
256
370
-1
  6
ByLayer
 10
1.8970445639145399
 20
9.4788217764713707
 30
0.0
 11
1.7656618351863
 21
9.5232273214499994
 31
0.0
  0
LINE
  5
222
100
AcDbEntity
100
AcDbLine
  8
Group#1
 62
256
370
-1
  6
ByLayer
 10
2.2204175173263301
 20
1.51663400972379
 30
0.0
 11
2.3380112965903401
 21
1.5901525578006901
 31
0.0
  0
LINE
  5
223
100
AcDbEntity
100
AcDbLine
  8
Group#1
 62
256
370
-1
  6
ByLayer
 10
2.48336599027621
 20
2.2204175173263301
 30
0.0
 11
2.4098474421993101
 21
2.3380112965903401
 31
0.0
  0
LINE
  5
224
100
AcDbEntity
100
AcDbLine
  8
Group#1
 62
256
370
-1
  6
ByLayer
 10
1.5163952623922601
 20
5.7801067980510901
 30
0.0
 11
1.5369149862709801
 21
5.7472059371131996
 31
0.0
  0
CIRCLE
  5
225
100
AcDbEntity
100
AcDbCircle
  8
Group#1
 62
256
370
-1
  6
ByLayer
 10
4.0
 20
12.0
 30
0.0
 40
2.375
  0
ENDSEC
  0
SECTION
  2
OBJECTS
  0
DICTIONARY
  5
C
100
AcDbDictionary
280
0
281
1
  3
ACAD_GROUP
350
D
  3
ACAD_LAYOUT
350
1A
  3
ACAD_MLINESTYLE
350
17
  3
ACAD_PLOTSETTINGS
350
19
  3
ACAD_PLOTSTYLENAME
350
E
  3
AcDbVariableDictionary
350
226
  0
DICTIONARY
  5
D
100
AcDbDictionary
280
0
281
1
  0
ACDBDICTIONARYWDFLT
  5
E
100
AcDbDictionary
281
1
  3
Normal
350
F
100
AcDbDictionaryWithDefault
340
F
  0
ACDBPLACEHOLDER
  5
F
  0
DICTIONARY
  5
17
100
AcDbDictionary
280
0
281
1
  3
Standard
350
18
  0
MLINESTYLE
  5
18
100
AcDbMlineStyle
  2
STANDARD
 70
0
  3

 62
256
 51
90.0
 52
90.0
 71
2
 49
0.5
 62
256
  6
BYLAYER
 49
-0.5
 62
256
  6
BYLAYER
  0
DICTIONARY
  5
19
100
AcDbDictionary
280
0
281
1
  0
DICTIONARY
  5
1A
100
AcDbDictionary
281
1
  3
Layout1
350
1E
  3
Layout2
350
26
  3
Model
350
22
  0
LAYOUT
  5
1E
100
AcDbPlotSettings
  1

  2
C:\Program Files\AutoCAD 2002\plotters\DWF ePlot (optimized for plotting).pc3
  4

  6

 40
0.0
 41
0.0
 42
0.0
 43
0.0
 44
0.0
 45
0.0
 46
0.0
 47
0.0
 48
0.0
 49
0.0
140
0.0
141
0.0
142
1.0
143
1.0
 70
688
 72
0
 73
0
 74
5
  7

 75
16
147
1.0
148
0.0
149
0.0
100
AcDbLayout
  1
Layout1
 70
1
 71
1
 10
0.0
 20
0.0
 11
420.0
 21
297.0
 12
0.0
 22
0.0
 32
0.0
 14
100000000000000000000.0
 24
100000000000000000000.0
 34
100000000000000000000.0
 15
-100000000000000000000.0
 25
-100000000000000000000.0
 35
-100000000000000000000.0
146
0.0
 13
0.0
 23
0.0
 33
0.0
 16
1.0
 26
0.0
 36
0.0
 17
0.0
 27
1.0
 37
0.0
 76
0
330
1B
  0
LAYOUT
  5
22
100
AcDbPlotSettings
  1

  2
C:\Program Files\AutoCAD 2002\plotters\DWF ePlot (optimized for plotting).pc3
  4

  6

 40
0.0
 41
0.0
 42
0.0
 43
0.0
 44
0.0
 45
0.0
 46
0.0
 47
0.0
 48
0.0
 49
0.0
140
0.0
141
0.0
142
1.0
143
1.0
 70
1712
 72
0
 73
0
 74
0
  7

 75
0
147
1.0
148
0.0
149
0.0
100
AcDbLayout
  1
Model
 70
1
 71
0
 10
0.0
 20
0.0
 11
12.0
 21
9.0
 12
0.0
 22
0.0
 32
0.0
 14
0.0
 24
0.0
 34
0.0
 15
0.0
 25
0.0
 35
0.0
146
0.0
 13
0.0
 23
0.0
 33
0.0
 16
1.0
 26
0.0
 36
0.0
 17
0.0
 27
1.0
 37
0.0
 76
0
330
1F
  0
LAYOUT
  5
26
100
AcDbPlotSettings
  1

  2
C:\Program Files\AutoCAD 2002\plotters\DWF ePlot (optimized for plotting).pc3
  4

  6

 40
0.0
 41
0.0
 42
0.0
 43
0.0
 44
0.0
 45
0.0
 46
0.0
 47
0.0
 48
0.0
 49
0.0
140
0.0
141
0.0
142
1.0
143
1.0
 70
688
 72
0
 73
0
 74
5
  7

 75
16
147
1.0
148
0.0
149
0.0
100
AcDbLayout
  1
Layout2
 70
1
 71
2
 10
0.0
 20
0.0
 11
12.0
 21
9.0
 12
0.0
 22
0.0
 32
0.0
 14
0.0
 24
0.0
 34
0.0
 15
0.0
 25
0.0
 35
0.0
146
0.0
 13
0.0
 23
0.0
 33
0.0
 16
1.0
 26
0.0
 36
0.0
 17
0.0
 27
1.0
 37
0.0
 76
0
330
23
  0
DICTIONARY
  5
226
100
AcDbDictionary
281
1
  3
DIMASSOC
350
228
  3
HIDETEXT
350
227
  0
DICTIONARYVAR
  5
227
100
DictionaryVariables
280
0
  1
2
  0
DICTIONARYVAR
  5
228
100
DictionaryVariables
280
0
  1
1
  0
ENDSEC
  0
EOF
