ISO-10303-21;
HEADER;
FILE_DESCRIPTION (( 'STEP AP203' ),
    '1' );
FILE_NAME ('ZShaft.STEP',
    '2012-04-06T18:00:07',
    ( '' ),
    ( '' ),
    'SwSTEP 2.0',
    'SolidWorks 2010',
    '' );
FILE_SCHEMA (( 'CONFIG_CONTROL_DESIGN' ));
ENDSEC;

DATA;
#1 = AXIS2_PLACEMENT_3D ( 'NONE', #132, #119, #127 ) ;
#2 = AXIS2_PLACEMENT_3D ( 'NONE', #125, #108, #134 ) ;
#3 = EDGE_CURVE ( 'NONE', #114, #105, #60, .T. ) ;
#4 = EDGE_CURVE ( 'NONE', #106, #123, #63, .T. ) ;
#5 = EDGE_CURVE ( 'NONE', #106, #105, #42, .T. ) ;
#6 = EDGE_CURVE ( 'NONE', #123, #114, #50, .T. ) ;
#7 = EDGE_CURVE ( 'NONE', #123, #106, #61, .T. ) ;
#8 = EDGE_CURVE ( 'NONE', #105, #114, #68, .T. ) ;
#9 = AXIS2_PLACEMENT_3D ( 'NONE', #133, #113, #122 ) ;
#10 = AXIS2_PLACEMENT_3D ( 'NONE', #107, #126, #111 ) ;
#11 = AXIS2_PLACEMENT_3D ( 'NONE', #109, #117, #115 ) ;
#12 = AXIS2_PLACEMENT_3D ( 'NONE', #116, #129, #120 ) ;
#13 = AXIS2_PLACEMENT_3D ( 'NONE', #118, #79, #81 ) ;
#14 = ADVANCED_FACE ( 'NONE', ( #64 ), #69, .T. ) ;
#15 = ADVANCED_FACE ( 'NONE', ( #43 ), #62, .T. ) ;
#16 = ADVANCED_FACE ( 'NONE', ( #66 ), #130, .T. ) ;
#17 = ADVANCED_FACE ( 'NONE', ( #67 ), #96, .F. ) ;
#18 = CC_DESIGN_SECURITY_CLASSIFICATION ( #32, ( #27 ) ) ;
#19 = PRODUCT_RELATED_PRODUCT_CATEGORY ( 'detail', '', ( #173 ) ) ;
#20 = AXIS2_PLACEMENT_3D ( 'NONE', #99, #88, #89 ) ;
#21 = CC_DESIGN_PERSON_AND_ORGANIZATION_ASSIGNMENT ( #152, #103, ( #173 ) ) ;
#22 = PRODUCT_DEFINITION ( 'UNKNOWN', '', #27, #174 ) ;
#23 = APPROVAL ( #95, 'UNSPECIFIED' ) ;
#24 = CC_DESIGN_APPROVAL ( #23, ( #22 ) ) ;
#25 = CC_DESIGN_PERSON_AND_ORGANIZATION_ASSIGNMENT ( #140, #93, ( #22 ) ) ;
#26 = CC_DESIGN_DATE_AND_TIME_ASSIGNMENT ( #149, #92, ( #22 ) ) ;
#27 = PRODUCT_DEFINITION_FORMATION_WITH_SPECIFIED_SOURCE ( 'ANY', '', #173, .NOT_KNOWN. ) ;
#28 = APPROVAL ( #97, 'UNSPECIFIED' ) ;
#29 = CC_DESIGN_APPROVAL ( #28, ( #27 ) ) ;
#30 = CC_DESIGN_PERSON_AND_ORGANIZATION_ASSIGNMENT ( #161, #73, ( #27 ) ) ;
#31 = CC_DESIGN_PERSON_AND_ORGANIZATION_ASSIGNMENT ( #170, #72, ( #27 ) ) ;
#32 = SECURITY_CLASSIFICATION ( '', '', #78 ) ;
#33 = CC_DESIGN_PERSON_AND_ORGANIZATION_ASSIGNMENT ( #150, #77, ( #32 ) ) ;
#34 = CC_DESIGN_DATE_AND_TIME_ASSIGNMENT ( #167, #76, ( #32 ) ) ;
#35 = APPROVAL ( #75, 'UNSPECIFIED' ) ;
#36 = CC_DESIGN_APPROVAL ( #35, ( #32 ) ) ;
#37 = MANIFOLD_SOLID_BREP ( 'Boss-Extrude1', #56 ) ;
#38 = UNCERTAINTY_MEASURE_WITH_UNIT (LENGTH_MEASURE( 1.000000000000000100E-005 ), #121, 'distance_accuracy_value', 'NONE');
#39 = ADVANCED_BREP_SHAPE_REPRESENTATION ( 'ZShaft', ( #37, #20 ), #137 ) ;
#40 = AXIS2_PLACEMENT_3D ( 'NONE', #85, #86, #87 ) ;
#41 = ORIENTED_EDGE ( 'NONE', *, *, #4, .T. ) ;
#42 = LINE ( 'NONE', #131, #71 ) ;
#43 = FACE_OUTER_BOUND ( 'NONE', #59, .T. ) ;
#44 = VECTOR ( 'NONE', #128, 1000.000000000000000 ) ;
#45 = ORIENTED_EDGE ( 'NONE', *, *, #6, .F. ) ;
#46 = ORIENTED_EDGE ( 'NONE', *, *, #3, .T. ) ;
#47 = ORIENTED_EDGE ( 'NONE', *, *, #7, .T. ) ;
#48 = ORIENTED_EDGE ( 'NONE', *, *, #7, .F. ) ;
#49 = ORIENTED_EDGE ( 'NONE', *, *, #3, .F. ) ;
#50 = LINE ( 'NONE', #110, #44 ) ;
#51 = EDGE_LOOP ( 'NONE', ( #49, #57 ) ) ;
#52 = EDGE_LOOP ( 'NONE', ( #65, #70, #58, #45 ) ) ;
#53 = ORIENTED_EDGE ( 'NONE', *, *, #5, .F. ) ;
#54 = EDGE_LOOP ( 'NONE', ( #47, #41 ) ) ;
#55 = ORIENTED_EDGE ( 'NONE', *, *, #6, .T. ) ;
#56 = CLOSED_SHELL ( 'NONE', ( #14, #15, #16, #17 ) ) ;
#57 = ORIENTED_EDGE ( 'NONE', *, *, #8, .F. ) ;
#58 = ORIENTED_EDGE ( 'NONE', *, *, #8, .T. ) ;
#59 = EDGE_LOOP ( 'NONE', ( #53, #48, #55, #46 ) ) ;
#60 = CIRCLE ( 'NONE', #2, 5.999999999999998200 ) ;
#61 = CIRCLE ( 'NONE', #10, 5.999999999999998200 ) ;
#62 = CYLINDRICAL_SURFACE ( 'NONE', #12, 5.999999999999998200 ) ;
#63 = CIRCLE ( 'NONE', #1, 5.999999999999998200 ) ;
#64 = FACE_OUTER_BOUND ( 'NONE', #52, .T. ) ;
#65 = ORIENTED_EDGE ( 'NONE', *, *, #4, .F. ) ;
#66 = FACE_OUTER_BOUND ( 'NONE', #54, .T. ) ;
#67 = FACE_OUTER_BOUND ( 'NONE', #51, .T. ) ;
#68 = CIRCLE ( 'NONE', #9, 5.999999999999998200 ) ;
#69 = CYLINDRICAL_SURFACE ( 'NONE', #11, 5.999999999999998200 ) ;
#70 = ORIENTED_EDGE ( 'NONE', *, *, #5, .T. ) ;
#71 = VECTOR ( 'NONE', #124, 1000.000000000000000 ) ;
#72 = PERSON_AND_ORGANIZATION_ROLE ( 'design_supplier' ) ;
#73 = PERSON_AND_ORGANIZATION_ROLE ( 'creator' ) ;
#74 = APPROVAL_ROLE ( '' ) ;
#75 = APPROVAL_STATUS ( 'not_yet_approved' ) ;
#76 = DATE_TIME_ROLE ( 'classification_date' ) ;
#77 = PERSON_AND_ORGANIZATION_ROLE ( 'classification_officer' ) ;
#78 = SECURITY_CLASSIFICATION_LEVEL ( 'unclassified' ) ;
#79 = DIRECTION ( 'NONE',  ( 0.0000000000000000000, 0.0000000000000000000, 1.000000000000000000 ) ) ;
#80 = CARTESIAN_POINT ( 'NONE',  ( -5.999999999999998200, 0.0000000000000000000, 200.0000000000000000 ) ) ;
#81 = DIRECTION ( 'NONE',  ( 1.000000000000000000, 0.0000000000000000000, -0.0000000000000000000 ) ) ;
#82 = CARTESIAN_POINT ( 'NONE',  ( 5.999999999999998200, 7.347880794884117800E-016, 0.0000000000000000000 ) ) ;
#83 = CARTESIAN_POINT ( 'NONE',  ( 5.999999999999998200, 7.347880794884117800E-016, 200.0000000000000000 ) ) ;
#84 = CARTESIAN_POINT ( 'NONE',  ( -5.999999999999998200, 0.0000000000000000000, 0.0000000000000000000 ) ) ;
#85 = CARTESIAN_POINT ( 'NONE',  ( 0.0000000000000000000, 0.0000000000000000000, 0.0000000000000000000 ) ) ;
#86 = DIRECTION ( 'NONE',  ( 0.0000000000000000000, 0.0000000000000000000, 1.000000000000000000 ) ) ;
#87 = DIRECTION ( 'NONE',  ( 1.000000000000000000, 0.0000000000000000000, -0.0000000000000000000 ) ) ;
#88 = DIRECTION ( 'NONE',  ( 0.0000000000000000000, 0.0000000000000000000, 1.000000000000000000 ) ) ;
#89 = DIRECTION ( 'NONE',  ( 1.000000000000000000, 0.0000000000000000000, 0.0000000000000000000 ) ) ;
#90 = APPLICATION_PROTOCOL_DEFINITION ( 'international standard', 'config_control_design', 1994, #104 ) ;
#91 =( NAMED_UNIT ( * ) SI_UNIT ( $, .STERADIAN. ) SOLID_ANGLE_UNIT ( ) );
#92 = DATE_TIME_ROLE ( 'creation_date' ) ;
#93 = PERSON_AND_ORGANIZATION_ROLE ( 'creator' ) ;
#94 = APPROVAL_ROLE ( '' ) ;
#95 = APPROVAL_STATUS ( 'not_yet_approved' ) ;
#96 = PLANE ( 'NONE',  #40 ) ;
#97 = APPROVAL_STATUS ( 'not_yet_approved' ) ;
#98 = APPROVAL_ROLE ( '' ) ;
#99 = CARTESIAN_POINT ( 'NONE',  ( 0.0000000000000000000, 0.0000000000000000000, 0.0000000000000000000 ) ) ;
#100 = APPLICATION_CONTEXT ( 'configuration controlled 3d designs of mechanical parts and assemblies' ) ;
#101 = APPLICATION_PROTOCOL_DEFINITION ( 'international standard', 'config_control_design', 1994, #100 ) ;
#102 = MECHANICAL_CONTEXT ( 'NONE', #100, 'mechanical' ) ;
#103 = PERSON_AND_ORGANIZATION_ROLE ( 'design_owner' ) ;
#104 = APPLICATION_CONTEXT ( 'configuration controlled 3d designs of mechanical parts and assemblies' ) ;
#105 = VERTEX_POINT ( 'NONE', #82 ) ;
#106 = VERTEX_POINT ( 'NONE', #83 ) ;
#107 = CARTESIAN_POINT ( 'NONE',  ( 0.0000000000000000000, 0.0000000000000000000, 200.0000000000000000 ) ) ;
#108 = DIRECTION ( 'NONE',  ( 0.0000000000000000000, 0.0000000000000000000, 1.000000000000000000 ) ) ;
#109 = CARTESIAN_POINT ( 'NONE',  ( 0.0000000000000000000, 0.0000000000000000000, 200.0000000000000000 ) ) ;
#110 = CARTESIAN_POINT ( 'NONE',  ( -5.999999999999998200, 0.0000000000000000000, 200.0000000000000000 ) ) ;
#111 = DIRECTION ( 'NONE',  ( 1.000000000000000000, 0.0000000000000000000, 0.0000000000000000000 ) ) ;
#112 =( NAMED_UNIT ( * ) PLANE_ANGLE_UNIT ( ) SI_UNIT ( $, .RADIAN. ) );
#113 = DIRECTION ( 'NONE',  ( 0.0000000000000000000, 0.0000000000000000000, 1.000000000000000000 ) ) ;
#114 = VERTEX_POINT ( 'NONE', #84 ) ;
#115 = DIRECTION ( 'NONE',  ( -1.000000000000000000, 0.0000000000000000000, 0.0000000000000000000 ) ) ;
#116 = CARTESIAN_POINT ( 'NONE',  ( 0.0000000000000000000, 0.0000000000000000000, 200.0000000000000000 ) ) ;
#117 = DIRECTION ( 'NONE',  ( -0.0000000000000000000, -0.0000000000000000000, -1.000000000000000000 ) ) ;
#118 = CARTESIAN_POINT ( 'NONE',  ( 0.0000000000000000000, 0.0000000000000000000, 200.0000000000000000 ) ) ;
#119 = DIRECTION ( 'NONE',  ( 0.0000000000000000000, 0.0000000000000000000, 1.000000000000000000 ) ) ;
#120 = DIRECTION ( 'NONE',  ( -1.000000000000000000, 0.0000000000000000000, 0.0000000000000000000 ) ) ;
#121 =( LENGTH_UNIT ( ) NAMED_UNIT ( * ) SI_UNIT ( .MILLI., .METRE. ) );
#122 = DIRECTION ( 'NONE',  ( 1.000000000000000000, 0.0000000000000000000, 0.0000000000000000000 ) ) ;
#123 = VERTEX_POINT ( 'NONE', #80 ) ;
#124 = DIRECTION ( 'NONE',  ( -0.0000000000000000000, -0.0000000000000000000, -1.000000000000000000 ) ) ;
#125 = CARTESIAN_POINT ( 'NONE',  ( 0.0000000000000000000, 0.0000000000000000000, 0.0000000000000000000 ) ) ;
#126 = DIRECTION ( 'NONE',  ( 0.0000000000000000000, 0.0000000000000000000, 1.000000000000000000 ) ) ;
#127 = DIRECTION ( 'NONE',  ( 1.000000000000000000, 0.0000000000000000000, 0.0000000000000000000 ) ) ;
#128 = DIRECTION ( 'NONE',  ( -0.0000000000000000000, -0.0000000000000000000, -1.000000000000000000 ) ) ;
#129 = DIRECTION ( 'NONE',  ( -0.0000000000000000000, -0.0000000000000000000, -1.000000000000000000 ) ) ;
#130 = PLANE ( 'NONE',  #13 ) ;
#131 = CARTESIAN_POINT ( 'NONE',  ( 5.999999999999998200, 7.347880794884117800E-016, 200.0000000000000000 ) ) ;
#132 = CARTESIAN_POINT ( 'NONE',  ( 0.0000000000000000000, 0.0000000000000000000, 200.0000000000000000 ) ) ;
#133 = CARTESIAN_POINT ( 'NONE',  ( 0.0000000000000000000, 0.0000000000000000000, 0.0000000000000000000 ) ) ;
#134 = DIRECTION ( 'NONE',  ( 1.000000000000000000, 0.0000000000000000000, 0.0000000000000000000 ) ) ;
#135 = SHAPE_DEFINITION_REPRESENTATION ( #175, #39 ) ;
#136 = LOCAL_TIME ( 14, 0, 7.000000000000000000, #171 ) ;
#137 =( GEOMETRIC_REPRESENTATION_CONTEXT ( 3 ) GLOBAL_UNCERTAINTY_ASSIGNED_CONTEXT ( ( #38 ) ) GLOBAL_UNIT_ASSIGNED_CONTEXT ( ( #121, #112, #91 ) ) REPRESENTATION_CONTEXT ( 'NONE', 'WORKASPACE' ) );
#138 = ORGANIZATION ( 'UNSPECIFIED', 'UNSPECIFIED', '' ) ;
#139 = LOCAL_TIME ( 14, 0, 7.000000000000000000, #141 ) ;
#140 = PERSON_AND_ORGANIZATION ( #172, #138 ) ;
#141 = COORDINATED_UNIVERSAL_TIME_OFFSET ( 5, 0, .BEHIND. ) ;
#142 = APPROVAL_PERSON_ORGANIZATION ( #153, #28, #98 ) ;
#143 = APPROVAL_DATE_TIME ( #147, #23 ) ;
#144 = COORDINATED_UNIVERSAL_TIME_OFFSET ( 5, 0, .BEHIND. ) ;
#145 = LOCAL_TIME ( 14, 0, 7.000000000000000000, #144 ) ;
#146 = APPROVAL_PERSON_ORGANIZATION ( #148, #23, #94 ) ;
#147 = DATE_AND_TIME ( #154, #145 ) ;
#148 = PERSON_AND_ORGANIZATION ( #172, #138 ) ;
#149 = DATE_AND_TIME ( #151, #139 ) ;
#150 = PERSON_AND_ORGANIZATION ( #172, #138 ) ;
#151 = CALENDAR_DATE ( 2012, 6, 4 ) ;
#152 = PERSON_AND_ORGANIZATION ( #172, #138 ) ;
#153 = PERSON_AND_ORGANIZATION ( #172, #138 ) ;
#154 = CALENDAR_DATE ( 2012, 6, 4 ) ;
#155 = PERSON_AND_ORGANIZATION ( #172, #138 ) ;
#156 = COORDINATED_UNIVERSAL_TIME_OFFSET ( 5, 0, .BEHIND. ) ;
#157 = LOCAL_TIME ( 14, 0, 7.000000000000000000, #156 ) ;
#158 = CALENDAR_DATE ( 2012, 6, 4 ) ;
#159 = DATE_AND_TIME ( #158, #157 ) ;
#160 = APPROVAL_DATE_TIME ( #159, #28 ) ;
#161 = PERSON_AND_ORGANIZATION ( #172, #138 ) ;
#162 = LOCAL_TIME ( 14, 0, 7.000000000000000000, #166 ) ;
#163 = CALENDAR_DATE ( 2012, 6, 4 ) ;
#164 = DATE_AND_TIME ( #163, #162 ) ;
#165 = APPROVAL_DATE_TIME ( #164, #35 ) ;
#166 = COORDINATED_UNIVERSAL_TIME_OFFSET ( 5, 0, .BEHIND. ) ;
#167 = DATE_AND_TIME ( #169, #136 ) ;
#168 = APPROVAL_PERSON_ORGANIZATION ( #155, #35, #74 ) ;
#169 = CALENDAR_DATE ( 2012, 6, 4 ) ;
#170 = PERSON_AND_ORGANIZATION ( #172, #138 ) ;
#171 = COORDINATED_UNIVERSAL_TIME_OFFSET ( 5, 0, .BEHIND. ) ;
#172 = PERSON ( 'UNSPECIFIED', 'UNSPECIFIED', 'UNSPECIFIED', ('UNSPECIFIED'), ('UNSPECIFIED'), ('UNSPECIFIED') ) ;
#173 = PRODUCT ( 'ZShaft', 'ZShaft', '', ( #102 ) ) ;
#174 = DESIGN_CONTEXT ( 'detailed design', #104, 'design' ) ;
#175 = PRODUCT_DEFINITION_SHAPE ( 'NONE', 'NONE',  #22 ) ;
ENDSEC;
END-ISO-10303-21;
