ISO-10303-21;
HEADER;
FILE_DESCRIPTION (( 'STEP AP203' ),
    '1' );
FILE_NAME ('LargeLHNut.STEP',
    '2012-06-27T23:53:38',
    ( '' ),
    ( '' ),
    'SwSTEP 2.0',
    'SolidWorks 2010',
    '' );
FILE_SCHEMA (( 'CONFIG_CONTROL_DESIGN' ));
ENDSEC;

DATA;
#1 = AXIS2_PLACEMENT_3D ( 'NONE', #306, #312, #313 ) ;
#2 = EDGE_CURVE ( 'NONE', #255, #235, #183, .T. ) ;
#3 = EDGE_CURVE ( 'NONE', #244, #237, #61, .T. ) ;
#4 = AXIS2_PLACEMENT_3D ( 'NONE', #241, #234, #233 ) ;
#5 = EDGE_CURVE ( 'NONE', #237, #249, #178, .T. ) ;
#6 = EDGE_CURVE ( 'NONE', #252, #260, #95, .T. ) ;
#7 = EDGE_CURVE ( 'NONE', #249, #237, #174, .T. ) ;
#8 = EDGE_CURVE ( 'NONE', #225, #257, #177, .T. ) ;
#9 = EDGE_CURVE ( 'NONE', #256, #239, #175, .T. ) ;
#10 = AXIS2_PLACEMENT_3D ( 'NONE', #344, #345, #346 ) ;
#11 = AXIS2_PLACEMENT_3D ( 'NONE', #314, #324, #325 ) ;
#12 = AXIS2_PLACEMENT_3D ( 'NONE', #304, #308, #309 ) ;
#13 = EDGE_CURVE ( 'NONE', #258, #246, #176, .T. ) ;
#14 = EDGE_CURVE ( 'NONE', #254, #251, #179, .T. ) ;
#15 = EDGE_CURVE ( 'NONE', #243, #244, #165, .T. ) ;
#16 = AXIS2_PLACEMENT_3D ( 'NONE', #227, #272, #273 ) ;
#17 = AXIS2_PLACEMENT_3D ( 'NONE', #245, #242, #238 ) ;
#18 = EDGE_CURVE ( 'NONE', #246, #252, #166, .T. ) ;
#19 = EDGE_CURVE ( 'NONE', #251, #246, #164, .T. ) ;
#20 = EDGE_CURVE ( 'NONE', #235, #225, #58, .T. ) ;
#21 = EDGE_CURVE ( 'NONE', #260, #256, #60, .T. ) ;
#22 = EDGE_CURVE ( 'NONE', #258, #255, #167, .T. ) ;
#23 = EDGE_CURVE ( 'NONE', #255, #252, #200, .T. ) ;
#24 = EDGE_CURVE ( 'NONE', #244, #243, #205, .T. ) ;
#25 = EDGE_CURVE ( 'NONE', #225, #256, #171, .T. ) ;
#26 = EDGE_CURVE ( 'NONE', #254, #258, #211, .T. ) ;
#27 = EDGE_CURVE ( 'NONE', #257, #239, #204, .T. ) ;
#28 = EDGE_CURVE ( 'NONE', #239, #251, #207, .T. ) ;
#29 = EDGE_CURVE ( 'NONE', #235, #260, #199, .T. ) ;
#30 = EDGE_CURVE ( 'NONE', #243, #249, #202, .T. ) ;
#31 = EDGE_CURVE ( 'NONE', #257, #254, #133, .T. ) ;
#32 = AXIS2_PLACEMENT_3D ( 'NONE', #223, #230, #220 ) ;
#33 = AXIS2_PLACEMENT_3D ( 'NONE', #303, #316, #317 ) ;
#34 = AXIS2_PLACEMENT_3D ( 'NONE', #318, #328, #329 ) ;
#35 = AXIS2_PLACEMENT_3D ( 'NONE', #310, #320, #321 ) ;
#36 = AXIS2_PLACEMENT_3D ( 'NONE', #327, #332, #333 ) ;
#37 = AXIS2_PLACEMENT_3D ( 'NONE', #322, #330, #331 ) ;
#38 = AXIS2_PLACEMENT_3D ( 'NONE', #337, #336, #334 ) ;
#39 = AXIS2_PLACEMENT_3D ( 'NONE', #335, #341, #342 ) ;
#40 = CC_DESIGN_PERSON_AND_ORGANIZATION_ASSIGNMENT ( #98, #350, ( #367 ) ) ;
#41 = PRODUCT_DEFINITION ( 'UNKNOWN', '', #46, #215 ) ;
#42 = APPROVAL ( #353, 'UNSPECIFIED' ) ;
#43 = CC_DESIGN_APPROVAL ( #42, ( #41 ) ) ;
#44 = CC_DESIGN_PERSON_AND_ORGANIZATION_ASSIGNMENT ( #92, #355, ( #41 ) ) ;
#45 = CC_DESIGN_DATE_AND_TIME_ASSIGNMENT ( #94, #356, ( #41 ) ) ;
#46 = PRODUCT_DEFINITION_FORMATION_WITH_SPECIFIED_SOURCE ( 'ANY', '', #367, .NOT_KNOWN. ) ;
#47 = APPROVAL ( #357, 'UNSPECIFIED' ) ;
#48 = CC_DESIGN_APPROVAL ( #47, ( #46 ) ) ;
#49 = CC_DESIGN_PERSON_AND_ORGANIZATION_ASSIGNMENT ( #155, #359, ( #46 ) ) ;
#50 = CC_DESIGN_PERSON_AND_ORGANIZATION_ASSIGNMENT ( #156, #360, ( #46 ) ) ;
#51 = SECURITY_CLASSIFICATION ( '', '', #361 ) ;
#52 = CC_DESIGN_PERSON_AND_ORGANIZATION_ASSIGNMENT ( #157, #362, ( #51 ) ) ;
#53 = CC_DESIGN_DATE_AND_TIME_ASSIGNMENT ( #159, #363, ( #51 ) ) ;
#54 = APPROVAL ( #364, 'UNSPECIFIED' ) ;
#55 = CC_DESIGN_APPROVAL ( #54, ( #51 ) ) ;
#56 = CC_DESIGN_SECURITY_CLASSIFICATION ( #51, ( #46 ) ) ;
#57 = PRODUCT_RELATED_PRODUCT_CATEGORY ( 'detail', '', ( #367 ) ) ;
#58 = LINE ( 'NONE', #262, #59 ) ;
#59 = VECTOR ( 'NONE', #263, 1000.000000000000000 ) ;
#60 = LINE ( 'NONE', #261, #68 ) ;
#61 = LINE ( 'NONE', #253, #181 ) ;
#62 = EDGE_LOOP ( 'NONE', ( #188, #187, #186, #185 ) ) ;
#63 = FACE_OUTER_BOUND ( 'NONE', #86, .T. ) ;
#64 = FACE_BOUND ( 'NONE', #83, .T. ) ;
#65 = DATE_AND_TIME ( #102, #101 ) ;
#66 = ORIENTED_EDGE ( 'NONE', *, *, #28, .T. ) ;
#67 = EDGE_LOOP ( 'NONE', ( #145, #194, #139, #142, #104, #149 ) ) ;
#68 = VECTOR ( 'NONE', #236, 1000.000000000000000 ) ;
#69 = VECTOR ( 'NONE', #264, 1000.000000000000100 ) ;
#70 = FACE_OUTER_BOUND ( 'NONE', #152, .T. ) ;
#71 = APPROVAL_DATE_TIME ( #65, #47 ) ;
#72 = FACE_OUTER_BOUND ( 'NONE', #91, .T. ) ;
#73 = EDGE_LOOP ( 'NONE', ( #141, #143, #140, #146 ) ) ;
#74 = APPROVAL_DATE_TIME ( #130, #42 ) ;
#75 = ORIENTED_EDGE ( 'NONE', *, *, #18, .T. ) ;
#76 = LOCAL_TIME ( 18, 53, 38.00000000000000000, #138 ) ;
#77 = FACE_OUTER_BOUND ( 'NONE', #154, .T. ) ;
#78 = FACE_OUTER_BOUND ( 'NONE', #62, .T. ) ;
#79 = ORIENTED_EDGE ( 'NONE', *, *, #6, .T. ) ;
#80 = ORIENTED_EDGE ( 'NONE', *, *, #30, .F. ) ;
#81 = COORDINATED_UNIVERSAL_TIME_OFFSET ( 6, 0, .BEHIND. ) ;
#82 = ORIENTED_EDGE ( 'NONE', *, *, #9, .F. ) ;
#83 = EDGE_LOOP ( 'NONE', ( #191, #131 ) ) ;
#84 = COORDINATED_UNIVERSAL_TIME_OFFSET ( 6, 0, .BEHIND. ) ;
#85 = CALENDAR_DATE ( 2012, 27, 6 ) ;
#86 = EDGE_LOOP ( 'NONE', ( #134, #192, #148, #161 ) ) ;
#87 = PERSON_AND_ORGANIZATION ( #366, #99 ) ;
#88 = CALENDAR_DATE ( 2012, 27, 6 ) ;
#89 = LOCAL_TIME ( 18, 53, 38.00000000000000000, #84 ) ;
#90 = EDGE_LOOP ( 'NONE', ( #66, #124, #135, #125 ) ) ;
#91 = EDGE_LOOP ( 'NONE', ( #193, #196, #126, #136 ) ) ;
#92 = PERSON_AND_ORGANIZATION ( #366, #99 ) ;
#93 = APPROVAL_PERSON_ORGANIZATION ( #87, #47, #358 ) ;
#94 = DATE_AND_TIME ( #85, #76 ) ;
#95 = LINE ( 'NONE', #240, #184 ) ;
#96 = APPROVAL_PERSON_ORGANIZATION ( #97, #42, #354 ) ;
#97 = PERSON_AND_ORGANIZATION ( #366, #99 ) ;
#98 = PERSON_AND_ORGANIZATION ( #366, #99 ) ;
#99 = ORGANIZATION ( 'UNSPECIFIED', 'UNSPECIFIED', '' ) ;
#100 = SHAPE_DEFINITION_REPRESENTATION ( #214, #218 ) ;
#101 = LOCAL_TIME ( 18, 53, 38.00000000000000000, #81 ) ;
#102 = CALENDAR_DATE ( 2012, 27, 6 ) ;
#103 =( GEOMETRIC_REPRESENTATION_CONTEXT ( 3 ) GLOBAL_UNCERTAINTY_ASSIGNED_CONTEXT ( ( #217 ) ) GLOBAL_UNIT_ASSIGNED_CONTEXT ( ( #340, #339, #343 ) ) REPRESENTATION_CONTEXT ( 'NONE', 'WORKASPACE' ) );
#104 = ORIENTED_EDGE ( 'NONE', *, *, #31, .T. ) ;
#105 = CLOSED_SHELL ( 'NONE', ( #376, #377, #373, #370, #371, #372, #369, #368, #374, #375 ) ) ;
#106 = EDGE_LOOP ( 'NONE', ( #153, #151, #110, #80 ) ) ;
#107 = FACE_OUTER_BOUND ( 'NONE', #106, .T. ) ;
#108 = CYLINDRICAL_SURFACE ( 'NONE', #38, 15.00000000000000000 ) ;
#109 = ORIENTED_EDGE ( 'NONE', *, *, #19, .F. ) ;
#110 = ORIENTED_EDGE ( 'NONE', *, *, #5, .T. ) ;
#111 = VECTOR ( 'NONE', #286, 1000.000000000000000 ) ;
#112 = VECTOR ( 'NONE', #289, 1000.000000000000000 ) ;
#113 = FACE_OUTER_BOUND ( 'NONE', #127, .T. ) ;
#114 = FACE_BOUND ( 'NONE', #198, .T. ) ;
#115 = FACE_OUTER_BOUND ( 'NONE', #73, .T. ) ;
#116 = APPROVAL_DATE_TIME ( #117, #54 ) ;
#117 = DATE_AND_TIME ( #118, #119 ) ;
#118 = CALENDAR_DATE ( 2012, 27, 6 ) ;
#119 = LOCAL_TIME ( 18, 53, 38.00000000000000000, #120 ) ;
#120 = COORDINATED_UNIVERSAL_TIME_OFFSET ( 6, 0, .BEHIND. ) ;
#121 = APPROVAL_PERSON_ORGANIZATION ( #122, #54, #365 ) ;
#122 = PERSON_AND_ORGANIZATION ( #366, #99 ) ;
#123 = LOCAL_TIME ( 18, 53, 38.00000000000000000, #158 ) ;
#124 = ORIENTED_EDGE ( 'NONE', *, *, #14, .F. ) ;
#125 = ORIENTED_EDGE ( 'NONE', *, *, #27, .T. ) ;
#126 = ORIENTED_EDGE ( 'NONE', *, *, #8, .F. ) ;
#127 = EDGE_LOOP ( 'NONE', ( #79, #213, #137, #195 ) ) ;
#128 = ORIENTED_EDGE ( 'NONE', *, *, #13, .T. ) ;
#129 = CALENDAR_DATE ( 2012, 27, 6 ) ;
#130 = DATE_AND_TIME ( #88, #89 ) ;
#131 = ORIENTED_EDGE ( 'NONE', *, *, #24, .T. ) ;
#132 = ORIENTED_EDGE ( 'NONE', *, *, #28, .F. ) ;
#133 = LINE ( 'NONE', #288, #112 ) ;
#134 = ORIENTED_EDGE ( 'NONE', *, *, #21, .T. ) ;
#135 = ORIENTED_EDGE ( 'NONE', *, *, #31, .F. ) ;
#136 = ORIENTED_EDGE ( 'NONE', *, *, #25, .T. ) ;
#137 = ORIENTED_EDGE ( 'NONE', *, *, #2, .F. ) ;
#138 = COORDINATED_UNIVERSAL_TIME_OFFSET ( 6, 0, .BEHIND. ) ;
#139 = ORIENTED_EDGE ( 'NONE', *, *, #20, .T. ) ;
#140 = ORIENTED_EDGE ( 'NONE', *, *, #26, .F. ) ;
#141 = ORIENTED_EDGE ( 'NONE', *, *, #19, .T. ) ;
#142 = ORIENTED_EDGE ( 'NONE', *, *, #8, .T. ) ;
#143 = ORIENTED_EDGE ( 'NONE', *, *, #13, .F. ) ;
#144 = ORIENTED_EDGE ( 'NONE', *, *, #5, .F. ) ;
#145 = ORIENTED_EDGE ( 'NONE', *, *, #22, .T. ) ;
#146 = ORIENTED_EDGE ( 'NONE', *, *, #14, .T. ) ;
#147 = ORIENTED_EDGE ( 'NONE', *, *, #7, .F. ) ;
#148 = ORIENTED_EDGE ( 'NONE', *, *, #20, .F. ) ;
#149 = ORIENTED_EDGE ( 'NONE', *, *, #26, .T. ) ;
#150 = ORIENTED_EDGE ( 'NONE', *, *, #18, .F. ) ;
#151 = ORIENTED_EDGE ( 'NONE', *, *, #3, .T. ) ;
#152 = EDGE_LOOP ( 'NONE', ( #150, #109, #132, #82, #190, #189 ) ) ;
#153 = ORIENTED_EDGE ( 'NONE', *, *, #24, .F. ) ;
#154 = EDGE_LOOP ( 'NONE', ( #75, #212, #160, #128 ) ) ;
#155 = PERSON_AND_ORGANIZATION ( #366, #99 ) ;
#156 = PERSON_AND_ORGANIZATION ( #366, #99 ) ;
#157 = PERSON_AND_ORGANIZATION ( #366, #99 ) ;
#158 = COORDINATED_UNIVERSAL_TIME_OFFSET ( 6, 0, .BEHIND. ) ;
#159 = DATE_AND_TIME ( #129, #123 ) ;
#160 = ORIENTED_EDGE ( 'NONE', *, *, #22, .F. ) ;
#161 = ORIENTED_EDGE ( 'NONE', *, *, #29, .T. ) ;
#162 = CYLINDRICAL_SURFACE ( 'NONE', #37, 15.00000000000000000 ) ;
#163 = VECTOR ( 'NONE', #267, 1000.000000000000100 ) ;
#164 = LINE ( 'NONE', #266, #163 ) ;
#165 = CIRCLE ( 'NONE', #32, 15.00000000000000000 ) ;
#166 = LINE ( 'NONE', #268, #169 ) ;
#167 = LINE ( 'NONE', #265, #69 ) ;
#168 = VECTOR ( 'NONE', #275, 1000.000000000000000 ) ;
#169 = VECTOR ( 'NONE', #219, 1000.000000000000100 ) ;
#170 = VECTOR ( 'NONE', #224, 1000.000000000000000 ) ;
#171 = LINE ( 'NONE', #274, #168 ) ;
#172 = VECTOR ( 'NONE', #232, 1000.000000000000000 ) ;
#173 = VECTOR ( 'NONE', #228, 1000.000000000000200 ) ;
#174 = CIRCLE ( 'NONE', #4, 15.00000000000000000 ) ;
#175 = LINE ( 'NONE', #222, #173 ) ;
#176 = LINE ( 'NONE', #231, #172 ) ;
#177 = LINE ( 'NONE', #247, #180 ) ;
#178 = CIRCLE ( 'NONE', #17, 15.00000000000000000 ) ;
#179 = LINE ( 'NONE', #229, #170 ) ;
#180 = VECTOR ( 'NONE', #226, 1000.000000000000200 ) ;
#181 = VECTOR ( 'NONE', #221, 1000.000000000000000 ) ;
#182 = VECTOR ( 'NONE', #250, 1000.000000000000100 ) ;
#183 = LINE ( 'NONE', #259, #182 ) ;
#184 = VECTOR ( 'NONE', #248, 1000.000000000000100 ) ;
#185 = ORIENTED_EDGE ( 'NONE', *, *, #7, .T. ) ;
#186 = ORIENTED_EDGE ( 'NONE', *, *, #30, .T. ) ;
#187 = ORIENTED_EDGE ( 'NONE', *, *, #15, .F. ) ;
#188 = ORIENTED_EDGE ( 'NONE', *, *, #3, .F. ) ;
#189 = ORIENTED_EDGE ( 'NONE', *, *, #6, .F. ) ;
#190 = ORIENTED_EDGE ( 'NONE', *, *, #21, .F. ) ;
#191 = ORIENTED_EDGE ( 'NONE', *, *, #15, .T. ) ;
#192 = ORIENTED_EDGE ( 'NONE', *, *, #25, .F. ) ;
#193 = ORIENTED_EDGE ( 'NONE', *, *, #9, .T. ) ;
#194 = ORIENTED_EDGE ( 'NONE', *, *, #2, .T. ) ;
#195 = ORIENTED_EDGE ( 'NONE', *, *, #23, .T. ) ;
#196 = ORIENTED_EDGE ( 'NONE', *, *, #27, .F. ) ;
#197 = VECTOR ( 'NONE', #271, 1000.000000000000000 ) ;
#198 = EDGE_LOOP ( 'NONE', ( #147, #144 ) ) ;
#199 = LINE ( 'NONE', #283, #206 ) ;
#200 = LINE ( 'NONE', #270, #197 ) ;
#201 = FACE_OUTER_BOUND ( 'NONE', #67, .T. ) ;
#202 = LINE ( 'NONE', #285, #111 ) ;
#203 = VECTOR ( 'NONE', #280, 1000.000000000000000 ) ;
#204 = LINE ( 'NONE', #279, #203 ) ;
#205 = CIRCLE ( 'NONE', #16, 15.00000000000000000 ) ;
#206 = VECTOR ( 'NONE', #284, 1000.000000000000000 ) ;
#207 = LINE ( 'NONE', #269, #209 ) ;
#208 = FACE_OUTER_BOUND ( 'NONE', #90, .T. ) ;
#209 = VECTOR ( 'NONE', #282, 1000.000000000000000 ) ;
#210 = VECTOR ( 'NONE', #277, 1000.000000000000100 ) ;
#211 = LINE ( 'NONE', #276, #210 ) ;
#212 = ORIENTED_EDGE ( 'NONE', *, *, #23, .F. ) ;
#213 = ORIENTED_EDGE ( 'NONE', *, *, #29, .F. ) ;
#214 = PRODUCT_DEFINITION_SHAPE ( 'NONE', 'NONE',  #41 ) ;
#215 = DESIGN_CONTEXT ( 'detailed design', #351, 'design' ) ;
#216 = MANIFOLD_SOLID_BREP ( 'Cut-Extrude1', #105 ) ;
#217 = UNCERTAINTY_MEASURE_WITH_UNIT (LENGTH_MEASURE( 1.000000000000000100E-005 ), #340, 'distance_accuracy_value', 'NONE');
#218 = ADVANCED_BREP_SHAPE_REPRESENTATION ( 'LargeLHNut', ( #216, #10 ), #103 ) ;
#219 = DIRECTION ( 'NONE',  ( 0.9973372246528242600, 0.0000000000000000000, -0.07292777469388400700 ) ) ;
#220 = DIRECTION ( 'NONE',  ( 0.0000000000000000000, 0.0000000000000000000, 1.000000000000000000 ) ) ;
#221 = DIRECTION ( 'NONE',  ( -0.0000000000000000000, 1.000000000000000000, -0.0000000000000000000 ) ) ;
#222 = CARTESIAN_POINT ( 'NONE',  ( 11.56635822994194400, 0.0000000000000000000, -23.90716818508599000 ) ) ;
#223 = CARTESIAN_POINT ( 'NONE',  ( 0.0000000000000000000, 0.0000000000000000000, 0.0000000000000000000 ) ) ;
#224 = DIRECTION ( 'NONE',  ( -0.0000000000000000000, -1.000000000000000000, -0.0000000000000000000 ) ) ;
#225 = VERTEX_POINT ( 'NONE', #291 ) ;
#226 = DIRECTION ( 'NONE',  ( -0.9973372246528242600, 0.0000000000000000000, 0.07292777469388359000 ) ) ;
#227 = CARTESIAN_POINT ( 'NONE',  ( 0.0000000000000000000, 0.0000000000000000000, 0.0000000000000000000 ) ) ;
#228 = DIRECTION ( 'NONE',  ( -0.9973372246528242600, 0.0000000000000000000, 0.07292777469388359000 ) ) ;
#229 = CARTESIAN_POINT ( 'NONE',  ( -26.48739409580255000, 24.00000000000000000, 1.936824036142068300 ) ) ;
#230 = DIRECTION ( 'NONE',  ( 0.0000000000000000000, 1.000000000000000000, 0.0000000000000000000 ) ) ;
#231 = CARTESIAN_POINT ( 'NONE',  ( -11.56635822994193900, 24.00000000000000000, 23.90716818508601400 ) ) ;
#232 = DIRECTION ( 'NONE',  ( -0.0000000000000000000, -1.000000000000000000, -0.0000000000000000000 ) ) ;
#233 = DIRECTION ( 'NONE',  ( 0.0000000000000000000, 0.0000000000000000000, 1.000000000000000000 ) ) ;
#234 = DIRECTION ( 'NONE',  ( 0.0000000000000000000, 1.000000000000000000, 0.0000000000000000000 ) ) ;
#235 = VERTEX_POINT ( 'NONE', #292 ) ;
#236 = DIRECTION ( 'NONE',  ( -0.5618259178527835700, 0.0000000000000000000, -0.8272554853422715600 ) ) ;
#237 = VERTEX_POINT ( 'NONE', #278 ) ;
#238 = DIRECTION ( 'NONE',  ( 0.0000000000000000000, 0.0000000000000000000, 1.000000000000000000 ) ) ;
#239 = VERTEX_POINT ( 'NONE', #293 ) ;
#240 = CARTESIAN_POINT ( 'NONE',  ( 14.92103586586060400, 0.0000000000000000000, 21.97034414894395800 ) ) ;
#241 = CARTESIAN_POINT ( 'NONE',  ( 0.0000000000000000000, 24.00000000000000000, 0.0000000000000000000 ) ) ;
#242 = DIRECTION ( 'NONE',  ( 0.0000000000000000000, 1.000000000000000000, 0.0000000000000000000 ) ) ;
#243 = VERTEX_POINT ( 'NONE', #287 ) ;
#244 = VERTEX_POINT ( 'NONE', #294 ) ;
#245 = CARTESIAN_POINT ( 'NONE',  ( 0.0000000000000000000, 24.00000000000000000, 0.0000000000000000000 ) ) ;
#246 = VERTEX_POINT ( 'NONE', #290 ) ;
#247 = CARTESIAN_POINT ( 'NONE',  ( 11.56635822994194400, 24.00000000000000000, -23.90716818508599000 ) ) ;
#248 = DIRECTION ( 'NONE',  ( 0.4355113068000405200, 0.0000000000000000000, -0.9001832600361556700 ) ) ;
#249 = VERTEX_POINT ( 'NONE', #295 ) ;
#250 = DIRECTION ( 'NONE',  ( 0.4355113068000405200, 0.0000000000000000000, -0.9001832600361556700 ) ) ;
#251 = VERTEX_POINT ( 'NONE', #281 ) ;
#252 = VERTEX_POINT ( 'NONE', #296 ) ;
#253 = CARTESIAN_POINT ( 'NONE',  ( 1.836970198721029600E-015, 0.0000000000000000000, -15.00000000000000000 ) ) ;
#254 = VERTEX_POINT ( 'NONE', #297 ) ;
#255 = VERTEX_POINT ( 'NONE', #298 ) ;
#256 = VERTEX_POINT ( 'NONE', #299 ) ;
#257 = VERTEX_POINT ( 'NONE', #300 ) ;
#258 = VERTEX_POINT ( 'NONE', #301 ) ;
#259 = CARTESIAN_POINT ( 'NONE',  ( 14.92103586586060400, 24.00000000000000000, 21.97034414894395800 ) ) ;
#260 = VERTEX_POINT ( 'NONE', #302 ) ;
#261 = CARTESIAN_POINT ( 'NONE',  ( 26.48739409580255400, 0.0000000000000000000, -1.936824036142055700 ) ) ;
#262 = CARTESIAN_POINT ( 'NONE',  ( 26.48739409580255400, 24.00000000000000000, -1.936824036142055700 ) ) ;
#263 = DIRECTION ( 'NONE',  ( -0.5618259178527835700, 0.0000000000000000000, -0.8272554853422715600 ) ) ;
#264 = DIRECTION ( 'NONE',  ( 0.9973372246528242600, 0.0000000000000000000, -0.07292777469388400700 ) ) ;
#265 = CARTESIAN_POINT ( 'NONE',  ( -11.56635822994193900, 24.00000000000000000, 23.90716818508601400 ) ) ;
#266 = CARTESIAN_POINT ( 'NONE',  ( -26.48739409580255000, 0.0000000000000000000, 1.936824036142068300 ) ) ;
#267 = DIRECTION ( 'NONE',  ( 0.5618259178527834600, 0.0000000000000000000, 0.8272554853422716700 ) ) ;
#268 = CARTESIAN_POINT ( 'NONE',  ( -11.56635822994193900, 0.0000000000000000000, 23.90716818508601400 ) ) ;
#269 = CARTESIAN_POINT ( 'NONE',  ( -14.92103586586061100, 0.0000000000000000000, -21.97034414894394400 ) ) ;
#270 = CARTESIAN_POINT ( 'NONE',  ( 14.92103586586060400, 24.00000000000000000, 21.97034414894395800 ) ) ;
#271 = DIRECTION ( 'NONE',  ( -0.0000000000000000000, -1.000000000000000000, -0.0000000000000000000 ) ) ;
#272 = DIRECTION ( 'NONE',  ( 0.0000000000000000000, 1.000000000000000000, 0.0000000000000000000 ) ) ;
#273 = DIRECTION ( 'NONE',  ( 0.0000000000000000000, 0.0000000000000000000, 1.000000000000000000 ) ) ;
#274 = CARTESIAN_POINT ( 'NONE',  ( 11.56635822994194400, 24.00000000000000000, -23.90716818508599000 ) ) ;
#275 = DIRECTION ( 'NONE',  ( -0.0000000000000000000, -1.000000000000000000, -0.0000000000000000000 ) ) ;
#276 = CARTESIAN_POINT ( 'NONE',  ( -26.48739409580255000, 24.00000000000000000, 1.936824036142068300 ) ) ;
#277 = DIRECTION ( 'NONE',  ( 0.5618259178527834600, 0.0000000000000000000, 0.8272554853422716700 ) ) ;
#278 = CARTESIAN_POINT ( 'NONE',  ( 1.836970198721029600E-015, 24.00000000000000000, -15.00000000000000000 ) ) ;
#279 = CARTESIAN_POINT ( 'NONE',  ( -14.92103586586061100, 24.00000000000000000, -21.97034414894394400 ) ) ;
#280 = DIRECTION ( 'NONE',  ( -0.0000000000000000000, -1.000000000000000000, -0.0000000000000000000 ) ) ;
#281 = CARTESIAN_POINT ( 'NONE',  ( -26.48739409580255000, 0.0000000000000000000, 1.936824036142068300 ) ) ;
#282 = DIRECTION ( 'NONE',  ( -0.4355113068000402400, 0.0000000000000000000, 0.9001832600361556700 ) ) ;
#283 = CARTESIAN_POINT ( 'NONE',  ( 26.48739409580255400, 24.00000000000000000, -1.936824036142055700 ) ) ;
#284 = DIRECTION ( 'NONE',  ( -0.0000000000000000000, -1.000000000000000000, -0.0000000000000000000 ) ) ;
#285 = CARTESIAN_POINT ( 'NONE',  ( 0.0000000000000000000, 0.0000000000000000000, 15.00000000000000000 ) ) ;
#286 = DIRECTION ( 'NONE',  ( -0.0000000000000000000, 1.000000000000000000, -0.0000000000000000000 ) ) ;
#287 = CARTESIAN_POINT ( 'NONE',  ( 0.0000000000000000000, 0.0000000000000000000, 15.00000000000000000 ) ) ;
#288 = CARTESIAN_POINT ( 'NONE',  ( -14.92103586586061100, 24.00000000000000000, -21.97034414894394400 ) ) ;
#289 = DIRECTION ( 'NONE',  ( -0.4355113068000402400, 0.0000000000000000000, 0.9001832600361556700 ) ) ;
#290 = CARTESIAN_POINT ( 'NONE',  ( -11.56635822994193900, 0.0000000000000000000, 23.90716818508601400 ) ) ;
#291 = CARTESIAN_POINT ( 'NONE',  ( 11.56635822994194400, 24.00000000000000000, -23.90716818508599000 ) ) ;
#292 = CARTESIAN_POINT ( 'NONE',  ( 26.48739409580255400, 24.00000000000000000, -1.936824036142055700 ) ) ;
#293 = CARTESIAN_POINT ( 'NONE',  ( -14.92103586586061100, 0.0000000000000000000, -21.97034414894394400 ) ) ;
#294 = CARTESIAN_POINT ( 'NONE',  ( 1.836970198721029600E-015, 0.0000000000000000000, -15.00000000000000000 ) ) ;
#295 = CARTESIAN_POINT ( 'NONE',  ( 0.0000000000000000000, 24.00000000000000000, 15.00000000000000000 ) ) ;
#296 = CARTESIAN_POINT ( 'NONE',  ( 14.92103586586060400, 0.0000000000000000000, 21.97034414894395800 ) ) ;
#297 = CARTESIAN_POINT ( 'NONE',  ( -26.48739409580255000, 24.00000000000000000, 1.936824036142068300 ) ) ;
#298 = CARTESIAN_POINT ( 'NONE',  ( 14.92103586586060400, 24.00000000000000000, 21.97034414894395800 ) ) ;
#299 = CARTESIAN_POINT ( 'NONE',  ( 11.56635822994194400, 0.0000000000000000000, -23.90716818508599000 ) ) ;
#300 = CARTESIAN_POINT ( 'NONE',  ( -14.92103586586061100, 24.00000000000000000, -21.97034414894394400 ) ) ;
#301 = CARTESIAN_POINT ( 'NONE',  ( -11.56635822994193900, 24.00000000000000000, 23.90716818508601400 ) ) ;
#302 = CARTESIAN_POINT ( 'NONE',  ( 26.48739409580255400, 0.0000000000000000000, -1.936824036142055700 ) ) ;
#303 = CARTESIAN_POINT ( 'NONE',  ( 26.48739409580255400, 24.00000000000000000, -1.936824036142055700 ) ) ;
#304 = CARTESIAN_POINT ( 'NONE',  ( 14.92103586586060300, 24.00000000000000000, 21.97034414894396200 ) ) ;
#305 = PLANE ( 'NONE',  #12 ) ;
#306 = CARTESIAN_POINT ( 'NONE',  ( -26.48739409580255000, 24.00000000000000000, 1.936824036142068300 ) ) ;
#307 = PLANE ( 'NONE',  #1 ) ;
#308 = DIRECTION ( 'NONE',  ( 0.0000000000000000000, 1.000000000000000000, 0.0000000000000000000 ) ) ;
#309 = DIRECTION ( 'NONE',  ( 0.0000000000000000000, -0.0000000000000000000, 1.000000000000000000 ) ) ;
#310 = CARTESIAN_POINT ( 'NONE',  ( 11.56635822994194400, 24.00000000000000000, -23.90716818508599000 ) ) ;
#311 = PLANE ( 'NONE',  #33 ) ;
#312 = DIRECTION ( 'NONE',  ( 0.8272554853422716700, 0.0000000000000000000, -0.5618259178527834600 ) ) ;
#313 = DIRECTION ( 'NONE',  ( -0.5618259178527834600, 0.0000000000000000000, -0.8272554853422716700 ) ) ;
#314 = CARTESIAN_POINT ( 'NONE',  ( -14.92103586586061100, 24.00000000000000000, -21.97034414894394400 ) ) ;
#315 = PLANE ( 'NONE',  #35 ) ;
#316 = DIRECTION ( 'NONE',  ( -0.8272554853422715600, 0.0000000000000000000, 0.5618259178527835700 ) ) ;
#317 = DIRECTION ( 'NONE',  ( 0.5618259178527835700, 0.0000000000000000000, 0.8272554853422715600 ) ) ;
#318 = CARTESIAN_POINT ( 'NONE',  ( 14.92103586586060400, 24.00000000000000000, 21.97034414894395800 ) ) ;
#319 = PLANE ( 'NONE',  #11 ) ;
#320 = DIRECTION ( 'NONE',  ( 0.07292777469388360400, -0.0000000000000000000, 0.9973372246528243700 ) ) ;
#321 = DIRECTION ( 'NONE',  ( 0.9973372246528242600, 0.0000000000000000000, -0.07292777469388359000 ) ) ;
#322 = CARTESIAN_POINT ( 'NONE',  ( 0.0000000000000000000, 0.0000000000000000000, 0.0000000000000000000 ) ) ;
#323 = PLANE ( 'NONE',  #34 ) ;
#324 = DIRECTION ( 'NONE',  ( 0.9001832600361557900, -0.0000000000000000000, 0.4355113068000403500 ) ) ;
#325 = DIRECTION ( 'NONE',  ( 0.4355113068000403000, 0.0000000000000000000, -0.9001832600361556700 ) ) ;
#326 = PLANE ( 'NONE',  #36 ) ;
#327 = CARTESIAN_POINT ( 'NONE',  ( 14.92103586586060300, 0.0000000000000000000, 21.97034414894396200 ) ) ;
#328 = DIRECTION ( 'NONE',  ( -0.9001832600361556700, 0.0000000000000000000, -0.4355113068000405200 ) ) ;
#329 = DIRECTION ( 'NONE',  ( -0.4355113068000405200, 0.0000000000000000000, 0.9001832600361556700 ) ) ;
#330 = DIRECTION ( 'NONE',  ( -0.0000000000000000000, 1.000000000000000000, -0.0000000000000000000 ) ) ;
#331 = DIRECTION ( 'NONE',  ( 0.0000000000000000000, 0.0000000000000000000, 1.000000000000000000 ) ) ;
#332 = DIRECTION ( 'NONE',  ( 0.0000000000000000000, 1.000000000000000000, 0.0000000000000000000 ) ) ;
#333 = DIRECTION ( 'NONE',  ( 0.0000000000000000000, -0.0000000000000000000, 1.000000000000000000 ) ) ;
#334 = DIRECTION ( 'NONE',  ( 0.0000000000000000000, 0.0000000000000000000, 1.000000000000000000 ) ) ;
#335 = CARTESIAN_POINT ( 'NONE',  ( -11.56635822994193900, 24.00000000000000000, 23.90716818508601400 ) ) ;
#336 = DIRECTION ( 'NONE',  ( -0.0000000000000000000, 1.000000000000000000, -0.0000000000000000000 ) ) ;
#337 = CARTESIAN_POINT ( 'NONE',  ( 0.0000000000000000000, 0.0000000000000000000, 0.0000000000000000000 ) ) ;
#338 = PLANE ( 'NONE',  #39 ) ;
#339 =( NAMED_UNIT ( * ) PLANE_ANGLE_UNIT ( ) SI_UNIT ( $, .RADIAN. ) );
#340 =( LENGTH_UNIT ( ) NAMED_UNIT ( * ) SI_UNIT ( .MILLI., .METRE. ) );
#341 = DIRECTION ( 'NONE',  ( -0.07292777469388400700, 0.0000000000000000000, -0.9973372246528242600 ) ) ;
#342 = DIRECTION ( 'NONE',  ( -0.9973372246528242600, 0.0000000000000000000, 0.07292777469388400700 ) ) ;
#343 =( NAMED_UNIT ( * ) SI_UNIT ( $, .STERADIAN. ) SOLID_ANGLE_UNIT ( ) );
#344 = CARTESIAN_POINT ( 'NONE',  ( 0.0000000000000000000, 0.0000000000000000000, 0.0000000000000000000 ) ) ;
#345 = DIRECTION ( 'NONE',  ( 0.0000000000000000000, 0.0000000000000000000, 1.000000000000000000 ) ) ;
#346 = DIRECTION ( 'NONE',  ( 1.000000000000000000, 0.0000000000000000000, 0.0000000000000000000 ) ) ;
#347 = APPLICATION_CONTEXT ( 'configuration controlled 3d designs of mechanical parts and assemblies' ) ;
#348 = APPLICATION_PROTOCOL_DEFINITION ( 'international standard', 'config_control_design', 1994, #347 ) ;
#349 = MECHANICAL_CONTEXT ( 'NONE', #347, 'mechanical' ) ;
#350 = PERSON_AND_ORGANIZATION_ROLE ( 'design_owner' ) ;
#351 = APPLICATION_CONTEXT ( 'configuration controlled 3d designs of mechanical parts and assemblies' ) ;
#352 = APPLICATION_PROTOCOL_DEFINITION ( 'international standard', 'config_control_design', 1994, #351 ) ;
#353 = APPROVAL_STATUS ( 'not_yet_approved' ) ;
#354 = APPROVAL_ROLE ( '' ) ;
#355 = PERSON_AND_ORGANIZATION_ROLE ( 'creator' ) ;
#356 = DATE_TIME_ROLE ( 'creation_date' ) ;
#357 = APPROVAL_STATUS ( 'not_yet_approved' ) ;
#358 = APPROVAL_ROLE ( '' ) ;
#359 = PERSON_AND_ORGANIZATION_ROLE ( 'creator' ) ;
#360 = PERSON_AND_ORGANIZATION_ROLE ( 'design_supplier' ) ;
#361 = SECURITY_CLASSIFICATION_LEVEL ( 'unclassified' ) ;
#362 = PERSON_AND_ORGANIZATION_ROLE ( 'classification_officer' ) ;
#363 = DATE_TIME_ROLE ( 'classification_date' ) ;
#364 = APPROVAL_STATUS ( 'not_yet_approved' ) ;
#365 = APPROVAL_ROLE ( '' ) ;
#366 = PERSON ( 'UNSPECIFIED', 'UNSPECIFIED', 'UNSPECIFIED', ('UNSPECIFIED'), ('UNSPECIFIED'), ('UNSPECIFIED') ) ;
#367 = PRODUCT ( 'LargeLHNut', 'LargeLHNut', '', ( #349 ) ) ;
#368 = ADVANCED_FACE ( 'NONE', ( #114, #201 ), #305, .T. ) ;
#369 = ADVANCED_FACE ( 'NONE', ( #115 ), #307, .F. ) ;
#370 = ADVANCED_FACE ( 'NONE', ( #63 ), #311, .F. ) ;
#371 = ADVANCED_FACE ( 'NONE', ( #72 ), #315, .F. ) ;
#372 = ADVANCED_FACE ( 'NONE', ( #208 ), #319, .F. ) ;
#373 = ADVANCED_FACE ( 'NONE', ( #113 ), #323, .F. ) ;
#374 = ADVANCED_FACE ( 'NONE', ( #64, #70 ), #326, .F. ) ;
#375 = ADVANCED_FACE ( 'NONE', ( #78 ), #162, .F. ) ;
#376 = ADVANCED_FACE ( 'NONE', ( #107 ), #108, .F. ) ;
#377 = ADVANCED_FACE ( 'NONE', ( #77 ), #338, .F. ) ;
ENDSEC;
END-ISO-10303-21;
