ISO-10303-21;
HEADER;
FILE_DESCRIPTION (( 'STEP AP203' ),
    '1' );
FILE_NAME ('CouplingSetscrew.STEP',
    '2012-05-24T02:55:37',
    ( '' ),
    ( '' ),
    'SwSTEP 2.0',
    'SolidWorks 2010',
    '' );
FILE_SCHEMA (( 'CONFIG_CONTROL_DESIGN' ));
ENDSEC;

DATA;
#1 =( GEOMETRIC_REPRESENTATION_CONTEXT ( 3 ) GLOBAL_UNCERTAINTY_ASSIGNED_CONTEXT ( ( #173 ) ) GLOBAL_UNIT_ASSIGNED_CONTEXT ( ( #43, #45, #44 ) ) REPRESENTATION_CONTEXT ( 'NONE', 'WORKASPACE' ) );
#2 = COORDINATED_UNIVERSAL_TIME_OFFSET ( 6, 0, .BEHIND. ) ;
#3 = SHAPE_DEFINITION_REPRESENTATION ( #174, #171 ) ;
#4 = PERSON_AND_ORGANIZATION ( #121, #5 ) ;
#5 = ORGANIZATION ( 'UNSPECIFIED', 'UNSPECIFIED', '' ) ;
#6 = APPROVAL_PERSON_ORGANIZATION ( #7, #168, #27 ) ;
#7 = PERSON_AND_ORGANIZATION ( #121, #5 ) ;
#8 = LOCAL_TIME ( 21, 55, 37.00000000000000000, #2 ) ;
#9 = ADVANCED_FACE ( 'NONE', ( #133 ), #131, .T. ) ;
#10 = ADVANCED_FACE ( 'NONE', ( #134 ), #75, .T. ) ;
#11 = ADVANCED_FACE ( 'NONE', ( #132 ), #129, .T. ) ;
#12 = ADVANCED_FACE ( 'NONE', ( #138 ), #70, .F. ) ;
#13 = APPROVAL_STATUS ( 'not_yet_approved' ) ;
#14 = DATE_TIME_ROLE ( 'classification_date' ) ;
#15 = PERSON_AND_ORGANIZATION_ROLE ( 'classification_officer' ) ;
#16 = SECURITY_CLASSIFICATION_LEVEL ( 'unclassified' ) ;
#17 = DIRECTION ( 'NONE',  ( -0.0000000000000000000, -1.000000000000000000, -0.0000000000000000000 ) ) ;
#18 = PERSON_AND_ORGANIZATION_ROLE ( 'design_supplier' ) ;
#19 = PERSON_AND_ORGANIZATION_ROLE ( 'creator' ) ;
#20 = APPROVAL_ROLE ( '' ) ;
#21 = DIRECTION ( 'NONE',  ( 0.0000000000000000000, 1.000000000000000000, 0.0000000000000000000 ) ) ;
#22 = APPROVAL_STATUS ( 'not_yet_approved' ) ;
#23 = DIRECTION ( 'NONE',  ( 0.0000000000000000000, 0.0000000000000000000, -1.000000000000000000 ) ) ;
#24 = CARTESIAN_POINT ( 'NONE',  ( 0.0000000000000000000, 10.00000000000000000, 0.0000000000000000000 ) ) ;
#25 = DATE_TIME_ROLE ( 'creation_date' ) ;
#26 = PERSON_AND_ORGANIZATION_ROLE ( 'creator' ) ;
#27 = APPROVAL_ROLE ( '' ) ;
#28 = APPROVAL_STATUS ( 'not_yet_approved' ) ;
#29 = APPLICATION_PROTOCOL_DEFINITION ( 'international standard', 'config_control_design', 1994, #30 ) ;
#30 = APPLICATION_CONTEXT ( 'configuration controlled 3d designs of mechanical parts and assemblies' ) ;
#31 = PERSON_AND_ORGANIZATION_ROLE ( 'design_owner' ) ;
#32 = MECHANICAL_CONTEXT ( 'NONE', #38, 'mechanical' ) ;
#33 = DIRECTION ( 'NONE',  ( 0.0000000000000000000, 0.0000000000000000000, -1.000000000000000000 ) ) ;
#34 = CARTESIAN_POINT ( 'NONE',  ( 0.0000000000000000000, 10.00000000000000000, 0.0000000000000000000 ) ) ;
#35 = APPLICATION_PROTOCOL_DEFINITION ( 'international standard', 'config_control_design', 1994, #38 ) ;
#36 = APPROVAL_ROLE ( '' ) ;
#37 = DIRECTION ( 'NONE',  ( 0.0000000000000000000, 0.0000000000000000000, 1.000000000000000000 ) ) ;
#38 = APPLICATION_CONTEXT ( 'configuration controlled 3d designs of mechanical parts and assemblies' ) ;
#39 = DIRECTION ( 'NONE',  ( 1.000000000000000000, 0.0000000000000000000, 0.0000000000000000000 ) ) ;
#40 = CARTESIAN_POINT ( 'NONE',  ( 0.0000000000000000000, 0.0000000000000000000, 0.0000000000000000000 ) ) ;
#41 = VERTEX_POINT ( 'NONE', #69 ) ;
#42 = DIRECTION ( 'NONE',  ( 0.0000000000000000000, 0.0000000000000000000, 1.000000000000000000 ) ) ;
#43 =( LENGTH_UNIT ( ) NAMED_UNIT ( * ) SI_UNIT ( .MILLI., .METRE. ) );
#44 =( NAMED_UNIT ( * ) SI_UNIT ( $, .STERADIAN. ) SOLID_ANGLE_UNIT ( ) );
#45 =( NAMED_UNIT ( * ) PLANE_ANGLE_UNIT ( ) SI_UNIT ( $, .RADIAN. ) );
#46 = DIRECTION ( 'NONE',  ( 0.0000000000000000000, 0.0000000000000000000, 1.000000000000000000 ) ) ;
#47 = DIRECTION ( 'NONE',  ( -0.0000000000000000000, -1.000000000000000000, -0.0000000000000000000 ) ) ;
#48 = CARTESIAN_POINT ( 'NONE',  ( 0.0000000000000000000, 10.00000000000000000, -3.999999999999996400 ) ) ;
#49 = DIRECTION ( 'NONE',  ( 0.0000000000000000000, 1.000000000000000000, 0.0000000000000000000 ) ) ;
#50 = CARTESIAN_POINT ( 'NONE',  ( 0.0000000000000000000, 0.0000000000000000000, 0.0000000000000000000 ) ) ;
#51 = DIRECTION ( 'NONE',  ( 0.0000000000000000000, 0.0000000000000000000, 1.000000000000000000 ) ) ;
#52 = DIRECTION ( 'NONE',  ( 0.0000000000000000000, 1.000000000000000000, 0.0000000000000000000 ) ) ;
#53 = DIRECTION ( 'NONE',  ( 0.0000000000000000000, 1.000000000000000000, 0.0000000000000000000 ) ) ;
#54 = CARTESIAN_POINT ( 'NONE',  ( 0.0000000000000000000, 10.00000000000000000, 0.0000000000000000000 ) ) ;
#55 = CARTESIAN_POINT ( 'NONE',  ( 0.0000000000000000000, 10.00000000000000000, 0.0000000000000000000 ) ) ;
#56 = DIRECTION ( 'NONE',  ( -0.0000000000000000000, -1.000000000000000000, -0.0000000000000000000 ) ) ;
#57 = CARTESIAN_POINT ( 'NONE',  ( 0.0000000000000000000, 0.0000000000000000000, 0.0000000000000000000 ) ) ;
#58 = DIRECTION ( 'NONE',  ( 0.0000000000000000000, 0.0000000000000000000, 1.000000000000000000 ) ) ;
#59 = DIRECTION ( 'NONE',  ( 0.0000000000000000000, 1.000000000000000000, 0.0000000000000000000 ) ) ;
#60 = CARTESIAN_POINT ( 'NONE',  ( 0.0000000000000000000, 10.00000000000000000, 0.0000000000000000000 ) ) ;
#61 = VERTEX_POINT ( 'NONE', #68 ) ;
#62 = CARTESIAN_POINT ( 'NONE',  ( 4.898587196589408900E-016, 10.00000000000000000, 3.999999999999996400 ) ) ;
#63 = VERTEX_POINT ( 'NONE', #64 ) ;
#64 = CARTESIAN_POINT ( 'NONE',  ( 0.0000000000000000000, 0.0000000000000000000, -3.999999999999996400 ) ) ;
#65 = DIRECTION ( 'NONE',  ( 0.0000000000000000000, -0.0000000000000000000, 1.000000000000000000 ) ) ;
#66 = VERTEX_POINT ( 'NONE', #72 ) ;
#67 = DIRECTION ( 'NONE',  ( 0.0000000000000000000, 1.000000000000000000, 0.0000000000000000000 ) ) ;
#68 = CARTESIAN_POINT ( 'NONE',  ( 0.0000000000000000000, 10.00000000000000000, -3.999999999999996400 ) ) ;
#69 = CARTESIAN_POINT ( 'NONE',  ( 4.898587196589408900E-016, 10.00000000000000000, 3.999999999999996400 ) ) ;
#70 = PLANE ( 'NONE',  #81 ) ;
#71 = DIRECTION ( 'NONE',  ( -0.0000000000000000000, -1.000000000000000000, -0.0000000000000000000 ) ) ;
#72 = CARTESIAN_POINT ( 'NONE',  ( 4.898587196589408900E-016, 0.0000000000000000000, 3.999999999999996400 ) ) ;
#73 = CARTESIAN_POINT ( 'NONE',  ( 0.0000000000000000000, 0.0000000000000000000, 0.0000000000000000000 ) ) ;
#74 = DIRECTION ( 'NONE',  ( 0.0000000000000000000, -0.0000000000000000000, 1.000000000000000000 ) ) ;
#75 = PLANE ( 'NONE',  #88 ) ;
#76 = EDGE_CURVE ( 'NONE', #61, #41, #126, .T. ) ;
#77 = AXIS2_PLACEMENT_3D ( 'NONE', #50, #49, #37 ) ;
#78 = AXIS2_PLACEMENT_3D ( 'NONE', #40, #46, #39 ) ;
#79 = AXIS2_PLACEMENT_3D ( 'NONE', #54, #53, #42 ) ;
#80 = EDGE_CURVE ( 'NONE', #41, #66, #127, .T. ) ;
#81 = AXIS2_PLACEMENT_3D ( 'NONE', #73, #67, #65 ) ;
#82 = AXIS2_PLACEMENT_3D ( 'NONE', #34, #17, #23 ) ;
#83 = EDGE_CURVE ( 'NONE', #41, #61, #124, .T. ) ;
#84 = AXIS2_PLACEMENT_3D ( 'NONE', #55, #71, #33 ) ;
#85 = EDGE_CURVE ( 'NONE', #63, #66, #123, .T. ) ;
#86 = AXIS2_PLACEMENT_3D ( 'NONE', #60, #59, #58 ) ;
#87 = AXIS2_PLACEMENT_3D ( 'NONE', #57, #52, #51 ) ;
#88 = AXIS2_PLACEMENT_3D ( 'NONE', #24, #21, #74 ) ;
#89 = EDGE_CURVE ( 'NONE', #66, #63, #122, .T. ) ;
#90 = EDGE_CURVE ( 'NONE', #61, #63, #130, .T. ) ;
#91 = APPROVAL_DATE_TIME ( #92, #156 ) ;
#92 = DATE_AND_TIME ( #93, #94 ) ;
#93 = CALENDAR_DATE ( 2012, 23, 5 ) ;
#94 = LOCAL_TIME ( 21, 55, 37.00000000000000000, #95 ) ;
#95 = COORDINATED_UNIVERSAL_TIME_OFFSET ( 6, 0, .BEHIND. ) ;
#96 = APPROVAL_PERSON_ORGANIZATION ( #97, #156, #36 ) ;
#97 = PERSON_AND_ORGANIZATION ( #121, #5 ) ;
#98 = DATE_AND_TIME ( #99, #100 ) ;
#99 = CALENDAR_DATE ( 2012, 23, 5 ) ;
#100 = LOCAL_TIME ( 21, 55, 37.00000000000000000, #101 ) ;
#101 = COORDINATED_UNIVERSAL_TIME_OFFSET ( 6, 0, .BEHIND. ) ;
#102 = PERSON_AND_ORGANIZATION ( #121, #5 ) ;
#103 = PERSON_AND_ORGANIZATION ( #121, #5 ) ;
#104 = PERSON_AND_ORGANIZATION ( #121, #5 ) ;
#105 = APPROVAL_DATE_TIME ( #106, #163 ) ;
#106 = DATE_AND_TIME ( #107, #108 ) ;
#107 = CALENDAR_DATE ( 2012, 23, 5 ) ;
#108 = LOCAL_TIME ( 21, 55, 37.00000000000000000, #109 ) ;
#109 = COORDINATED_UNIVERSAL_TIME_OFFSET ( 6, 0, .BEHIND. ) ;
#110 = APPROVAL_PERSON_ORGANIZATION ( #111, #163, #20 ) ;
#111 = PERSON_AND_ORGANIZATION ( #121, #5 ) ;
#112 = DATE_AND_TIME ( #113, #114 ) ;
#113 = CALENDAR_DATE ( 2012, 23, 5 ) ;
#114 = LOCAL_TIME ( 21, 55, 37.00000000000000000, #115 ) ;
#115 = COORDINATED_UNIVERSAL_TIME_OFFSET ( 6, 0, .BEHIND. ) ;
#116 = PERSON_AND_ORGANIZATION ( #121, #5 ) ;
#117 = APPROVAL_DATE_TIME ( #118, #168 ) ;
#118 = DATE_AND_TIME ( #119, #8 ) ;
#119 = CALENDAR_DATE ( 2012, 23, 5 ) ;
#120 = PRODUCT ( 'CouplingSetscrew', 'CouplingSetscrew', '', ( #32 ) ) ;
#121 = PERSON ( 'UNSPECIFIED', 'UNSPECIFIED', 'UNSPECIFIED', ('UNSPECIFIED'), ('UNSPECIFIED'), ('UNSPECIFIED') ) ;
#122 = CIRCLE ( 'NONE', #77, 3.999999999999996400 ) ;
#123 = CIRCLE ( 'NONE', #87, 3.999999999999996400 ) ;
#124 = CIRCLE ( 'NONE', #79, 3.999999999999996400 ) ;
#125 = VECTOR ( 'NONE', #47, 1000.000000000000000 ) ;
#126 = CIRCLE ( 'NONE', #86, 3.999999999999996400 ) ;
#127 = LINE ( 'NONE', #62, #128 ) ;
#128 = VECTOR ( 'NONE', #56, 1000.000000000000000 ) ;
#129 = CYLINDRICAL_SURFACE ( 'NONE', #82, 3.999999999999996400 ) ;
#130 = LINE ( 'NONE', #48, #125 ) ;
#131 = CYLINDRICAL_SURFACE ( 'NONE', #84, 3.999999999999996400 ) ;
#132 = FACE_OUTER_BOUND ( 'NONE', #139, .T. ) ;
#133 = FACE_OUTER_BOUND ( 'NONE', #142, .T. ) ;
#134 = FACE_OUTER_BOUND ( 'NONE', #146, .T. ) ;
#135 = ORIENTED_EDGE ( 'NONE', *, *, #90, .T. ) ;
#136 = ORIENTED_EDGE ( 'NONE', *, *, #85, .F. ) ;
#137 = ORIENTED_EDGE ( 'NONE', *, *, #76, .F. ) ;
#138 = FACE_OUTER_BOUND ( 'NONE', #141, .T. ) ;
#139 = EDGE_LOOP ( 'NONE', ( #147, #149, #143, #152 ) ) ;
#140 = ORIENTED_EDGE ( 'NONE', *, *, #89, .F. ) ;
#141 = EDGE_LOOP ( 'NONE', ( #136, #140 ) ) ;
#142 = EDGE_LOOP ( 'NONE', ( #145, #137, #135, #144 ) ) ;
#143 = ORIENTED_EDGE ( 'NONE', *, *, #89, .T. ) ;
#144 = ORIENTED_EDGE ( 'NONE', *, *, #85, .T. ) ;
#145 = ORIENTED_EDGE ( 'NONE', *, *, #80, .F. ) ;
#146 = EDGE_LOOP ( 'NONE', ( #150, #151 ) ) ;
#147 = ORIENTED_EDGE ( 'NONE', *, *, #83, .F. ) ;
#148 = CLOSED_SHELL ( 'NONE', ( #11, #9, #10, #12 ) ) ;
#149 = ORIENTED_EDGE ( 'NONE', *, *, #80, .T. ) ;
#150 = ORIENTED_EDGE ( 'NONE', *, *, #76, .T. ) ;
#151 = ORIENTED_EDGE ( 'NONE', *, *, #83, .T. ) ;
#152 = ORIENTED_EDGE ( 'NONE', *, *, #90, .F. ) ;
#153 = PRODUCT_RELATED_PRODUCT_CATEGORY ( 'detail', '', ( #120 ) ) ;
#154 = CC_DESIGN_SECURITY_CLASSIFICATION ( #159, ( #164 ) ) ;
#155 = CC_DESIGN_APPROVAL ( #156, ( #159 ) ) ;
#156 = APPROVAL ( #13, 'UNSPECIFIED' ) ;
#157 = CC_DESIGN_DATE_AND_TIME_ASSIGNMENT ( #98, #14, ( #159 ) ) ;
#158 = CC_DESIGN_PERSON_AND_ORGANIZATION_ASSIGNMENT ( #102, #15, ( #159 ) ) ;
#159 = SECURITY_CLASSIFICATION ( '', '', #16 ) ;
#160 = CC_DESIGN_PERSON_AND_ORGANIZATION_ASSIGNMENT ( #103, #18, ( #164 ) ) ;
#161 = CC_DESIGN_PERSON_AND_ORGANIZATION_ASSIGNMENT ( #104, #19, ( #164 ) ) ;
#162 = CC_DESIGN_APPROVAL ( #163, ( #164 ) ) ;
#163 = APPROVAL ( #22, 'UNSPECIFIED' ) ;
#164 = PRODUCT_DEFINITION_FORMATION_WITH_SPECIFIED_SOURCE ( 'ANY', '', #120, .NOT_KNOWN. ) ;
#165 = CC_DESIGN_DATE_AND_TIME_ASSIGNMENT ( #112, #25, ( #169 ) ) ;
#166 = CC_DESIGN_PERSON_AND_ORGANIZATION_ASSIGNMENT ( #116, #26, ( #169 ) ) ;
#167 = CC_DESIGN_APPROVAL ( #168, ( #169 ) ) ;
#168 = APPROVAL ( #28, 'UNSPECIFIED' ) ;
#169 = PRODUCT_DEFINITION ( 'UNKNOWN', '', #164, #175 ) ;
#170 = CC_DESIGN_PERSON_AND_ORGANIZATION_ASSIGNMENT ( #4, #31, ( #120 ) ) ;
#171 = ADVANCED_BREP_SHAPE_REPRESENTATION ( 'CouplingSetscrew', ( #172, #78 ), #1 ) ;
#172 = MANIFOLD_SOLID_BREP ( 'Boss-Extrude1', #148 ) ;
#173 = UNCERTAINTY_MEASURE_WITH_UNIT (LENGTH_MEASURE( 1.000000000000000100E-005 ), #43, 'distance_accuracy_value', 'NONE');
#174 = PRODUCT_DEFINITION_SHAPE ( 'NONE', 'NONE',  #169 ) ;
#175 = DESIGN_CONTEXT ( 'detailed design', #30, 'design' ) ;
ENDSEC;
END-ISO-10303-21;
