ISO-10303-21;
HEADER;
FILE_DESCRIPTION (( 'STEP AP203' ),
    '1' );
FILE_NAME ('SpindleNut.STEP',
    '2012-05-24T02:06:47',
    ( '' ),
    ( '' ),
    'SwSTEP 2.0',
    'SolidWorks 2010',
    '' );
FILE_SCHEMA (( 'CONFIG_CONTROL_DESIGN' ));
ENDSEC;

DATA;
#1 = DIRECTION ( 'NONE',  ( -0.0000000000000000000, -1.000000000000000000, -0.0000000000000000000 ) ) ;
#2 = DIRECTION ( 'NONE',  ( 0.0000000000000000000, 0.0000000000000000000, 1.000000000000000000 ) ) ;
#3 =( NAMED_UNIT ( * ) SI_UNIT ( $, .STERADIAN. ) SOLID_ANGLE_UNIT ( ) );
#4 = DIRECTION ( 'NONE',  ( 0.0000000000000000000, 0.0000000000000000000, 1.000000000000000000 ) ) ;
#5 = DIRECTION ( 'NONE',  ( 0.0000000000000000000, 1.000000000000000000, 0.0000000000000000000 ) ) ;
#6 = PERSON_AND_ORGANIZATION_ROLE ( 'creator' ) ;
#7 = CARTESIAN_POINT ( 'NONE',  ( 0.0000000000000000000, 0.0000000000000000000, 0.0000000000000000000 ) ) ;
#8 = PERSON_AND_ORGANIZATION_ROLE ( 'creator' ) ;
#9 = DIRECTION ( 'NONE',  ( 1.000000000000000000, 0.0000000000000000000, 0.0000000000000000000 ) ) ;
#10 = DIRECTION ( 'NONE',  ( -0.0000000000000000000, 1.000000000000000000, -0.0000000000000000000 ) ) ;
#11 = CARTESIAN_POINT ( 'NONE',  ( 0.0000000000000000000, 0.0000000000000000000, 0.0000000000000000000 ) ) ;
#12 = CARTESIAN_POINT ( 'NONE',  ( 2.914659381970700800E-015, 27.00000000000000000, 23.80000000000000100 ) ) ;
#13 = APPROVAL_ROLE ( '' ) ;
#14 = CARTESIAN_POINT ( 'NONE',  ( 0.0000000000000000000, 27.00000000000000000, 0.0000000000000000000 ) ) ;
#15 = DIRECTION ( 'NONE',  ( 0.0000000000000000000, 0.0000000000000000000, 1.000000000000000000 ) ) ;
#16 = DIRECTION ( 'NONE',  ( -0.0000000000000000000, -1.000000000000000000, -0.0000000000000000000 ) ) ;
#17 = CARTESIAN_POINT ( 'NONE',  ( 0.0000000000000000000, 0.0000000000000000000, 0.0000000000000000000 ) ) ;
#18 = DIRECTION ( 'NONE',  ( 0.0000000000000000000, 1.000000000000000000, 0.0000000000000000000 ) ) ;
#19 = CARTESIAN_POINT ( 'NONE',  ( 0.0000000000000000000, 27.00000000000000000, -23.80000000000000100 ) ) ;
#20 = DIRECTION ( 'NONE',  ( 0.0000000000000000000, 0.0000000000000000000, 1.000000000000000000 ) ) ;
#21 = DIRECTION ( 'NONE',  ( 0.0000000000000000000, 1.000000000000000000, 0.0000000000000000000 ) ) ;
#22 = CARTESIAN_POINT ( 'NONE',  ( 0.0000000000000000000, 0.0000000000000000000, 15.90000000000000000 ) ) ;
#23 = CARTESIAN_POINT ( 'NONE',  ( 0.0000000000000000000, 27.00000000000000000, 0.0000000000000000000 ) ) ;
#24 = APPLICATION_PROTOCOL_DEFINITION ( 'international standard', 'config_control_design', 1994, #90 ) ;
#25 = CARTESIAN_POINT ( 'NONE',  ( 1.947188410644291800E-015, 0.0000000000000000000, -15.90000000000000000 ) ) ;
#26 = PLANE ( 'NONE',  #122 ) ;
#27 = DIRECTION ( 'NONE',  ( 0.0000000000000000000, 0.0000000000000000000, 1.000000000000000000 ) ) ;
#28 = DATE_TIME_ROLE ( 'classification_date' ) ;
#29 = DIRECTION ( 'NONE',  ( -0.0000000000000000000, -1.000000000000000000, -0.0000000000000000000 ) ) ;
#30 = CARTESIAN_POINT ( 'NONE',  ( 0.0000000000000000000, 0.0000000000000000000, -23.80000000000000100 ) ) ;
#31 = CARTESIAN_POINT ( 'NONE',  ( 1.947188410644291800E-015, 0.0000000000000000000, -15.90000000000000000 ) ) ;
#32 = CARTESIAN_POINT ( 'NONE',  ( 0.0000000000000000000, 0.0000000000000000000, 15.90000000000000000 ) ) ;
#33 = APPLICATION_PROTOCOL_DEFINITION ( 'international standard', 'config_control_design', 1994, #70 ) ;
#34 = PERSON_AND_ORGANIZATION_ROLE ( 'design_supplier' ) ;
#35 = DIRECTION ( 'NONE',  ( 0.0000000000000000000, 1.000000000000000000, 0.0000000000000000000 ) ) ;
#36 = DIRECTION ( 'NONE',  ( -0.0000000000000000000, 1.000000000000000000, -0.0000000000000000000 ) ) ;
#37 = PERSON_AND_ORGANIZATION_ROLE ( 'design_owner' ) ;
#38 = DIRECTION ( 'NONE',  ( 0.0000000000000000000, 0.0000000000000000000, 1.000000000000000000 ) ) ;
#39 = DIRECTION ( 'NONE',  ( 0.0000000000000000000, 0.0000000000000000000, 1.000000000000000000 ) ) ;
#40 = CARTESIAN_POINT ( 'NONE',  ( 0.0000000000000000000, 0.0000000000000000000, 0.0000000000000000000 ) ) ;
#41 = CARTESIAN_POINT ( 'NONE',  ( 0.0000000000000000000, 27.00000000000000000, 0.0000000000000000000 ) ) ;
#42 = DIRECTION ( 'NONE',  ( 0.0000000000000000000, 1.000000000000000000, 0.0000000000000000000 ) ) ;
#43 = DIRECTION ( 'NONE',  ( 0.0000000000000000000, 1.000000000000000000, 0.0000000000000000000 ) ) ;
#44 = CARTESIAN_POINT ( 'NONE',  ( 0.0000000000000000000, 27.00000000000000000, 0.0000000000000000000 ) ) ;
#45 = DIRECTION ( 'NONE',  ( 0.0000000000000000000, 0.0000000000000000000, -1.000000000000000000 ) ) ;
#46 = DIRECTION ( 'NONE',  ( 0.0000000000000000000, 0.0000000000000000000, -1.000000000000000000 ) ) ;
#47 = DIRECTION ( 'NONE',  ( -0.0000000000000000000, -1.000000000000000000, -0.0000000000000000000 ) ) ;
#48 = CARTESIAN_POINT ( 'NONE',  ( 0.0000000000000000000, 27.00000000000000000, 0.0000000000000000000 ) ) ;
#49 = APPROVAL_STATUS ( 'not_yet_approved' ) ;
#50 = CARTESIAN_POINT ( 'NONE',  ( 2.914659381970700800E-015, 27.00000000000000000, 23.80000000000000100 ) ) ;
#51 = DIRECTION ( 'NONE',  ( 0.0000000000000000000, 0.0000000000000000000, 1.000000000000000000 ) ) ;
#52 = CARTESIAN_POINT ( 'NONE',  ( 0.0000000000000000000, 27.00000000000000000, -23.80000000000000100 ) ) ;
#53 = CARTESIAN_POINT ( 'NONE',  ( 0.0000000000000000000, 0.0000000000000000000, 0.0000000000000000000 ) ) ;
#54 = CARTESIAN_POINT ( 'NONE',  ( 0.0000000000000000000, 27.00000000000000000, 0.0000000000000000000 ) ) ;
#55 = APPROVAL_ROLE ( '' ) ;
#56 = DIRECTION ( 'NONE',  ( 0.0000000000000000000, 1.000000000000000000, 0.0000000000000000000 ) ) ;
#57 = CARTESIAN_POINT ( 'NONE',  ( 0.0000000000000000000, 0.0000000000000000000, 0.0000000000000000000 ) ) ;
#58 = PERSON_AND_ORGANIZATION_ROLE ( 'classification_officer' ) ;
#59 =( NAMED_UNIT ( * ) PLANE_ANGLE_UNIT ( ) SI_UNIT ( $, .RADIAN. ) );
#60 = CARTESIAN_POINT ( 'NONE',  ( 0.0000000000000000000, 0.0000000000000000000, 0.0000000000000000000 ) ) ;
#61 = APPROVAL_ROLE ( '' ) ;
#62 = DIRECTION ( 'NONE',  ( 0.0000000000000000000, 0.0000000000000000000, 1.000000000000000000 ) ) ;
#63 = MECHANICAL_CONTEXT ( 'NONE', #70, 'mechanical' ) ;
#64 = VERTEX_POINT ( 'NONE', #25 ) ;
#65 = DIRECTION ( 'NONE',  ( -0.0000000000000000000, 1.000000000000000000, -0.0000000000000000000 ) ) ;
#66 = PLANE ( 'NONE',  #120 ) ;
#67 = VERTEX_POINT ( 'NONE', #91 ) ;
#68 = DIRECTION ( 'NONE',  ( -0.0000000000000000000, 1.000000000000000000, -0.0000000000000000000 ) ) ;
#69 = SECURITY_CLASSIFICATION_LEVEL ( 'unclassified' ) ;
#70 = APPLICATION_CONTEXT ( 'configuration controlled 3d designs of mechanical parts and assemblies' ) ;
#71 = DIRECTION ( 'NONE',  ( 0.0000000000000000000, 1.000000000000000000, 0.0000000000000000000 ) ) ;
#72 = CARTESIAN_POINT ( 'NONE',  ( 0.0000000000000000000, 27.00000000000000000, 0.0000000000000000000 ) ) ;
#73 = VERTEX_POINT ( 'NONE', #77 ) ;
#74 =( LENGTH_UNIT ( ) NAMED_UNIT ( * ) SI_UNIT ( .MILLI., .METRE. ) );
#75 = DIRECTION ( 'NONE',  ( 0.0000000000000000000, 1.000000000000000000, 0.0000000000000000000 ) ) ;
#76 = VERTEX_POINT ( 'NONE', #52 ) ;
#77 = CARTESIAN_POINT ( 'NONE',  ( 2.914659381970700800E-015, 0.0000000000000000000, 23.80000000000000100 ) ) ;
#78 = DIRECTION ( 'NONE',  ( 0.0000000000000000000, -0.0000000000000000000, 1.000000000000000000 ) ) ;
#79 = VERTEX_POINT ( 'NONE', #93 ) ;
#80 = DIRECTION ( 'NONE',  ( 0.0000000000000000000, -0.0000000000000000000, 1.000000000000000000 ) ) ;
#81 = VERTEX_POINT ( 'NONE', #32 ) ;
#82 = DIRECTION ( 'NONE',  ( 0.0000000000000000000, 1.000000000000000000, 0.0000000000000000000 ) ) ;
#83 = DATE_TIME_ROLE ( 'creation_date' ) ;
#84 = VERTEX_POINT ( 'NONE', #12 ) ;
#85 = DIRECTION ( 'NONE',  ( 0.0000000000000000000, 0.0000000000000000000, 1.000000000000000000 ) ) ;
#86 = DIRECTION ( 'NONE',  ( 0.0000000000000000000, 0.0000000000000000000, 1.000000000000000000 ) ) ;
#87 = APPROVAL_STATUS ( 'not_yet_approved' ) ;
#88 = VERTEX_POINT ( 'NONE', #30 ) ;
#89 = APPROVAL_STATUS ( 'not_yet_approved' ) ;
#90 = APPLICATION_CONTEXT ( 'configuration controlled 3d designs of mechanical parts and assemblies' ) ;
#91 = CARTESIAN_POINT ( 'NONE',  ( 1.947188410644291800E-015, 27.00000000000000000, -15.90000000000000000 ) ) ;
#92 = CARTESIAN_POINT ( 'NONE',  ( 0.0000000000000000000, 0.0000000000000000000, 0.0000000000000000000 ) ) ;
#93 = CARTESIAN_POINT ( 'NONE',  ( 0.0000000000000000000, 27.00000000000000000, 15.90000000000000000 ) ) ;
#94 = EDGE_CURVE ( 'NONE', #76, #88, #241, .T. ) ;
#95 = EDGE_CURVE ( 'NONE', #73, #88, #236, .T. ) ;
#96 = EDGE_CURVE ( 'NONE', #81, #79, #237, .T. ) ;
#97 = AXIS2_PLACEMENT_3D ( 'NONE', #53, #56, #39 ) ;
#98 = EDGE_CURVE ( 'NONE', #67, #79, #182, .T. ) ;
#99 = AXIS2_PLACEMENT_3D ( 'NONE', #17, #35, #27 ) ;
#100 = AXIS2_PLACEMENT_3D ( 'NONE', #23, #21, #2 ) ;
#101 = AXIS2_PLACEMENT_3D ( 'NONE', #7, #5, #86 ) ;
#102 = PRODUCT_RELATED_PRODUCT_CATEGORY ( 'detail', '', ( #164 ) ) ;
#103 = CC_DESIGN_SECURITY_CLASSIFICATION ( #108, ( #113 ) ) ;
#104 = CC_DESIGN_APPROVAL ( #105, ( #108 ) ) ;
#105 = APPROVAL ( #87, 'UNSPECIFIED' ) ;
#106 = CC_DESIGN_DATE_AND_TIME_ASSIGNMENT ( #228, #28, ( #108 ) ) ;
#107 = CC_DESIGN_PERSON_AND_ORGANIZATION_ASSIGNMENT ( #224, #58, ( #108 ) ) ;
#108 = SECURITY_CLASSIFICATION ( '', '', #69 ) ;
#109 = CC_DESIGN_PERSON_AND_ORGANIZATION_ASSIGNMENT ( #223, #34, ( #113 ) ) ;
#110 = CC_DESIGN_PERSON_AND_ORGANIZATION_ASSIGNMENT ( #222, #6, ( #113 ) ) ;
#111 = CC_DESIGN_APPROVAL ( #112, ( #113 ) ) ;
#112 = APPROVAL ( #49, 'UNSPECIFIED' ) ;
#113 = PRODUCT_DEFINITION_FORMATION_WITH_SPECIFIED_SOURCE ( 'ANY', '', #164, .NOT_KNOWN. ) ;
#114 = CC_DESIGN_DATE_AND_TIME_ASSIGNMENT ( #214, #83, ( #118 ) ) ;
#115 = CC_DESIGN_PERSON_AND_ORGANIZATION_ASSIGNMENT ( #210, #8, ( #118 ) ) ;
#116 = CC_DESIGN_APPROVAL ( #117, ( #118 ) ) ;
#117 = APPROVAL ( #89, 'UNSPECIFIED' ) ;
#118 = PRODUCT_DEFINITION ( 'UNKNOWN', '', #113, #174 ) ;
#119 = AXIS2_PLACEMENT_3D ( 'NONE', #11, #68, #4 ) ;
#120 = AXIS2_PLACEMENT_3D ( 'NONE', #92, #82, #78 ) ;
#121 = AXIS2_PLACEMENT_3D ( 'NONE', #41, #47, #45 ) ;
#122 = AXIS2_PLACEMENT_3D ( 'NONE', #44, #43, #80 ) ;
#123 = EDGE_CURVE ( 'NONE', #84, #76, #178, .T. ) ;
#124 = EDGE_CURVE ( 'NONE', #76, #84, #239, .T. ) ;
#125 = AXIS2_PLACEMENT_3D ( 'NONE', #48, #29, #46 ) ;
#126 = AXIS2_PLACEMENT_3D ( 'NONE', #57, #36, #20 ) ;
#127 = AXIS2_PLACEMENT_3D ( 'NONE', #60, #15, #9 ) ;
#128 = CC_DESIGN_PERSON_AND_ORGANIZATION_ASSIGNMENT ( #202, #37, ( #164 ) ) ;
#129 = AXIS2_PLACEMENT_3D ( 'NONE', #40, #18, #62 ) ;
#130 = AXIS2_PLACEMENT_3D ( 'NONE', #14, #75, #51 ) ;
#131 = AXIS2_PLACEMENT_3D ( 'NONE', #72, #71, #38 ) ;
#132 = AXIS2_PLACEMENT_3D ( 'NONE', #54, #42, #85 ) ;
#133 = EDGE_CURVE ( 'NONE', #79, #67, #180, .T. ) ;
#134 = EDGE_CURVE ( 'NONE', #81, #64, #245, .T. ) ;
#135 = EDGE_CURVE ( 'NONE', #64, #81, #184, .T. ) ;
#136 = EDGE_CURVE ( 'NONE', #64, #67, #240, .T. ) ;
#137 = EDGE_CURVE ( 'NONE', #84, #73, #186, .T. ) ;
#138 = EDGE_CURVE ( 'NONE', #88, #73, #190, .T. ) ;
#139 = ORIENTED_EDGE ( 'NONE', *, *, #137, .F. ) ;
#140 = EDGE_LOOP ( 'NONE', ( #243, #177 ) ) ;
#141 = EDGE_LOOP ( 'NONE', ( #147, #242 ) ) ;
#142 = EDGE_LOOP ( 'NONE', ( #159, #146, #152, #156 ) ) ;
#143 = ORIENTED_EDGE ( 'NONE', *, *, #124, .T. ) ;
#144 = ORIENTED_EDGE ( 'NONE', *, *, #124, .F. ) ;
#145 = ORIENTED_EDGE ( 'NONE', *, *, #94, .T. ) ;
#146 = ORIENTED_EDGE ( 'NONE', *, *, #136, .T. ) ;
#147 = ORIENTED_EDGE ( 'NONE', *, *, #134, .T. ) ;
#148 = EDGE_LOOP ( 'NONE', ( #155, #244 ) ) ;
#149 = EDGE_LOOP ( 'NONE', ( #139, #144, #145, #162 ) ) ;
#150 = EDGE_LOOP ( 'NONE', ( #160, #158, #161, #154 ) ) ;
#151 = CLOSED_SHELL ( 'NONE', ( #165, #168, #166, #167, #169, #170 ) ) ;
#152 = ORIENTED_EDGE ( 'NONE', *, *, #98, .T. ) ;
#153 = EDGE_LOOP ( 'NONE', ( #143, #176 ) ) ;
#154 = ORIENTED_EDGE ( 'NONE', *, *, #94, .F. ) ;
#155 = ORIENTED_EDGE ( 'NONE', *, *, #133, .F. ) ;
#156 = ORIENTED_EDGE ( 'NONE', *, *, #96, .F. ) ;
#157 = EDGE_LOOP ( 'NONE', ( #185, #179, #246, #249 ) ) ;
#158 = ORIENTED_EDGE ( 'NONE', *, *, #137, .T. ) ;
#159 = ORIENTED_EDGE ( 'NONE', *, *, #135, .F. ) ;
#160 = ORIENTED_EDGE ( 'NONE', *, *, #123, .F. ) ;
#161 = ORIENTED_EDGE ( 'NONE', *, *, #95, .T. ) ;
#162 = ORIENTED_EDGE ( 'NONE', *, *, #138, .T. ) ;
#163 = PERSON ( 'UNSPECIFIED', 'UNSPECIFIED', 'UNSPECIFIED', ('UNSPECIFIED'), ('UNSPECIFIED'), ('UNSPECIFIED') ) ;
#164 = PRODUCT ( 'SpindleNut', 'SpindleNut', '', ( #63 ) ) ;
#165 = ADVANCED_FACE ( 'NONE', ( #238 ), #247, .F. ) ;
#166 = ADVANCED_FACE ( 'NONE', ( #189 ), #192, .T. ) ;
#167 = ADVANCED_FACE ( 'NONE', ( #191, #193 ), #26, .T. ) ;
#168 = ADVANCED_FACE ( 'NONE', ( #188 ), #196, .T. ) ;
#169 = ADVANCED_FACE ( 'NONE', ( #194, #197 ), #66, .F. ) ;
#170 = ADVANCED_FACE ( 'NONE', ( #195 ), #198, .F. ) ;
#171 = MANIFOLD_SOLID_BREP ( 'Cut-Extrude1', #151 ) ;
#172 = UNCERTAINTY_MEASURE_WITH_UNIT (LENGTH_MEASURE( 1.000000000000000100E-005 ), #74, 'distance_accuracy_value', 'NONE');
#173 = ADVANCED_BREP_SHAPE_REPRESENTATION ( 'SpindleNut', ( #171, #127 ), #199 ) ;
#174 = DESIGN_CONTEXT ( 'detailed design', #90, 'design' ) ;
#175 = PRODUCT_DEFINITION_SHAPE ( 'NONE', 'NONE',  #118 ) ;
#176 = ORIENTED_EDGE ( 'NONE', *, *, #123, .T. ) ;
#177 = ORIENTED_EDGE ( 'NONE', *, *, #95, .F. ) ;
#178 = CIRCLE ( 'NONE', #130, 23.80000000000000100 ) ;
#179 = ORIENTED_EDGE ( 'NONE', *, *, #134, .F. ) ;
#180 = CIRCLE ( 'NONE', #131, 15.90000000000000000 ) ;
#181 = VECTOR ( 'NONE', #16, 1000.000000000000000 ) ;
#182 = CIRCLE ( 'NONE', #100, 15.90000000000000000 ) ;
#183 = VECTOR ( 'NONE', #10, 1000.000000000000000 ) ;
#184 = CIRCLE ( 'NONE', #97, 15.90000000000000000 ) ;
#185 = ORIENTED_EDGE ( 'NONE', *, *, #136, .F. ) ;
#186 = LINE ( 'NONE', #50, #187 ) ;
#187 = VECTOR ( 'NONE', #1, 1000.000000000000000 ) ;
#188 = FACE_OUTER_BOUND ( 'NONE', #150, .T. ) ;
#189 = FACE_OUTER_BOUND ( 'NONE', #149, .T. ) ;
#190 = CIRCLE ( 'NONE', #129, 23.80000000000000100 ) ;
#191 = FACE_BOUND ( 'NONE', #148, .T. ) ;
#192 = CYLINDRICAL_SURFACE ( 'NONE', #125, 23.80000000000000100 ) ;
#193 = FACE_OUTER_BOUND ( 'NONE', #153, .T. ) ;
#194 = FACE_BOUND ( 'NONE', #141, .T. ) ;
#195 = FACE_OUTER_BOUND ( 'NONE', #157, .T. ) ;
#196 = CYLINDRICAL_SURFACE ( 'NONE', #121, 23.80000000000000100 ) ;
#197 = FACE_OUTER_BOUND ( 'NONE', #140, .T. ) ;
#198 = CYLINDRICAL_SURFACE ( 'NONE', #119, 15.90000000000000000 ) ;
#199 =( GEOMETRIC_REPRESENTATION_CONTEXT ( 3 ) GLOBAL_UNCERTAINTY_ASSIGNED_CONTEXT ( ( #172 ) ) GLOBAL_UNIT_ASSIGNED_CONTEXT ( ( #74, #59, #3 ) ) REPRESENTATION_CONTEXT ( 'NONE', 'WORKASPACE' ) );
#200 = SHAPE_DEFINITION_REPRESENTATION ( #175, #173 ) ;
#201 = ORGANIZATION ( 'UNSPECIFIED', 'UNSPECIFIED', '' ) ;
#202 = PERSON_AND_ORGANIZATION ( #163, #201 ) ;
#203 = PERSON_AND_ORGANIZATION ( #163, #201 ) ;
#204 = APPROVAL_PERSON_ORGANIZATION ( #203, #117, #13 ) ;
#205 = COORDINATED_UNIVERSAL_TIME_OFFSET ( 6, 0, .BEHIND. ) ;
#206 = LOCAL_TIME ( 21, 6, 47.00000000000000000, #205 ) ;
#207 = CALENDAR_DATE ( 2012, 23, 5 ) ;
#208 = DATE_AND_TIME ( #207, #206 ) ;
#209 = APPROVAL_DATE_TIME ( #208, #117 ) ;
#210 = PERSON_AND_ORGANIZATION ( #163, #201 ) ;
#211 = COORDINATED_UNIVERSAL_TIME_OFFSET ( 6, 0, .BEHIND. ) ;
#212 = LOCAL_TIME ( 21, 6, 47.00000000000000000, #211 ) ;
#213 = CALENDAR_DATE ( 2012, 23, 5 ) ;
#214 = DATE_AND_TIME ( #213, #212 ) ;
#215 = PERSON_AND_ORGANIZATION ( #163, #201 ) ;
#216 = APPROVAL_PERSON_ORGANIZATION ( #215, #112, #61 ) ;
#217 = COORDINATED_UNIVERSAL_TIME_OFFSET ( 6, 0, .BEHIND. ) ;
#218 = LOCAL_TIME ( 21, 6, 47.00000000000000000, #217 ) ;
#219 = CALENDAR_DATE ( 2012, 23, 5 ) ;
#220 = DATE_AND_TIME ( #219, #218 ) ;
#221 = APPROVAL_DATE_TIME ( #220, #112 ) ;
#222 = PERSON_AND_ORGANIZATION ( #163, #201 ) ;
#223 = PERSON_AND_ORGANIZATION ( #163, #201 ) ;
#224 = PERSON_AND_ORGANIZATION ( #163, #201 ) ;
#225 = COORDINATED_UNIVERSAL_TIME_OFFSET ( 6, 0, .BEHIND. ) ;
#226 = LOCAL_TIME ( 21, 6, 47.00000000000000000, #225 ) ;
#227 = CALENDAR_DATE ( 2012, 23, 5 ) ;
#228 = DATE_AND_TIME ( #227, #226 ) ;
#229 = PERSON_AND_ORGANIZATION ( #163, #201 ) ;
#230 = APPROVAL_PERSON_ORGANIZATION ( #229, #105, #55 ) ;
#231 = COORDINATED_UNIVERSAL_TIME_OFFSET ( 6, 0, .BEHIND. ) ;
#232 = LOCAL_TIME ( 21, 6, 47.00000000000000000, #231 ) ;
#233 = CALENDAR_DATE ( 2012, 23, 5 ) ;
#234 = DATE_AND_TIME ( #233, #232 ) ;
#235 = APPROVAL_DATE_TIME ( #234, #105 ) ;
#236 = CIRCLE ( 'NONE', #101, 23.80000000000000100 ) ;
#237 = LINE ( 'NONE', #22, #248 ) ;
#238 = FACE_OUTER_BOUND ( 'NONE', #142, .T. ) ;
#239 = CIRCLE ( 'NONE', #132, 23.80000000000000100 ) ;
#240 = LINE ( 'NONE', #31, #183 ) ;
#241 = LINE ( 'NONE', #19, #181 ) ;
#242 = ORIENTED_EDGE ( 'NONE', *, *, #135, .T. ) ;
#243 = ORIENTED_EDGE ( 'NONE', *, *, #138, .F. ) ;
#244 = ORIENTED_EDGE ( 'NONE', *, *, #98, .F. ) ;
#245 = CIRCLE ( 'NONE', #99, 15.90000000000000000 ) ;
#246 = ORIENTED_EDGE ( 'NONE', *, *, #96, .T. ) ;
#247 = CYLINDRICAL_SURFACE ( 'NONE', #126, 15.90000000000000000 ) ;
#248 = VECTOR ( 'NONE', #65, 1000.000000000000000 ) ;
#249 = ORIENTED_EDGE ( 'NONE', *, *, #133, .T. ) ;
ENDSEC;
END-ISO-10303-21;
