ISO-10303-21;
HEADER;
FILE_DESCRIPTION (( 'STEP AP203' ),
    '1' );
FILE_NAME ('IndicatorFlat.STEP',
    '2012-07-03T05:33:05',
    ( '' ),
    ( '' ),
    'SwSTEP 2.0',
    'SolidWorks 2010',
    '' );
FILE_SCHEMA (( 'CONFIG_CONTROL_DESIGN' ));
ENDSEC;

DATA;
#1 = MANIFOLD_SOLID_BREP ( 'Boss-Extrude1', #223 ) ;
#2 = UNCERTAINTY_MEASURE_WITH_UNIT (LENGTH_MEASURE( 1.000000000000000100E-005 ), #102, 'distance_accuracy_value', 'NONE');
#3 = ADVANCED_BREP_SHAPE_REPRESENTATION ( 'IndicatorFlat', ( #1, #109 ), #204 ) ;
#4 = CC_DESIGN_PERSON_AND_ORGANIZATION_ASSIGNMENT ( #145, #87, ( #7 ) ) ;
#5 = CC_DESIGN_PERSON_AND_ORGANIZATION_ASSIGNMENT ( #142, #66, ( #10 ) ) ;
#6 = CC_DESIGN_SECURITY_CLASSIFICATION ( #10, ( #7 ) ) ;
#7 = PRODUCT_DEFINITION_FORMATION_WITH_SPECIFIED_SOURCE ( 'ANY', '', #159, .NOT_KNOWN. ) ;
#8 = APPROVAL ( #64, 'UNSPECIFIED' ) ;
#9 = CC_DESIGN_PERSON_AND_ORGANIZATION_ASSIGNMENT ( #143, #50, ( #7 ) ) ;
#10 = SECURITY_CLASSIFICATION ( '', '', #88 ) ;
#11 = CC_DESIGN_DATE_AND_TIME_ASSIGNMENT ( #137, #65, ( #10 ) ) ;
#12 = CC_DESIGN_APPROVAL ( #8, ( #10 ) ) ;
#13 = PRODUCT_RELATED_PRODUCT_CATEGORY ( 'detail', '', ( #159 ) ) ;
#14 = CC_DESIGN_APPROVAL ( #15, ( #7 ) ) ;
#15 = APPROVAL ( #52, 'UNSPECIFIED' ) ;
#16 = VERTEX_POINT ( 'NONE', #57 ) ;
#17 = CARTESIAN_POINT ( 'NONE',  ( 25.39999999999999900, 0.0000000000000000000, -100.0000000000000000 ) ) ;
#18 = CARTESIAN_POINT ( 'NONE',  ( 0.0000000000000000000, 3.174999999999999800, 0.0000000000000000000 ) ) ;
#19 = CARTESIAN_POINT ( 'NONE',  ( 0.0000000000000000000, 3.174999999999999800, 0.0000000000000000000 ) ) ;
#20 = CARTESIAN_POINT ( 'NONE',  ( 0.0000000000000000000, 0.0000000000000000000, -100.0000000000000000 ) ) ;
#21 = VERTEX_POINT ( 'NONE', #25 ) ;
#22 = VERTEX_POINT ( 'NONE', #58 ) ;
#23 = VERTEX_POINT ( 'NONE', #26 ) ;
#24 = VERTEX_POINT ( 'NONE', #60 ) ;
#25 = CARTESIAN_POINT ( 'NONE',  ( 0.0000000000000000000, 0.0000000000000000000, -100.0000000000000000 ) ) ;
#26 = CARTESIAN_POINT ( 'NONE',  ( 25.39999999999999900, 3.174999999999999800, 0.0000000000000000000 ) ) ;
#27 = CARTESIAN_POINT ( 'NONE',  ( 0.0000000000000000000, 3.174999999999999800, 0.0000000000000000000 ) ) ;
#28 = CARTESIAN_POINT ( 'NONE',  ( 25.39999999999999900, 3.174999999999999800, -100.0000000000000000 ) ) ;
#29 = DIRECTION ( 'NONE',  ( 1.000000000000000000, 0.0000000000000000000, 0.0000000000000000000 ) ) ;
#30 = DIRECTION ( 'NONE',  ( -0.0000000000000000000, -1.000000000000000000, -0.0000000000000000000 ) ) ;
#31 = PLANE ( 'NONE',  #107 ) ;
#32 = CARTESIAN_POINT ( 'NONE',  ( 0.0000000000000000000, 0.0000000000000000000, 0.0000000000000000000 ) ) ;
#33 = DIRECTION ( 'NONE',  ( 1.000000000000000000, 0.0000000000000000000, 0.0000000000000000000 ) ) ;
#34 = CARTESIAN_POINT ( 'NONE',  ( 25.39999999999999900, 0.0000000000000000000, 0.0000000000000000000 ) ) ;
#35 = DIRECTION ( 'NONE',  ( 0.0000000000000000000, 0.0000000000000000000, -1.000000000000000000 ) ) ;
#36 = CARTESIAN_POINT ( 'NONE',  ( 25.39999999999999900, 3.174999999999999800, -100.0000000000000000 ) ) ;
#37 = DIRECTION ( 'NONE',  ( 0.0000000000000000000, 0.0000000000000000000, 1.000000000000000000 ) ) ;
#38 = DIRECTION ( 'NONE',  ( 0.0000000000000000000, 0.0000000000000000000, 1.000000000000000000 ) ) ;
#39 = DIRECTION ( 'NONE',  ( -1.000000000000000000, 0.0000000000000000000, 0.0000000000000000000 ) ) ;
#40 = PLANE ( 'NONE',  #116 ) ;
#41 = CARTESIAN_POINT ( 'NONE',  ( 0.0000000000000000000, 3.174999999999999800, 0.0000000000000000000 ) ) ;
#42 = DIRECTION ( 'NONE',  ( 1.000000000000000000, 0.0000000000000000000, -0.0000000000000000000 ) ) ;
#43 = DIRECTION ( 'NONE',  ( 0.0000000000000000000, 0.0000000000000000000, 1.000000000000000000 ) ) ;
#44 = VERTEX_POINT ( 'NONE', #27 ) ;
#45 = PLANE ( 'NONE',  #124 ) ;
#46 = CARTESIAN_POINT ( 'NONE',  ( 0.0000000000000000000, 3.174999999999999800, 0.0000000000000000000 ) ) ;
#47 = DIRECTION ( 'NONE',  ( 0.0000000000000000000, -0.0000000000000000000, -1.000000000000000000 ) ) ;
#48 = DIRECTION ( 'NONE',  ( 0.0000000000000000000, -1.000000000000000000, 0.0000000000000000000 ) ) ;
#49 = PLANE ( 'NONE',  #117 ) ;
#50 = PERSON_AND_ORGANIZATION_ROLE ( 'creator' ) ;
#51 = APPROVAL_ROLE ( '' ) ;
#52 = APPROVAL_STATUS ( 'not_yet_approved' ) ;
#53 = DATE_TIME_ROLE ( 'creation_date' ) ;
#54 = VERTEX_POINT ( 'NONE', #28 ) ;
#55 = PERSON_AND_ORGANIZATION_ROLE ( 'creator' ) ;
#56 = APPROVAL_ROLE ( '' ) ;
#57 = CARTESIAN_POINT ( 'NONE',  ( 0.0000000000000000000, 0.0000000000000000000, 0.0000000000000000000 ) ) ;
#58 = CARTESIAN_POINT ( 'NONE',  ( 25.39999999999999900, 0.0000000000000000000, 0.0000000000000000000 ) ) ;
#59 = APPROVAL_STATUS ( 'not_yet_approved' ) ;
#60 = CARTESIAN_POINT ( 'NONE',  ( 0.0000000000000000000, 3.174999999999999800, -100.0000000000000000 ) ) ;
#61 = DIRECTION ( 'NONE',  ( -1.000000000000000000, 0.0000000000000000000, -0.0000000000000000000 ) ) ;
#62 = DIRECTION ( 'NONE',  ( 0.0000000000000000000, 0.0000000000000000000, -1.000000000000000000 ) ) ;
#63 = APPROVAL_ROLE ( '' ) ;
#64 = APPROVAL_STATUS ( 'not_yet_approved' ) ;
#65 = DATE_TIME_ROLE ( 'classification_date' ) ;
#66 = PERSON_AND_ORGANIZATION_ROLE ( 'classification_officer' ) ;
#67 = MECHANICAL_CONTEXT ( 'NONE', #69, 'mechanical' ) ;
#68 = APPLICATION_PROTOCOL_DEFINITION ( 'international standard', 'config_control_design', 1994, #69 ) ;
#69 = APPLICATION_CONTEXT ( 'configuration controlled 3d designs of mechanical parts and assemblies' ) ;
#70 = DIRECTION ( 'NONE',  ( 1.000000000000000000, 0.0000000000000000000, 0.0000000000000000000 ) ) ;
#71 = CARTESIAN_POINT ( 'NONE',  ( 0.0000000000000000000, 0.0000000000000000000, 0.0000000000000000000 ) ) ;
#72 = DIRECTION ( 'NONE',  ( -0.0000000000000000000, -0.0000000000000000000, 1.000000000000000000 ) ) ;
#73 = CARTESIAN_POINT ( 'NONE',  ( 0.0000000000000000000, 0.0000000000000000000, 0.0000000000000000000 ) ) ;
#74 = DIRECTION ( 'NONE',  ( -1.000000000000000000, -0.0000000000000000000, -0.0000000000000000000 ) ) ;
#75 = DIRECTION ( 'NONE',  ( 0.0000000000000000000, 0.0000000000000000000, -1.000000000000000000 ) ) ;
#76 = CARTESIAN_POINT ( 'NONE',  ( 0.0000000000000000000, 3.174999999999999800, -100.0000000000000000 ) ) ;
#77 = CARTESIAN_POINT ( 'NONE',  ( 25.39999999999999900, 3.174999999999999800, 0.0000000000000000000 ) ) ;
#78 = APPLICATION_CONTEXT ( 'configuration controlled 3d designs of mechanical parts and assemblies' ) ;
#79 = APPLICATION_PROTOCOL_DEFINITION ( 'international standard', 'config_control_design', 1994, #78 ) ;
#80 = PERSON_AND_ORGANIZATION_ROLE ( 'design_owner' ) ;
#81 = DIRECTION ( 'NONE',  ( -1.000000000000000000, -0.0000000000000000000, -0.0000000000000000000 ) ) ;
#82 = DIRECTION ( 'NONE',  ( -0.0000000000000000000, -1.000000000000000000, -0.0000000000000000000 ) ) ;
#83 = PLANE ( 'NONE',  #106 ) ;
#84 = PLANE ( 'NONE',  #114 ) ;
#85 = CARTESIAN_POINT ( 'NONE',  ( 0.0000000000000000000, 0.0000000000000000000, -100.0000000000000000 ) ) ;
#86 = CARTESIAN_POINT ( 'NONE',  ( 25.39999999999999900, 3.174999999999999800, 0.0000000000000000000 ) ) ;
#87 = PERSON_AND_ORGANIZATION_ROLE ( 'design_supplier' ) ;
#88 = SECURITY_CLASSIFICATION_LEVEL ( 'unclassified' ) ;
#89 = DIRECTION ( 'NONE',  ( -0.0000000000000000000, -1.000000000000000000, -0.0000000000000000000 ) ) ;
#90 = DIRECTION ( 'NONE',  ( -0.0000000000000000000, -1.000000000000000000, -0.0000000000000000000 ) ) ;
#91 = CARTESIAN_POINT ( 'NONE',  ( 0.0000000000000000000, 3.174999999999999800, -100.0000000000000000 ) ) ;
#92 = DIRECTION ( 'NONE',  ( 1.000000000000000000, -0.0000000000000000000, 0.0000000000000000000 ) ) ;
#93 = DIRECTION ( 'NONE',  ( 0.0000000000000000000, 0.0000000000000000000, -1.000000000000000000 ) ) ;
#94 = CARTESIAN_POINT ( 'NONE',  ( 0.0000000000000000000, 3.174999999999999800, -100.0000000000000000 ) ) ;
#95 = DIRECTION ( 'NONE',  ( -0.0000000000000000000, -0.0000000000000000000, 1.000000000000000000 ) ) ;
#96 = CARTESIAN_POINT ( 'NONE',  ( 0.0000000000000000000, 3.174999999999999800, 0.0000000000000000000 ) ) ;
#97 = VERTEX_POINT ( 'NONE', #17 ) ;
#98 = CARTESIAN_POINT ( 'NONE',  ( 25.39999999999999900, 3.174999999999999800, 0.0000000000000000000 ) ) ;
#99 = DIRECTION ( 'NONE',  ( 0.0000000000000000000, -0.0000000000000000000, -1.000000000000000000 ) ) ;
#100 = DIRECTION ( 'NONE',  ( 0.0000000000000000000, -1.000000000000000000, 0.0000000000000000000 ) ) ;
#101 = CARTESIAN_POINT ( 'NONE',  ( 0.0000000000000000000, 3.174999999999999800, -100.0000000000000000 ) ) ;
#102 =( LENGTH_UNIT ( ) NAMED_UNIT ( * ) SI_UNIT ( .MILLI., .METRE. ) );
#103 =( NAMED_UNIT ( * ) PLANE_ANGLE_UNIT ( ) SI_UNIT ( $, .RADIAN. ) );
#104 =( NAMED_UNIT ( * ) SI_UNIT ( $, .STERADIAN. ) SOLID_ANGLE_UNIT ( ) );
#105 = CC_DESIGN_PERSON_AND_ORGANIZATION_ASSIGNMENT ( #198, #55, ( #122 ) ) ;
#106 = AXIS2_PLACEMENT_3D ( 'NONE', #76, #48, #47 ) ;
#107 = AXIS2_PLACEMENT_3D ( 'NONE', #85, #100, #99 ) ;
#108 = EDGE_CURVE ( 'NONE', #97, #21, #176, .T. ) ;
#109 = AXIS2_PLACEMENT_3D ( 'NONE', #71, #37, #70 ) ;
#110 = EDGE_CURVE ( 'NONE', #21, #16, #190, .T. ) ;
#111 = EDGE_CURVE ( 'NONE', #24, #44, #218, .T. ) ;
#112 = EDGE_CURVE ( 'NONE', #44, #16, #206, .T. ) ;
#113 = EDGE_CURVE ( 'NONE', #24, #21, #212, .T. ) ;
#114 = AXIS2_PLACEMENT_3D ( 'NONE', #41, #92, #93 ) ;
#115 = CC_DESIGN_PERSON_AND_ORGANIZATION_ASSIGNMENT ( #202, #80, ( #159 ) ) ;
#116 = AXIS2_PLACEMENT_3D ( 'NONE', #46, #62, #61 ) ;
#117 = AXIS2_PLACEMENT_3D ( 'NONE', #101, #43, #42 ) ;
#118 = EDGE_CURVE ( 'NONE', #23, #22, #209, .T. ) ;
#119 = EDGE_CURVE ( 'NONE', #54, #24, #193, .T. ) ;
#120 = EDGE_CURVE ( 'NONE', #23, #54, #234, .T. ) ;
#121 = CC_DESIGN_APPROVAL ( #123, ( #122 ) ) ;
#122 = PRODUCT_DEFINITION ( 'UNKNOWN', '', #7, #236 ) ;
#123 = APPROVAL ( #59, 'UNSPECIFIED' ) ;
#124 = AXIS2_PLACEMENT_3D ( 'NONE', #98, #39, #38 ) ;
#125 = EDGE_CURVE ( 'NONE', #44, #23, #232, .T. ) ;
#126 = EDGE_CURVE ( 'NONE', #22, #97, #229, .T. ) ;
#127 = EDGE_CURVE ( 'NONE', #54, #97, #220, .T. ) ;
#128 = EDGE_CURVE ( 'NONE', #16, #22, #224, .T. ) ;
#129 = CC_DESIGN_DATE_AND_TIME_ASSIGNMENT ( #152, #53, ( #122 ) ) ;
#130 = ADVANCED_FACE ( 'NONE', ( #210 ), #31, .T. ) ;
#131 = ADVANCED_FACE ( 'NONE', ( #191 ), #83, .F. ) ;
#132 = ADVANCED_FACE ( 'NONE', ( #226 ), #49, .F. ) ;
#133 = ADVANCED_FACE ( 'NONE', ( #225 ), #45, .F. ) ;
#134 = ADVANCED_FACE ( 'NONE', ( #235 ), #40, .F. ) ;
#135 = ADVANCED_FACE ( 'NONE', ( #227 ), #84, .F. ) ;
#136 = APPROVAL_PERSON_ORGANIZATION ( #139, #8, #63 ) ;
#137 = DATE_AND_TIME ( #138, #140 ) ;
#138 = CALENDAR_DATE ( 2012, 3, 7 ) ;
#139 = PERSON_AND_ORGANIZATION ( #158, #201 ) ;
#140 = LOCAL_TIME ( 0, 33, 5.000000000000000000, #141 ) ;
#141 = COORDINATED_UNIVERSAL_TIME_OFFSET ( 6, 0, .BEHIND. ) ;
#142 = PERSON_AND_ORGANIZATION ( #158, #201 ) ;
#143 = PERSON_AND_ORGANIZATION ( #158, #201 ) ;
#144 = APPROVAL_DATE_TIME ( #146, #15 ) ;
#145 = PERSON_AND_ORGANIZATION ( #158, #201 ) ;
#146 = DATE_AND_TIME ( #147, #148 ) ;
#147 = CALENDAR_DATE ( 2012, 3, 7 ) ;
#148 = LOCAL_TIME ( 0, 33, 5.000000000000000000, #149 ) ;
#149 = COORDINATED_UNIVERSAL_TIME_OFFSET ( 6, 0, .BEHIND. ) ;
#150 = APPROVAL_PERSON_ORGANIZATION ( #151, #15, #51 ) ;
#151 = PERSON_AND_ORGANIZATION ( #158, #201 ) ;
#152 = DATE_AND_TIME ( #213, #200 ) ;
#153 = APPROVAL_DATE_TIME ( #154, #8 ) ;
#154 = DATE_AND_TIME ( #155, #156 ) ;
#155 = CALENDAR_DATE ( 2012, 3, 7 ) ;
#156 = LOCAL_TIME ( 0, 33, 5.000000000000000000, #157 ) ;
#157 = COORDINATED_UNIVERSAL_TIME_OFFSET ( 6, 0, .BEHIND. ) ;
#158 = PERSON ( 'UNSPECIFIED', 'UNSPECIFIED', 'UNSPECIFIED', ('UNSPECIFIED'), ('UNSPECIFIED'), ('UNSPECIFIED') ) ;
#159 = PRODUCT ( 'IndicatorFlat', 'IndicatorFlat', '', ( #67 ) ) ;
#160 = ORIENTED_EDGE ( 'NONE', *, *, #112, .F. ) ;
#161 = EDGE_LOOP ( 'NONE', ( #167, #175, #174, #170 ) ) ;
#162 = ORIENTED_EDGE ( 'NONE', *, *, #120, .F. ) ;
#163 = EDGE_LOOP ( 'NONE', ( #165, #171, #162, #178 ) ) ;
#164 = EDGE_LOOP ( 'NONE', ( #173, #160, #187, #180 ) ) ;
#165 = ORIENTED_EDGE ( 'NONE', *, *, #126, .T. ) ;
#166 = EDGE_LOOP ( 'NONE', ( #179, #186, #183, #184 ) ) ;
#167 = ORIENTED_EDGE ( 'NONE', *, *, #108, .T. ) ;
#168 = EDGE_LOOP ( 'NONE', ( #189, #185, #177, #169 ) ) ;
#169 = ORIENTED_EDGE ( 'NONE', *, *, #112, .T. ) ;
#170 = ORIENTED_EDGE ( 'NONE', *, *, #127, .T. ) ;
#171 = ORIENTED_EDGE ( 'NONE', *, *, #127, .F. ) ;
#172 = EDGE_LOOP ( 'NONE', ( #188, #181, #215, #182 ) ) ;
#173 = ORIENTED_EDGE ( 'NONE', *, *, #110, .T. ) ;
#174 = ORIENTED_EDGE ( 'NONE', *, *, #119, .F. ) ;
#175 = ORIENTED_EDGE ( 'NONE', *, *, #113, .F. ) ;
#176 = LINE ( 'NONE', #20, #217 ) ;
#177 = ORIENTED_EDGE ( 'NONE', *, *, #125, .F. ) ;
#178 = ORIENTED_EDGE ( 'NONE', *, *, #118, .T. ) ;
#179 = ORIENTED_EDGE ( 'NONE', *, *, #110, .F. ) ;
#180 = ORIENTED_EDGE ( 'NONE', *, *, #113, .T. ) ;
#181 = ORIENTED_EDGE ( 'NONE', *, *, #125, .T. ) ;
#182 = ORIENTED_EDGE ( 'NONE', *, *, #119, .T. ) ;
#183 = ORIENTED_EDGE ( 'NONE', *, *, #126, .F. ) ;
#184 = ORIENTED_EDGE ( 'NONE', *, *, #128, .F. ) ;
#185 = ORIENTED_EDGE ( 'NONE', *, *, #118, .F. ) ;
#186 = ORIENTED_EDGE ( 'NONE', *, *, #108, .F. ) ;
#187 = ORIENTED_EDGE ( 'NONE', *, *, #111, .F. ) ;
#188 = ORIENTED_EDGE ( 'NONE', *, *, #111, .T. ) ;
#189 = ORIENTED_EDGE ( 'NONE', *, *, #128, .T. ) ;
#190 = LINE ( 'NONE', #73, #216 ) ;
#191 = FACE_OUTER_BOUND ( 'NONE', #172, .T. ) ;
#192 = VECTOR ( 'NONE', #90, 1000.000000000000000 ) ;
#193 = LINE ( 'NONE', #91, #221 ) ;
#194 = APPROVAL_PERSON_ORGANIZATION ( #203, #123, #56 ) ;
#195 = COORDINATED_UNIVERSAL_TIME_OFFSET ( 6, 0, .BEHIND. ) ;
#196 = CALENDAR_DATE ( 2012, 3, 7 ) ;
#197 = LOCAL_TIME ( 0, 33, 5.000000000000000000, #195 ) ;
#198 = PERSON_AND_ORGANIZATION ( #158, #201 ) ;
#199 = COORDINATED_UNIVERSAL_TIME_OFFSET ( 6, 0, .BEHIND. ) ;
#200 = LOCAL_TIME ( 0, 33, 5.000000000000000000, #199 ) ;
#201 = ORGANIZATION ( 'UNSPECIFIED', 'UNSPECIFIED', '' ) ;
#202 = PERSON_AND_ORGANIZATION ( #158, #201 ) ;
#203 = PERSON_AND_ORGANIZATION ( #158, #201 ) ;
#204 =( GEOMETRIC_REPRESENTATION_CONTEXT ( 3 ) GLOBAL_UNCERTAINTY_ASSIGNED_CONTEXT ( ( #2 ) ) GLOBAL_UNIT_ASSIGNED_CONTEXT ( ( #102, #103, #104 ) ) REPRESENTATION_CONTEXT ( 'NONE', 'WORKASPACE' ) );
#205 = SHAPE_DEFINITION_REPRESENTATION ( #237, #3 ) ;
#206 = LINE ( 'NONE', #96, #192 ) ;
#207 = VECTOR ( 'NONE', #82, 1000.000000000000000 ) ;
#208 = APPROVAL_DATE_TIME ( #219, #123 ) ;
#209 = LINE ( 'NONE', #86, #207 ) ;
#210 = FACE_OUTER_BOUND ( 'NONE', #166, .T. ) ;
#211 = VECTOR ( 'NONE', #95, 1000.000000000000000 ) ;
#212 = LINE ( 'NONE', #94, #214 ) ;
#213 = CALENDAR_DATE ( 2012, 3, 7 ) ;
#214 = VECTOR ( 'NONE', #89, 1000.000000000000000 ) ;
#215 = ORIENTED_EDGE ( 'NONE', *, *, #120, .T. ) ;
#216 = VECTOR ( 'NONE', #72, 1000.000000000000000 ) ;
#217 = VECTOR ( 'NONE', #74, 1000.000000000000000 ) ;
#218 = LINE ( 'NONE', #19, #211 ) ;
#219 = DATE_AND_TIME ( #196, #197 ) ;
#220 = LINE ( 'NONE', #36, #222 ) ;
#221 = VECTOR ( 'NONE', #81, 1000.000000000000000 ) ;
#222 = VECTOR ( 'NONE', #30, 1000.000000000000000 ) ;
#223 = CLOSED_SHELL ( 'NONE', ( #135, #134, #133, #132, #131, #130 ) ) ;
#224 = LINE ( 'NONE', #32, #228 ) ;
#225 = FACE_OUTER_BOUND ( 'NONE', #163, .T. ) ;
#226 = FACE_OUTER_BOUND ( 'NONE', #161, .T. ) ;
#227 = FACE_OUTER_BOUND ( 'NONE', #164, .T. ) ;
#228 = VECTOR ( 'NONE', #33, 1000.000000000000000 ) ;
#229 = LINE ( 'NONE', #34, #230 ) ;
#230 = VECTOR ( 'NONE', #35, 1000.000000000000000 ) ;
#231 = VECTOR ( 'NONE', #75, 1000.000000000000000 ) ;
#232 = LINE ( 'NONE', #18, #233 ) ;
#233 = VECTOR ( 'NONE', #29, 1000.000000000000000 ) ;
#234 = LINE ( 'NONE', #77, #231 ) ;
#235 = FACE_OUTER_BOUND ( 'NONE', #168, .T. ) ;
#236 = DESIGN_CONTEXT ( 'detailed design', #78, 'design' ) ;
#237 = PRODUCT_DEFINITION_SHAPE ( 'NONE', 'NONE',  #122 ) ;
ENDSEC;
END-ISO-10303-21;
