  0
SECTION
  2
HEADER
  9
$ACADVER
  1
AC1009
  9
$INSBASE
 10
0.0
 20
0.0
 30
0.0
  9
$EXTMIN
 10
0.0
 20
0.0
 30
0.0
  9
$EXTMAX
 10
0.0
 20
0.0
 30
0.0
  0
ENDSEC
  0
SECTION
  2
TABLES
  0
TABLE
  2
VPORT
 70
0
  0
ENDTAB
  0
TABLE
  2
LTYPE
 70
1
  0
LTYPE
  2
CONTINUOUS
 70
0
  3
Solid line
 72
65
 73
0
 40
0.0
  0
ENDTAB
  0
TABLE
  2
LAYER
 70
1
  0
LAYER
  2
0
 70
64
 62
7
  6
continuous
  0
ENDTAB
  0
TABLE
  2
STYLE
 70
1
  0
STYLE
  2
STANDARD
 70
0
 40
0
 41
1.0
 50
0.0
 71
0
 42
1
 3
ARIAL.TTF
 4

  0
ENDTAB
  0
TABLE
  2
VIEW
 70
0
  0
ENDTAB
  0
ENDSEC
  0
SECTION
  2
BLOCKS
  0
BLOCK
  8
0
  2
SHAPE2DVIEW
 70
0
 10
0.0
 20
0.0
 30
0.0
  3
SHAPE2DVIEW
  0
LINE
  8
0
 62
0
 10
812.00625
 20
-243.68125
 30
0.0
 11
808.83125
 21
-243.68125
 31
0.0
  0
LINE
  8
0
 62
0
 10
808.83125
 20
-243.68125
 30
0.0
 11
808.83125
 21
-237.33125
 31
0.0
  0
LINE
  8
0
 62
0
 10
808.83125
 20
-237.33125
 30
0.0
 11
821.53125
 21
-237.33125
 31
0.0
  0
LINE
  8
0
 62
0
 10
821.53125
 20
-237.33125
 30
0.0
 11
821.53125
 21
-240.50625
 31
0.0
  0
LINE
  8
0
 62
0
 10
821.53125
 20
-240.50625
 30
0.0
 11
844.55
 21
-240.50625
 31
0.0
  0
LINE
  8
0
 62
0
 10
844.55
 20
-240.50625
 30
0.0
 11
844.55
 21
-115.09375
 31
0.0
  0
LINE
  8
0
 62
0
 10
844.55
 20
-115.09375
 30
0.0
 11
834.23125
 21
-115.09375
 31
0.0
  0
LINE
  8
0
 62
0
 10
834.23125
 20
-115.09375
 30
0.0
 11
834.23125
 21
-118.26875
 31
0.0
  0
LINE
  8
0
 62
0
 10
834.23125
 20
-118.26875
 30
0.0
 11
827.88125
 21
-118.26875
 31
0.0
  0
LINE
  8
0
 62
0
 10
827.88125
 20
-118.26875
 30
0.0
 11
827.88125
 21
-102.39375
 31
0.0
  0
LINE
  8
0
 62
0
 10
827.88125
 20
-102.39375
 30
0.0
 11
831.05625
 21
-102.39375
 31
0.0
  0
LINE
  8
0
 62
0
 10
831.05625
 20
-102.39375
 30
0.0
 11
831.05625
 21
-89.69375
 31
0.0
  0
LINE
  8
0
 62
0
 10
831.05625
 20
-89.69375
 30
0.0
 11
818.35625
 21
-89.69375
 31
0.0
  0
LINE
  8
0
 62
0
 10
818.35625
 20
-89.69375
 30
0.0
 11
818.35625
 21
-92.86875
 31
0.0
  0
LINE
  8
0
 62
0
 10
818.35625
 20
-92.86875
 30
0.0
 11
808.83125
 21
-92.86875
 31
0.0
  0
LINE
  8
0
 62
0
 10
808.83125
 20
-92.86875
 30
0.0
 11
808.83125
 21
-86.51875
 31
0.0
  0
LINE
  8
0
 62
0
 10
808.83125
 20
-86.51875
 30
0.0
 11
812.00625
 21
-86.51875
 31
0.0
  0
LINE
  8
0
 62
0
 10
812.00625
 20
-86.51875
 30
0.0
 11
812.00625
 21
-78.58125
 31
0.0
  0
LINE
  8
0
 62
0
 10
812.00625
 20
-78.58125
 30
0.0
 11
808.83125
 21
-78.58125
 31
0.0
  0
LINE
  8
0
 62
0
 10
808.83125
 20
-78.58125
 30
0.0
 11
808.83125
 21
-72.23125
 31
0.0
  0
LINE
  8
0
 62
0
 10
808.83125
 20
-72.23125
 30
0.0
 11
818.35625
 21
-72.23125
 31
0.0
  0
LINE
  8
0
 62
0
 10
818.35625
 20
-72.23125
 30
0.0
 11
818.35625
 21
-75.40625
 31
0.0
  0
LINE
  8
0
 62
0
 10
818.35625
 20
-75.40625
 30
0.0
 11
844.55
 21
-75.40625
 31
0.0
  0
LINE
  8
0
 62
0
 10
844.55
 20
-75.40625
 30
0.0
 11
844.55
 21
75.40625
 31
0.0
  0
LINE
  8
0
 62
0
 10
844.55
 20
75.40625
 30
0.0
 11
834.23125
 21
75.40625
 31
0.0
  0
LINE
  8
0
 62
0
 10
834.23125
 20
75.40625
 30
0.0
 11
834.23125
 21
72.23125
 31
0.0
  0
LINE
  8
0
 62
0
 10
834.23125
 20
72.23125
 30
0.0
 11
827.88125
 21
72.23125
 31
0.0
  0
LINE
  8
0
 62
0
 10
827.88125
 20
72.23125
 30
0.0
 11
827.88125
 21
78.58125
 31
0.0
  0
LINE
  8
0
 62
0
 10
827.88125
 20
78.58125
 30
0.0
 11
831.05625
 21
78.58125
 31
0.0
  0
LINE
  8
0
 62
0
 10
831.05625
 20
78.58125
 30
0.0
 11
831.05625
 21
86.51875
 31
0.0
  0
LINE
  8
0
 62
0
 10
831.05625
 20
86.51875
 30
0.0
 11
827.88125
 21
86.51875
 31
0.0
  0
LINE
  8
0
 62
0
 10
827.88125
 20
86.51875
 30
0.0
 11
827.88125
 21
92.86875
 31
0.0
  0
LINE
  8
0
 62
0
 10
827.88125
 20
92.86875
 30
0.0
 11
834.23125
 21
92.86875
 31
0.0
  0
LINE
  8
0
 62
0
 10
834.23125
 20
92.86875
 30
0.0
 11
834.23125
 21
89.69375
 31
0.0
  0
LINE
  8
0
 62
0
 10
834.23125
 20
89.69375
 30
0.0
 11
844.55
 21
89.69375
 31
0.0
  0
LINE
  8
0
 62
0
 10
844.55
 20
89.69375
 30
0.0
 11
844.55
 21
215.9
 31
0.0
  0
LINE
  8
0
 62
0
 10
844.55
 20
215.9
 30
0.0
 11
705.64375
 21
215.9
 31
0.0
  0
LINE
  8
0
 62
0
 10
705.64375
 20
215.9
 30
0.0
 11
705.64375
 21
199.23125
 31
0.0
  0
LINE
  8
0
 62
0
 10
705.64375
 20
199.23125
 30
0.0
 11
708.81875
 21
199.23125
 31
0.0
  0
LINE
  8
0
 62
0
 10
708.81875
 20
199.23125
 30
0.0
 11
708.81875
 21
192.88125
 31
0.0
  0
LINE
  8
0
 62
0
 10
708.81875
 20
192.88125
 30
0.0
 11
702.46875
 21
192.88125
 31
0.0
  0
LINE
  8
0
 62
0
 10
702.46875
 20
192.88125
 30
0.0
 11
702.46875
 21
196.05625
 31
0.0
  0
LINE
  8
0
 62
0
 10
702.46875
 20
196.05625
 30
0.0
 11
692.15
 21
196.05625
 31
0.0
  0
LINE
  8
0
 62
0
 10
692.15
 20
196.05625
 30
0.0
 11
692.15
 21
108.74375
 31
0.0
  0
LINE
  8
0
 62
0
 10
692.15
 20
108.74375
 30
0.0
 11
702.46875
 21
108.74375
 31
0.0
  0
LINE
  8
0
 62
0
 10
702.46875
 20
108.74375
 30
0.0
 11
702.46875
 21
111.91875
 31
0.0
  0
LINE
  8
0
 62
0
 10
702.46875
 20
111.91875
 30
0.0
 11
708.81875
 21
111.91875
 31
0.0
  0
LINE
  8
0
 62
0
 10
708.81875
 20
111.91875
 30
0.0
 11
708.81875
 21
105.56875
 31
0.0
  0
LINE
  8
0
 62
0
 10
708.81875
 20
105.56875
 30
0.0
 11
705.64375
 21
105.56875
 31
0.0
  0
LINE
  8
0
 62
0
 10
705.64375
 20
105.56875
 30
0.0
 11
705.64375
 21
89.69375
 31
0.0
  0
LINE
  8
0
 62
0
 10
705.64375
 20
89.69375
 30
0.0
 11
715.16875
 21
89.69375
 31
0.0
  0
LINE
  8
0
 62
0
 10
715.16875
 20
89.69375
 30
0.0
 11
715.16875
 21
92.86875
 31
0.0
  0
LINE
  8
0
 62
0
 10
715.16875
 20
92.86875
 30
0.0
 11
721.51875
 21
92.86875
 31
0.0
  0
LINE
  8
0
 62
0
 10
721.51875
 20
92.86875
 30
0.0
 11
721.51875
 21
86.51875
 31
0.0
  0
LINE
  8
0
 62
0
 10
721.51875
 20
86.51875
 30
0.0
 11
718.34375
 21
86.51875
 31
0.0
  0
LINE
  8
0
 62
0
 10
718.34375
 20
86.51875
 30
0.0
 11
718.34375
 21
78.58125
 31
0.0
  0
LINE
  8
0
 62
0
 10
718.34375
 20
78.58125
 30
0.0
 11
721.51875
 21
78.58125
 31
0.0
  0
LINE
  8
0
 62
0
 10
721.51875
 20
78.58125
 30
0.0
 11
721.51875
 21
72.23125
 31
0.0
  0
LINE
  8
0
 62
0
 10
721.51875
 20
72.23125
 30
0.0
 11
705.64375
 21
72.23125
 31
0.0
  0
LINE
  8
0
 62
0
 10
705.64375
 20
72.23125
 30
0.0
 11
705.64375
 21
75.40625
 31
0.0
  0
LINE
  8
0
 62
0
 10
705.64375
 20
75.40625
 30
0.0
 11
692.15
 21
75.40625
 31
0.0
  0
LINE
  8
0
 62
0
 10
692.15
 20
75.40625
 30
0.0
 11
692.15
 21
-75.40625
 31
0.0
  0
LINE
  8
0
 62
0
 10
692.15
 20
-75.40625
 30
0.0
 11
702.46875
 21
-75.40625
 31
0.0
  0
LINE
  8
0
 62
0
 10
702.46875
 20
-75.40625
 30
0.0
 11
702.46875
 21
-72.23125
 31
0.0
  0
LINE
  8
0
 62
0
 10
702.46875
 20
-72.23125
 30
0.0
 11
715.16875
 21
-72.23125
 31
0.0
  0
LINE
  8
0
 62
0
 10
715.16875
 20
-72.23125
 30
0.0
 11
715.16875
 21
-78.58125
 31
0.0
  0
LINE
  8
0
 62
0
 10
715.16875
 20
-78.58125
 30
0.0
 11
711.99375
 21
-78.58125
 31
0.0
  0
LINE
  8
0
 62
0
 10
711.99375
 20
-78.58125
 30
0.0
 11
711.99375
 21
-85.9931949917
 31
0.0
  0
LINE
  8
0
 62
0
 10
711.99375
 20
-85.9931949917
 30
0.0
 11
715.16875
 21
-85.9931949917
 31
0.0
  0
LINE
  8
0
 62
0
 10
715.16875
 20
-85.9931949917
 30
0.0
 11
715.16875
 21
-92.471875
 31
0.0
  0
LINE
  8
0
 62
0
 10
715.16875
 20
-92.471875
 30
0.0
 11
708.81875
 21
-92.471875
 31
0.0
  0
LINE
  8
0
 62
0
 10
708.81875
 20
-92.471875
 30
0.0
 11
708.81875
 21
-89.296875
 31
0.0
  0
LINE
  8
0
 62
0
 10
708.81875
 20
-89.296875
 30
0.0
 11
705.64375
 21
-89.296875
 31
0.0
  0
LINE
  8
0
 62
0
 10
705.64375
 20
-89.296875
 30
0.0
 11
705.64375
 21
-99.21875
 31
0.0
  0
LINE
  8
0
 62
0
 10
705.64375
 20
-99.21875
 30
0.0
 11
708.81875
 21
-99.21875
 31
0.0
  0
LINE
  8
0
 62
0
 10
708.81875
 20
-99.21875
 30
0.0
 11
708.81875
 21
-105.56875
 31
0.0
  0
LINE
  8
0
 62
0
 10
708.81875
 20
-105.56875
 30
0.0
 11
699.29375
 21
-105.56875
 31
0.0
  0
LINE
  8
0
 62
0
 10
699.29375
 20
-105.56875
 30
0.0
 11
699.29375
 21
-102.39375
 31
0.0
  0
LINE
  8
0
 62
0
 10
699.29375
 20
-102.39375
 30
0.0
 11
692.15
 21
-102.39375
 31
0.0
  0
LINE
  8
0
 62
0
 10
692.15
 20
-102.39375
 30
0.0
 11
692.15
 21
-227.0125
 31
0.0
  0
LINE
  8
0
 62
0
 10
692.15
 20
-227.0125
 30
0.0
 11
702.46875
 21
-227.0125
 31
0.0
  0
LINE
  8
0
 62
0
 10
702.46875
 20
-227.0125
 30
0.0
 11
702.46875
 21
-223.8375
 31
0.0
  0
LINE
  8
0
 62
0
 10
702.46875
 20
-223.8375
 30
0.0
 11
708.81875
 21
-223.8375
 31
0.0
  0
LINE
  8
0
 62
0
 10
708.81875
 20
-223.8375
 30
0.0
 11
708.81875
 21
-230.1875
 31
0.0
  0
LINE
  8
0
 62
0
 10
708.81875
 20
-230.1875
 30
0.0
 11
705.64375
 21
-230.1875
 31
0.0
  0
LINE
  8
0
 62
0
 10
705.64375
 20
-230.1875
 30
0.0
 11
705.64375
 21
-240.50625
 31
0.0
  0
LINE
  8
0
 62
0
 10
705.64375
 20
-240.50625
 30
0.0
 11
708.81875
 21
-240.50625
 31
0.0
  0
LINE
  8
0
 62
0
 10
708.81875
 20
-240.50625
 30
0.0
 11
708.81875
 21
-237.33125
 31
0.0
  0
LINE
  8
0
 62
0
 10
708.81875
 20
-237.33125
 30
0.0
 11
715.16875
 21
-237.33125
 31
0.0
  0
LINE
  8
0
 62
0
 10
715.16875
 20
-237.33125
 30
0.0
 11
715.16875
 21
-243.68125
 31
0.0
  0
LINE
  8
0
 62
0
 10
715.16875
 20
-243.68125
 30
0.0
 11
711.99375
 21
-243.68125
 31
0.0
  0
LINE
  8
0
 62
0
 10
711.99375
 20
-254.0
 30
0.0
 11
711.99375
 21
-243.68125
 31
0.0
  0
LINE
  8
0
 62
0
 10
812.00625
 20
-254.0
 30
0.0
 11
711.99375
 21
-254.0
 31
0.0
  0
LINE
  8
0
 62
0
 10
812.00625
 20
-243.68125
 30
0.0
 11
812.00625
 21
-254.0
 31
0.0
  0
CIRCLE
  8
0
 62
0
 10
745.7438
 20
129.7938
 30
0.0
 40
38.1
  0
ENDBLK
  0
ENDSEC
  0
SECTION
  2
ENTITIES
  0
INSERT
  2
SHAPE2DVIEW
  8
0
 62
0
 10
0.0
 20
0.0
 30
0.0
  0
ENDSEC
  0
EOF
