ISO-10303-21;
HEADER;
FILE_DESCRIPTION (( 'STEP AP203' ),
    '1' );
FILE_NAME ('GuardFlat.STEP',
    '2012-06-25T20:57:51',
    ( '' ),
    ( '' ),
    'SwSTEP 2.0',
    'SolidWorks 2010',
    '' );
FILE_SCHEMA (( 'CONFIG_CONTROL_DESIGN' ));
ENDSEC;

DATA;
#1 = CARTESIAN_POINT ( 'NONE',  ( 75.00000000000000000, -198.4000000000000100, 0.0000000000000000000 ) ) ;
#2 =( NAMED_UNIT ( * ) SI_UNIT ( $, .STERADIAN. ) SOLID_ANGLE_UNIT ( ) );
#3 = DIRECTION ( 'NONE',  ( 0.0000000000000000000, 0.0000000000000000000, -1.000000000000000000 ) ) ;
#4 = DIRECTION ( 'NONE',  ( 1.000000000000000000, -0.0000000000000000000, 0.0000000000000000000 ) ) ;
#5 =( LENGTH_UNIT ( ) NAMED_UNIT ( * ) SI_UNIT ( .MILLI., .METRE. ) );
#6 = DIRECTION ( 'NONE',  ( -1.000000000000000000, 0.0000000000000000000, -0.0000000000000000000 ) ) ;
#7 = DIRECTION ( 'NONE',  ( 0.0000000000000000000, 0.0000000000000000000, -1.000000000000000000 ) ) ;
#8 = PLANE ( 'NONE',  #212 ) ;
#9 = CARTESIAN_POINT ( 'NONE',  ( 0.0000000000000000000, 4.503214377627357300E-014, -440.1414213562373400 ) ) ;
#10 = PLANE ( 'NONE',  #213 ) ;
#11 =( NAMED_UNIT ( * ) PLANE_ANGLE_UNIT ( ) SI_UNIT ( $, .RADIAN. ) );
#12 = CARTESIAN_POINT ( 'NONE',  ( 75.00000000000000000, 4.503214377627357300E-014, 0.0000000000000000000 ) ) ;
#13 = DIRECTION ( 'NONE',  ( 0.0000000000000000000, 0.0000000000000000000, -1.000000000000000000 ) ) ;
#14 = DIRECTION ( 'NONE',  ( 1.000000000000000000, -0.0000000000000000000, 0.0000000000000000000 ) ) ;
#15 = DIRECTION ( 'NONE',  ( -1.000000000000000000, -0.0000000000000000000, -0.0000000000000000000 ) ) ;
#16 = DIRECTION ( 'NONE',  ( 0.0000000000000000000, 0.0000000000000000000, 1.000000000000000000 ) ) ;
#17 = PLANE ( 'NONE',  #215 ) ;
#18 = CARTESIAN_POINT ( 'NONE',  ( 75.00000000000000000, 0.0000000000000000000, 0.0000000000000000000 ) ) ;
#19 = CARTESIAN_POINT ( 'NONE',  ( 75.00000000000000000, 4.503214377627357300E-014, -440.1414213562373400 ) ) ;
#20 = DIRECTION ( 'NONE',  ( -1.000000000000000000, 0.0000000000000000000, -0.0000000000000000000 ) ) ;
#21 = DIRECTION ( 'NONE',  ( 0.0000000000000000000, 0.0000000000000000000, -1.000000000000000000 ) ) ;
#22 = CARTESIAN_POINT ( 'NONE',  ( 75.00000000000000000, 0.0000000000000000000, 0.0000000000000000000 ) ) ;
#23 = DIRECTION ( 'NONE',  ( 0.0000000000000000000, 0.0000000000000000000, 1.000000000000000000 ) ) ;
#24 = DIRECTION ( 'NONE',  ( 0.0000000000000000000, 0.0000000000000000000, -1.000000000000000000 ) ) ;
#25 = DIRECTION ( 'NONE',  ( 1.000000000000000000, -0.0000000000000000000, 0.0000000000000000000 ) ) ;
#26 = PLANE ( 'NONE',  #217 ) ;
#27 = CARTESIAN_POINT ( 'NONE',  ( 75.00000000000000000, 4.503214377627357300E-014, 0.0000000000000000000 ) ) ;
#28 = DIRECTION ( 'NONE',  ( 0.0000000000000000000, -1.000000000000000000, 0.0000000000000000000 ) ) ;
#29 = CARTESIAN_POINT ( 'NONE',  ( 0.0000000000000000000, 4.503214377627357300E-014, 0.0000000000000000000 ) ) ;
#30 = DIRECTION ( 'NONE',  ( 0.0000000000000000000, 0.0000000000000000000, -1.000000000000000000 ) ) ;
#31 = DIRECTION ( 'NONE',  ( 1.000000000000000000, -0.0000000000000000000, 0.0000000000000000000 ) ) ;
#32 = CARTESIAN_POINT ( 'NONE',  ( 75.00000000000000000, 0.0000000000000000000, 0.0000000000000000000 ) ) ;
#33 = CARTESIAN_POINT ( 'NONE',  ( 0.0000000000000000000, 0.0000000000000000000, 0.0000000000000000000 ) ) ;
#34 = DIRECTION ( 'NONE',  ( 1.000000000000000000, -0.0000000000000000000, 0.0000000000000000000 ) ) ;
#35 = DIRECTION ( 'NONE',  ( 0.0000000000000000000, 0.0000000000000000000, -1.000000000000000000 ) ) ;
#36 = CARTESIAN_POINT ( 'NONE',  ( 75.00000000000000000, 0.0000000000000000000, 0.0000000000000000000 ) ) ;
#37 = DIRECTION ( 'NONE',  ( -1.000000000000000000, -0.0000000000000000000, -0.0000000000000000000 ) ) ;
#38 = DIRECTION ( 'NONE',  ( 0.0000000000000000000, 0.0000000000000000000, -1.000000000000000000 ) ) ;
#39 = DIRECTION ( 'NONE',  ( -1.000000000000000000, -0.0000000000000000000, -0.0000000000000000000 ) ) ;
#40 = DIRECTION ( 'NONE',  ( -1.000000000000000000, -0.0000000000000000000, -0.0000000000000000000 ) ) ;
#41 = CARTESIAN_POINT ( 'NONE',  ( 0.0000000000000000000, 4.503214377627357300E-014, 0.0000000000000000000 ) ) ;
#42 = CARTESIAN_POINT ( 'NONE',  ( 75.00000000000000000, 4.503214377627357300E-014, 0.0000000000000000000 ) ) ;
#43 = APPROVAL_ROLE ( '' ) ;
#44 = CARTESIAN_POINT ( 'NONE',  ( 75.00000000000000000, 200.0000000000000000, 0.0000000000000000000 ) ) ;
#45 = APPROVAL_STATUS ( 'not_yet_approved' ) ;
#46 = DATE_TIME_ROLE ( 'classification_date' ) ;
#47 = PERSON_AND_ORGANIZATION_ROLE ( 'classification_officer' ) ;
#48 = DIRECTION ( 'NONE',  ( -1.000000000000000000, -0.0000000000000000000, -0.0000000000000000000 ) ) ;
#49 = SECURITY_CLASSIFICATION_LEVEL ( 'unclassified' ) ;
#50 = PERSON_AND_ORGANIZATION_ROLE ( 'design_supplier' ) ;
#51 = PERSON_AND_ORGANIZATION_ROLE ( 'creator' ) ;
#52 = APPROVAL_ROLE ( '' ) ;
#53 = DIRECTION ( 'NONE',  ( 0.0000000000000000000, -1.000000000000000000, 0.0000000000000000000 ) ) ;
#54 = APPROVAL_STATUS ( 'not_yet_approved' ) ;
#55 = DATE_TIME_ROLE ( 'creation_date' ) ;
#56 = DIRECTION ( 'NONE',  ( 0.0000000000000000000, -1.000000000000000000, 0.0000000000000000000 ) ) ;
#57 = PERSON_AND_ORGANIZATION_ROLE ( 'creator' ) ;
#58 = APPROVAL_ROLE ( '' ) ;
#59 = APPROVAL_STATUS ( 'not_yet_approved' ) ;
#60 = APPLICATION_PROTOCOL_DEFINITION ( 'international standard', 'config_control_design', 1994, #61 ) ;
#61 = APPLICATION_CONTEXT ( 'configuration controlled 3d designs of mechanical parts and assemblies' ) ;
#62 = PERSON_AND_ORGANIZATION_ROLE ( 'design_owner' ) ;
#63 = MECHANICAL_CONTEXT ( 'NONE', #65, 'mechanical' ) ;
#64 = APPLICATION_PROTOCOL_DEFINITION ( 'international standard', 'config_control_design', 1994, #65 ) ;
#65 = APPLICATION_CONTEXT ( 'configuration controlled 3d designs of mechanical parts and assemblies' ) ;
#66 = DIRECTION ( 'NONE',  ( 1.000000000000000000, -0.0000000000000000000, 0.0000000000000000000 ) ) ;
#67 = DIRECTION ( 'NONE',  ( 1.000000000000000000, 0.0000000000000000000, 0.0000000000000000000 ) ) ;
#68 = DIRECTION ( 'NONE',  ( 0.0000000000000000000, 0.0000000000000000000, 1.000000000000000000 ) ) ;
#69 = CARTESIAN_POINT ( 'NONE',  ( 0.0000000000000000000, 0.0000000000000000000, 0.0000000000000000000 ) ) ;
#70 = CARTESIAN_POINT ( 'NONE',  ( 0.0000000000000000000, 0.0000000000000000000, 0.0000000000000000000 ) ) ;
#71 = CIRCLE ( 'NONE', #219, 198.4000000000000100 ) ;
#72 = VECTOR ( 'NONE', #28, 1000.000000000000000 ) ;
#73 = LINE ( 'NONE', #29, #72 ) ;
#74 = VECTOR ( 'NONE', #40, 1000.000000000000000 ) ;
#75 = LINE ( 'NONE', #1, #74 ) ;
#76 = VECTOR ( 'NONE', #56, 1000.000000000000000 ) ;
#77 = ORIENTED_EDGE ( 'NONE', *, *, #228, .T. ) ;
#78 = LINE ( 'NONE', #42, #76 ) ;
#79 = CIRCLE ( 'NONE', #232, 200.0000000000000000 ) ;
#80 = EDGE_LOOP ( 'NONE', ( #92, #95, #93, #91 ) ) ;
#81 = EDGE_LOOP ( 'NONE', ( #101, #97, #98, #99 ) ) ;
#82 = FACE_OUTER_BOUND ( 'NONE', #118, .T. ) ;
#83 = LINE ( 'NONE', #41, #85 ) ;
#84 = VECTOR ( 'NONE', #48, 1000.000000000000000 ) ;
#85 = VECTOR ( 'NONE', #53, 1000.000000000000000 ) ;
#86 = ORIENTED_EDGE ( 'NONE', *, *, #193, .T. ) ;
#87 = VECTOR ( 'NONE', #122, 1000.000000000000000 ) ;
#88 = LINE ( 'NONE', #131, #114 ) ;
#89 = LINE ( 'NONE', #141, #87 ) ;
#90 = LINE ( 'NONE', #44, #84 ) ;
#91 = ORIENTED_EDGE ( 'NONE', *, *, #222, .T. ) ;
#92 = ORIENTED_EDGE ( 'NONE', *, *, #228, .F. ) ;
#93 = ORIENTED_EDGE ( 'NONE', *, *, #231, .T. ) ;
#94 = LINE ( 'NONE', #121, #111 ) ;
#95 = ORIENTED_EDGE ( 'NONE', *, *, #227, .F. ) ;
#96 = ORIENTED_EDGE ( 'NONE', *, *, #193, .F. ) ;
#97 = ORIENTED_EDGE ( 'NONE', *, *, #223, .F. ) ;
#98 = ORIENTED_EDGE ( 'NONE', *, *, #229, .F. ) ;
#99 = ORIENTED_EDGE ( 'NONE', *, *, #221, .T. ) ;
#100 = ORIENTED_EDGE ( 'NONE', *, *, #227, .T. ) ;
#101 = ORIENTED_EDGE ( 'NONE', *, *, #224, .T. ) ;
#102 = ORIENTED_EDGE ( 'NONE', *, *, #225, .T. ) ;
#103 = ORIENTED_EDGE ( 'NONE', *, *, #222, .F. ) ;
#104 = ORIENTED_EDGE ( 'NONE', *, *, #226, .F. ) ;
#105 = ORIENTED_EDGE ( 'NONE', *, *, #230, .T. ) ;
#106 = ORIENTED_EDGE ( 'NONE', *, *, #221, .F. ) ;
#107 = ORIENTED_EDGE ( 'NONE', *, *, #231, .F. ) ;
#108 = ORIENTED_EDGE ( 'NONE', *, *, #223, .T. ) ;
#109 = ORIENTED_EDGE ( 'NONE', *, *, #229, .T. ) ;
#110 = ORIENTED_EDGE ( 'NONE', *, *, #230, .F. ) ;
#111 = VECTOR ( 'NONE', #134, 1000.000000000000000 ) ;
#112 = EDGE_LOOP ( 'NONE', ( #77, #119, #116, #110 ) ) ;
#113 = ORIENTED_EDGE ( 'NONE', *, *, #226, .T. ) ;
#114 = VECTOR ( 'NONE', #39, 1000.000000000000000 ) ;
#115 = EDGE_LOOP ( 'NONE', ( #107, #86, #109, #113 ) ) ;
#116 = ORIENTED_EDGE ( 'NONE', *, *, #224, .F. ) ;
#117 = CLOSED_SHELL ( 'NONE', ( #237, #236, #239, #240, #238, #241 ) ) ;
#118 = EDGE_LOOP ( 'NONE', ( #105, #106, #96, #100 ) ) ;
#119 = ORIENTED_EDGE ( 'NONE', *, *, #225, .F. ) ;
#120 = EDGE_LOOP ( 'NONE', ( #102, #103, #104, #108 ) ) ;
#121 = CARTESIAN_POINT ( 'NONE',  ( 75.00000000000000000, 4.503214377627357300E-014, 0.0000000000000000000 ) ) ;
#122 = DIRECTION ( 'NONE',  ( -1.000000000000000000, -0.0000000000000000000, -0.0000000000000000000 ) ) ;
#123 = CARTESIAN_POINT ( 'NONE',  ( 75.00000000000000000, -198.4000000000000100, 0.0000000000000000000 ) ) ;
#124 = CARTESIAN_POINT ( 'NONE',  ( 75.00000000000000000, 198.4000000000000100, 0.0000000000000000000 ) ) ;
#125 = CARTESIAN_POINT ( 'NONE',  ( 75.00000000000000000, 200.0000000000000000, 0.0000000000000000000 ) ) ;
#126 = VERTEX_POINT ( 'NONE', #133 ) ;
#127 = VERTEX_POINT ( 'NONE', #125 ) ;
#128 = VERTEX_POINT ( 'NONE', #140 ) ;
#129 = VERTEX_POINT ( 'NONE', #124 ) ;
#130 = VERTEX_POINT ( 'NONE', #132 ) ;
#131 = CARTESIAN_POINT ( 'NONE',  ( 75.00000000000000000, -200.0000000000000000, 0.0000000000000000000 ) ) ;
#132 = CARTESIAN_POINT ( 'NONE',  ( 0.0000000000000000000, -198.4000000000000100, 0.0000000000000000000 ) ) ;
#133 = CARTESIAN_POINT ( 'NONE',  ( 0.0000000000000000000, 198.4000000000000100, 0.0000000000000000000 ) ) ;
#134 = DIRECTION ( 'NONE',  ( 0.0000000000000000000, -1.000000000000000000, 0.0000000000000000000 ) ) ;
#135 = VERTEX_POINT ( 'NONE', #123 ) ;
#136 = VERTEX_POINT ( 'NONE', #137 ) ;
#137 = CARTESIAN_POINT ( 'NONE',  ( 0.0000000000000000000, -200.0000000000000000, 0.0000000000000000000 ) ) ;
#138 = CARTESIAN_POINT ( 'NONE',  ( 75.00000000000000000, -200.0000000000000000, 0.0000000000000000000 ) ) ;
#139 = VERTEX_POINT ( 'NONE', #138 ) ;
#140 = CARTESIAN_POINT ( 'NONE',  ( 0.0000000000000000000, 200.0000000000000000, 0.0000000000000000000 ) ) ;
#141 = CARTESIAN_POINT ( 'NONE',  ( 75.00000000000000000, 198.4000000000000100, 0.0000000000000000000 ) ) ;
#142 = DESIGN_CONTEXT ( 'detailed design', #61, 'design' ) ;
#143 = PRODUCT_DEFINITION_SHAPE ( 'NONE', 'NONE',  #210 ) ;
#144 = APPROVAL_DATE_TIME ( #145, #197 ) ;
#145 = DATE_AND_TIME ( #146, #147 ) ;
#146 = CALENDAR_DATE ( 2012, 25, 6 ) ;
#147 = LOCAL_TIME ( 15, 57, 51.00000000000000000, #148 ) ;
#148 = COORDINATED_UNIVERSAL_TIME_OFFSET ( 6, 0, .BEHIND. ) ;
#149 = APPROVAL_PERSON_ORGANIZATION ( #150, #197, #43 ) ;
#150 = PERSON_AND_ORGANIZATION ( #234, #181 ) ;
#151 = DATE_AND_TIME ( #152, #153 ) ;
#152 = CALENDAR_DATE ( 2012, 25, 6 ) ;
#153 = LOCAL_TIME ( 15, 57, 51.00000000000000000, #154 ) ;
#154 = COORDINATED_UNIVERSAL_TIME_OFFSET ( 6, 0, .BEHIND. ) ;
#155 = PERSON_AND_ORGANIZATION ( #234, #181 ) ;
#156 = FACE_OUTER_BOUND ( 'NONE', #115, .T. ) ;
#157 = CYLINDRICAL_SURFACE ( 'NONE', #216, 198.4000000000000100 ) ;
#158 = PERSON_AND_ORGANIZATION ( #234, #181 ) ;
#159 = PERSON_AND_ORGANIZATION ( #234, #181 ) ;
#160 = APPROVAL_DATE_TIME ( #161, #204 ) ;
#161 = DATE_AND_TIME ( #162, #163 ) ;
#162 = CALENDAR_DATE ( 2012, 25, 6 ) ;
#163 = LOCAL_TIME ( 15, 57, 51.00000000000000000, #164 ) ;
#164 = COORDINATED_UNIVERSAL_TIME_OFFSET ( 6, 0, .BEHIND. ) ;
#165 = APPROVAL_PERSON_ORGANIZATION ( #166, #204, #52 ) ;
#166 = PERSON_AND_ORGANIZATION ( #234, #181 ) ;
#167 = DATE_AND_TIME ( #168, #169 ) ;
#168 = CALENDAR_DATE ( 2012, 25, 6 ) ;
#169 = LOCAL_TIME ( 15, 57, 51.00000000000000000, #171 ) ;
#170 = FACE_OUTER_BOUND ( 'NONE', #120, .T. ) ;
#171 = COORDINATED_UNIVERSAL_TIME_OFFSET ( 6, 0, .BEHIND. ) ;
#172 = PERSON_AND_ORGANIZATION ( #234, #181 ) ;
#173 = APPROVAL_DATE_TIME ( #174, #209 ) ;
#174 = DATE_AND_TIME ( #175, #176 ) ;
#175 = CALENDAR_DATE ( 2012, 25, 6 ) ;
#176 = LOCAL_TIME ( 15, 57, 51.00000000000000000, #177 ) ;
#177 = COORDINATED_UNIVERSAL_TIME_OFFSET ( 6, 0, .BEHIND. ) ;
#178 = APPROVAL_PERSON_ORGANIZATION ( #179, #209, #58 ) ;
#179 = PERSON_AND_ORGANIZATION ( #234, #181 ) ;
#180 = PERSON_AND_ORGANIZATION ( #234, #181 ) ;
#181 = ORGANIZATION ( 'UNSPECIFIED', 'UNSPECIFIED', '' ) ;
#182 = SHAPE_DEFINITION_REPRESENTATION ( #143, #192 ) ;
#183 = CIRCLE ( 'NONE', #220, 198.4000000000000100 ) ;
#184 =( GEOMETRIC_REPRESENTATION_CONTEXT ( 3 ) GLOBAL_UNCERTAINTY_ASSIGNED_CONTEXT ( ( #190 ) ) GLOBAL_UNIT_ASSIGNED_CONTEXT ( ( #5, #11, #2 ) ) REPRESENTATION_CONTEXT ( 'NONE', 'WORKASPACE' ) );
#185 = FACE_OUTER_BOUND ( 'NONE', #81, .T. ) ;
#186 = FACE_OUTER_BOUND ( 'NONE', #112, .T. ) ;
#187 = FACE_OUTER_BOUND ( 'NONE', #80, .T. ) ;
#188 = CYLINDRICAL_SURFACE ( 'NONE', #214, 200.0000000000000000 ) ;
#189 = CIRCLE ( 'NONE', #218, 200.0000000000000000 ) ;
#190 = UNCERTAINTY_MEASURE_WITH_UNIT (LENGTH_MEASURE( 1.000000000000000100E-005 ), #5, 'distance_accuracy_value', 'NONE');
#191 = MANIFOLD_SOLID_BREP ( 'Boss-Extrude1', #117 ) ;
#192 = ADVANCED_BREP_SHAPE_REPRESENTATION ( 'GuardFlat', ( #191, #233 ), #184 ) ;
#193 = EDGE_CURVE ( 'NONE', #135, #139, #94, .T. ) ;
#194 = PRODUCT_RELATED_PRODUCT_CATEGORY ( 'detail', '', ( #235 ) ) ;
#195 = CC_DESIGN_SECURITY_CLASSIFICATION ( #200, ( #205 ) ) ;
#196 = CC_DESIGN_APPROVAL ( #197, ( #200 ) ) ;
#197 = APPROVAL ( #45, 'UNSPECIFIED' ) ;
#198 = CC_DESIGN_DATE_AND_TIME_ASSIGNMENT ( #151, #46, ( #200 ) ) ;
#199 = CC_DESIGN_PERSON_AND_ORGANIZATION_ASSIGNMENT ( #155, #47, ( #200 ) ) ;
#200 = SECURITY_CLASSIFICATION ( '', '', #49 ) ;
#201 = CC_DESIGN_PERSON_AND_ORGANIZATION_ASSIGNMENT ( #158, #50, ( #205 ) ) ;
#202 = CC_DESIGN_PERSON_AND_ORGANIZATION_ASSIGNMENT ( #159, #51, ( #205 ) ) ;
#203 = CC_DESIGN_APPROVAL ( #204, ( #205 ) ) ;
#204 = APPROVAL ( #54, 'UNSPECIFIED' ) ;
#205 = PRODUCT_DEFINITION_FORMATION_WITH_SPECIFIED_SOURCE ( 'ANY', '', #235, .NOT_KNOWN. ) ;
#206 = CC_DESIGN_DATE_AND_TIME_ASSIGNMENT ( #167, #55, ( #210 ) ) ;
#207 = CC_DESIGN_PERSON_AND_ORGANIZATION_ASSIGNMENT ( #172, #57, ( #210 ) ) ;
#208 = CC_DESIGN_APPROVAL ( #209, ( #210 ) ) ;
#209 = APPROVAL ( #59, 'UNSPECIFIED' ) ;
#210 = PRODUCT_DEFINITION ( 'UNKNOWN', '', #205, #142 ) ;
#211 = CC_DESIGN_PERSON_AND_ORGANIZATION_ASSIGNMENT ( #180, #62, ( #235 ) ) ;
#212 = AXIS2_PLACEMENT_3D ( 'NONE', #9, #4, #3 ) ;
#213 = AXIS2_PLACEMENT_3D ( 'NONE', #12, #7, #6 ) ;
#214 = AXIS2_PLACEMENT_3D ( 'NONE', #18, #15, #16 ) ;
#215 = AXIS2_PLACEMENT_3D ( 'NONE', #19, #14, #13 ) ;
#216 = AXIS2_PLACEMENT_3D ( 'NONE', #22, #37, #23 ) ;
#217 = AXIS2_PLACEMENT_3D ( 'NONE', #27, #21, #20 ) ;
#218 = AXIS2_PLACEMENT_3D ( 'NONE', #36, #31, #30 ) ;
#219 = AXIS2_PLACEMENT_3D ( 'NONE', #33, #34, #35 ) ;
#220 = AXIS2_PLACEMENT_3D ( 'NONE', #32, #25, #24 ) ;
#221 = EDGE_CURVE ( 'NONE', #139, #136, #88, .T. ) ;
#222 = EDGE_CURVE ( 'NONE', #129, #126, #89, .T. ) ;
#223 = EDGE_CURVE ( 'NONE', #127, #128, #90, .T. ) ;
#224 = EDGE_CURVE ( 'NONE', #136, #128, #79, .T. ) ;
#225 = EDGE_CURVE ( 'NONE', #128, #126, #83, .T. ) ;
#226 = EDGE_CURVE ( 'NONE', #127, #129, #78, .T. ) ;
#227 = EDGE_CURVE ( 'NONE', #135, #130, #75, .T. ) ;
#228 = EDGE_CURVE ( 'NONE', #130, #126, #71, .T. ) ;
#229 = EDGE_CURVE ( 'NONE', #139, #127, #189, .T. ) ;
#230 = EDGE_CURVE ( 'NONE', #130, #136, #73, .T. ) ;
#231 = EDGE_CURVE ( 'NONE', #135, #129, #183, .T. ) ;
#232 = AXIS2_PLACEMENT_3D ( 'NONE', #70, #66, #38 ) ;
#233 = AXIS2_PLACEMENT_3D ( 'NONE', #69, #68, #67 ) ;
#234 = PERSON ( 'UNSPECIFIED', 'UNSPECIFIED', 'UNSPECIFIED', ('UNSPECIFIED'), ('UNSPECIFIED'), ('UNSPECIFIED') ) ;
#235 = PRODUCT ( 'GuardFlat', 'GuardFlat', '', ( #63 ) ) ;
#236 = ADVANCED_FACE ( 'NONE', ( #82 ), #26, .F. ) ;
#237 = ADVANCED_FACE ( 'NONE', ( #187 ), #157, .F. ) ;
#238 = ADVANCED_FACE ( 'NONE', ( #156 ), #17, .T. ) ;
#239 = ADVANCED_FACE ( 'NONE', ( #185 ), #188, .T. ) ;
#240 = ADVANCED_FACE ( 'NONE', ( #170 ), #10, .F. ) ;
#241 = ADVANCED_FACE ( 'NONE', ( #186 ), #8, .F. ) ;
ENDSEC;
END-ISO-10303-21;
