999
dxflib 2.2.0.0
  0
SECTION
  2
HEADER
  9
$ACADVER
  1
AC1015
  9
$HANDSEED
  5
FFFF
  9
$DIMASZ
 40
0.1
  9
$PLIMMIN
 10
0.0
 20
0.0
  9
$DIMEXE
 40
0.05
  9
$DIMGAP
 40
0.025
  9
$PLIMMAX
 10
8.2677165354330722
 20
11.6929133858267722
  9
$INSUNITS
 70
1
  9
$DIMSTYLE
  2
Standard
  9
$DIMEXO
 40
0.025
  9
$DIMTXT
 40
0.1
  0
ENDSEC
  0
SECTION
  2
TABLES
  0
TABLE
  2
VPORT
  5
8
100
AcDbSymbolTable
 70
1
  0
VPORT
  5
30
100
AcDbSymbolTableRecord
100
AcDbViewportTableRecord
  2
*Active
 70
0
 10
0.0
 20
0.0
 11
1.0
 21
1.0
 12
286.3055555555554861
 22
148.5
 13
0.0
 23
0.0
 14
10.0
 24
10.0
 15
10.0
 25
10.0
 16
0.0
 26
0.0
 36
1.0
 17
0.0
 27
0.0
 37
0.0
 40
297.0
 41
1.92798353909465
 42
50.0
 43
0.0
 44
0.0
 50
0.0
 51
0.0
 71
0
 72
100
 73
1
 74
3
 75
1
 76
1
 77
0
 78
0
281
0
 65
1
110
0.0
120
0.0
130
0.0
111
1.0
121
0.0
131
0.0
112
0.0
122
1.0
132
0.0
 79
0
146
0.0
  0
ENDTAB
  0
TABLE
  2
LTYPE
  5
5
100
AcDbSymbolTable
 70
21
  0
LTYPE
  5
14
100
AcDbSymbolTableRecord
100
AcDbLinetypeTableRecord
  2
ByBlock
 70
0
  3

 72
65
 73
0
 40
0.0
  0
LTYPE
  5
15
100
AcDbSymbolTableRecord
100
AcDbLinetypeTableRecord
  2
ByLayer
 70
0
  3

 72
65
 73
0
 40
0.0
  0
LTYPE
  5
16
100
AcDbSymbolTableRecord
100
AcDbLinetypeTableRecord
  2
CONTINUOUS
 70
0
  3
Solid line
 72
65
 73
0
 40
0.0
  0
LTYPE
  5
31
100
AcDbSymbolTableRecord
100
AcDbLinetypeTableRecord
  2
DOT
 70
0
  3
Dot . . . . . . . . . . . . . . . . . . . . . .
 72
65
 73
2
 40
6.3499999999999996
 49
0.0
 74
0
 49
-6.3499999999999996
 74
0
  0
LTYPE
  5
32
100
AcDbSymbolTableRecord
100
AcDbLinetypeTableRecord
  2
DOT2
 70
0
  3
Dot (.5x) .....................................
 72
65
 73
2
 40
3.1749999999999998
 49
0.0
 74
0
 49
-3.1749999999999998
 74
0
  0
LTYPE
  5
33
100
AcDbSymbolTableRecord
100
AcDbLinetypeTableRecord
  2
DOTX2
 70
0
  3
Dot (2x) .  .  .  .  .  .  .  .  .  .  .  .  .
 72
65
 73
2
 40
12.6999999999999993
 49
0.0
 74
0
 49
-12.6999999999999993
 74
0
  0
LTYPE
  5
34
100
AcDbSymbolTableRecord
100
AcDbLinetypeTableRecord
  2
DASHED
 70
0
  3
Dashed __ __ __ __ __ __ __ __ __ __ __ __ __ _
 72
65
 73
2
 40
19.0500000000000007
 49
12.6999999999999993
 74
0
 49
-6.3499999999999996
 74
0
  0
LTYPE
  5
35
100
AcDbSymbolTableRecord
100
AcDbLinetypeTableRecord
  2
DASHED2
 70
0
  3
Dashed (.5x) _ _ _ _ _ _ _ _ _ _ _ _ _ _ _ _ _
 72
65
 73
2
 40
9.5250000000000004
 49
6.3499999999999996
 74
0
 49
-3.1749999999999998
 74
0
  0
LTYPE
  5
36
100
AcDbSymbolTableRecord
100
AcDbLinetypeTableRecord
  2
DASHEDX2
 70
0
  3
Dashed (2x) ____  ____  ____  ____  ____  ___
 72
65
 73
2
 40
38.1000000000000014
 49
25.3999999999999986
 74
0
 49
-12.6999999999999993
 74
0
  0
LTYPE
  5
37
100
AcDbSymbolTableRecord
100
AcDbLinetypeTableRecord
  2
DASHDOT
 70
0
  3
Dash dot __ . __ . __ . __ . __ . __ . __ . __
 72
65
 73
4
 40
25.3999999999999986
 49
12.6999999999999993
 74
0
 49
-6.3499999999999996
 74
0
 49
0.0
 74
0
 49
-6.3499999999999996
 74
0
  0
LTYPE
  5
38
100
AcDbSymbolTableRecord
100
AcDbLinetypeTableRecord
  2
DASHDOT2
 70
0
  3
Dash dot (.5x) _._._._._._._._._._._._._._._.
 72
65
 73
4
 40
12.6999999999999993
 49
6.3499999999999996
 74
0
 49
-3.1749999999999998
 74
0
 49
0.0
 74
0
 49
-3.1749999999999998
 74
0
  0
LTYPE
  5
39
100
AcDbSymbolTableRecord
100
AcDbLinetypeTableRecord
  2
DASHDOTX2
 70
0
  3
Dash dot (2x) ____  .  ____  .  ____  .  ___
 72
65
 73
4
 40
50.7999999999999972
 49
25.3999999999999986
 74
0
 49
-12.6999999999999993
 74
0
 49
0.0
 74
0
 49
-12.6999999999999993
 74
0
  0
LTYPE
  5
3A
100
AcDbSymbolTableRecord
100
AcDbLinetypeTableRecord
  2
DIVIDE
 70
0
  3
Divide ____ . . ____ . . ____ . . ____ . . ____
 72
65
 73
6
 40
31.75
 49
12.6999999999999993
 74
0
 49
-6.3499999999999996
 74
0
 49
0.0
 74
0
 49
-6.3499999999999996
 74
0
 49
0.0
 74
0
 49
-6.3499999999999996
 74
0
  0
LTYPE
  5
3B
100
AcDbSymbolTableRecord
100
AcDbLinetypeTableRecord
  2
DIVIDE2
 70
0
  3
Divide (.5x) __..__..__..__..__..__..__..__.._
 72
65
 73
6
 40
15.875
 49
6.3499999999999996
 74
0
 49
-3.1749999999999998
 74
0
 49
0.0
 74
0
 49
-3.1749999999999998
 74
0
 49
0.0
 74
0
 49
-3.1749999999999998
 74
0
  0
LTYPE
  5
3C
100
AcDbSymbolTableRecord
100
AcDbLinetypeTableRecord
  2
DIVIDEX2
 70
0
  3
Divide (2x) ________  .  .  ________  .  .  _
 72
65
 73
6
 40
63.5
 49
25.3999999999999986
 74
0
 49
-12.6999999999999993
 74
0
 49
0.0
 74
0
 49
-12.6999999999999993
 74
0
 49
0.0
 74
0
 49
-12.6999999999999993
 74
0
  0
LTYPE
  5
3D
100
AcDbSymbolTableRecord
100
AcDbLinetypeTableRecord
  2
CENTER
 70
0
  3
Center ____ _ ____ _ ____ _ ____ _ ____ _ ____
 72
65
 73
4
 40
50.7999999999999972
 49
31.75
 74
0
 49
-6.3499999999999996
 74
0
 49
6.3499999999999996
 74
0
 49
-6.3499999999999996
 74
0
  0
LTYPE
  5
3E
100
AcDbSymbolTableRecord
100
AcDbLinetypeTableRecord
  2
CENTER2
 70
0
  3
Center (.5x) ___ _ ___ _ ___ _ ___ _ ___ _ ___
 72
65
 73
4
 40
28.5749999999999993
 49
19.0500000000000007
 74
0
 49
-3.1749999999999998
 74
0
 49
3.1749999999999998
 74
0
 49
-3.1749999999999998
 74
0
  0
LTYPE
  5
3F
100
AcDbSymbolTableRecord
100
AcDbLinetypeTableRecord
  2
CENTERX2
 70
0
  3
Center (2x) ________  __  ________  __  _____
 72
65
 73
4
 40
101.5999999999999943
 49
63.5
 74
0
 49
-12.6999999999999993
 74
0
 49
12.6999999999999993
 74
0
 49
-12.6999999999999993
 74
0
  0
LTYPE
  5
40
100
AcDbSymbolTableRecord
100
AcDbLinetypeTableRecord
  2
BORDER
 70
0
  3
Border __ __ . __ __ . __ __ . __ __ . __ __ .
 72
65
 73
6
 40
44.4500000000000028
 49
12.6999999999999993
 74
0
 49
-6.3499999999999996
 74
0
 49
12.6999999999999993
 74
0
 49
-6.3499999999999996
 74
0
 49
0.0
 74
0
 49
-6.3499999999999996
 74
0
  0
LTYPE
  5
41
100
AcDbSymbolTableRecord
100
AcDbLinetypeTableRecord
  2
BORDER2
 70
0
  3
Border (.5x) __.__.__.__.__.__.__.__.__.__.__.
 72
65
 73
6
 40
22.2250000000000014
 49
6.3499999999999996
 74
0
 49
-3.1749999999999998
 74
0
 49
6.3499999999999996
 74
0
 49
-3.1749999999999998
 74
0
 49
0.0
 74
0
 49
-3.1749999999999998
 74
0
  0
LTYPE
  5
42
100
AcDbSymbolTableRecord
100
AcDbLinetypeTableRecord
  2
BORDERX2
 70
0
  3
Border (2x) ____  ____  .  ____  ____  .  ___
 72
65
 73
6
 40
88.9000000000000057
 49
25.3999999999999986
 74
0
 49
-12.6999999999999993
 74
0
 49
25.3999999999999986
 74
0
 49
-12.6999999999999993
 74
0
 49
0.0
 74
0
 49
-12.6999999999999993
 74
0
  0
ENDTAB
  0
TABLE
  2
LAYER
  5
2
100
AcDbSymbolTable
 70
3
  0
LAYER
  5
10
100
AcDbSymbolTableRecord
100
AcDbLayerTableRecord
  2
0
 70
0
 62
7
  6
CONTINUOUS
370
0
390
F
  0
LAYER
  5
43
100
AcDbSymbolTableRecord
100
AcDbLayerTableRecord
  2
Layer0
 70
0
 62
7
  6
ByLayer
390
F
  0
LAYER
  5
44
100
AcDbSymbolTableRecord
100
AcDbLayerTableRecord
  2
Group#1
 70
0
 62
7
  6
ByLayer
390
F
  0
ENDTAB
  0
TABLE
  2
STYLE
  5
3
100
AcDbSymbolTable
 70
1
  0
STYLE
  5
11
100
AcDbSymbolTableRecord
100
AcDbTextStyleTableRecord
  2
Standard
 70
0
 40
0.0
 41
0.75
 50
0.0
 71
0
 42
2.5
  3
txt
  4

  0
ENDTAB
  0
TABLE
  2
VIEW
  5
6
100
AcDbSymbolTable
 70
0
  0
ENDTAB
  0
TABLE
  2
UCS
  5
7
100
AcDbSymbolTable
 70
0
  0
ENDTAB
  0
TABLE
  2
APPID
  5
9
100
AcDbSymbolTable
 70
1
  0
APPID
  5
12
100
AcDbSymbolTableRecord
100
AcDbRegAppTableRecord
  2
ACAD
 70
0
  0
ENDTAB
  0
TABLE
  2
DIMSTYLE
  5
A
100
AcDbSymbolTable
 70
1
100
AcDbDimStyleTable
 71
0
  0
DIMSTYLE
105
27
100
AcDbSymbolTableRecord
100
AcDbDimStyleTableRecord
  2
Standard
 41
0.1
 42
0.025
 43
3.75
 44
0.05
 70
0
 73
0
 74
0
 77
1
 78
8
140
0.1
141
2.5
143
0.03937007874016
147
0.025
171
3
172
1
271
2
272
2
274
3
278
44
283
0
284
8
340
11
  0
ENDTAB
  0
TABLE
  2
BLOCK_RECORD
  5
1
100
AcDbSymbolTable
 70
1
  0
BLOCK_RECORD
  5
1F
100
AcDbSymbolTableRecord
100
AcDbBlockTableRecord
  2
*Model_Space
340
22
  0
BLOCK_RECORD
  5
1B
100
AcDbSymbolTableRecord
100
AcDbBlockTableRecord
  2
*Paper_Space
340
1E
  0
BLOCK_RECORD
  5
23
100
AcDbSymbolTableRecord
100
AcDbBlockTableRecord
  2
*Paper_Space0
340
26
  0
ENDTAB
  0
ENDSEC
  0
SECTION
  2
BLOCKS
  0
BLOCK
  5
20
100
AcDbEntity
  8
0
100
AcDbBlockBegin
  2
*Model_Space
 70
0
 10
0.0
 20
0.0
 30
0.0
  3
*Model_Space
  1

  0
ENDBLK
  5
21
100
AcDbEntity
  8
0
100
AcDbBlockEnd
  0
BLOCK
  5
1C
100
AcDbEntity
 67
1
  8
0
100
AcDbBlockBegin
  2
*Paper_Space
 70
0
 10
0.0
 20
0.0
 30
0.0
  3
*Paper_Space
  1

  0
ENDBLK
  5
1D
100
AcDbEntity
 67
1
  8
0
100
AcDbBlockEnd
  0
BLOCK
  5
24
100
AcDbEntity
  8
0
100
AcDbBlockBegin
  2
*Paper_Space0
 70
0
 10
0.0
 20
0.0
 30
0.0
  3
*Paper_Space0
  1

  0
ENDBLK
  5
25
100
AcDbEntity
  8
0
100
AcDbBlockEnd
  0
ENDSEC
  0
SECTION
  2
ENTITIES
  0
LINE
  5
45
100
AcDbEntity
100
AcDbLine
  8
Layer0
 62
256
370
-1
  6
ByLayer
 10
-1.902077347805232
 20
-8.0485255467572046
 30
0.0
 11
-1.8812465430242185
 21
-8.0559958078602136
 31
0.0
  0
LINE
  5
46
100
AcDbEntity
100
AcDbLine
  8
Group#1
 62
256
370
-1
  6
ByLayer
 10
11.2598258263122659
 20
1.067677341123499
 30
0.0
 11
11.3654537826969886
 21
2.4215136716408097
 31
0.0
  0
LINE
  5
47
100
AcDbEntity
100
AcDbLine
  8
Group#1
 62
256
370
-1
  6
ByLayer
 10
11.3654537826969886
 20
2.4215136716408097
 30
0.0
 11
11.3005681460755341
 21
3.7779132916491704
 31
0.0
  0
LINE
  5
48
100
AcDbEntity
100
AcDbLine
  8
Group#1
 62
256
370
-1
  6
ByLayer
 10
11.3005681460755341
 20
3.7779132916491704
 30
0.0
 11
11.0661922016981862
 21
5.1154849688671931
 31
0.0
  0
LINE
  5
49
100
AcDbEntity
100
AcDbLine
  8
Group#1
 62
256
370
-1
  6
ByLayer
 10
11.0661922016981862
 20
5.1154849688671931
 30
0.0
 11
10.6660221982171777
 21
6.4131343989185581
 31
0.0
  0
LINE
  5
4A
100
AcDbEntity
100
AcDbLine
  8
Group#1
 62
256
370
-1
  6
ByLayer
 10
10.6660221982171777
 20
6.4131343989185581
 30
0.0
 11
10.1063690556374013
 21
7.6503968751131595
 31
0.0
  0
LINE
  5
4B
100
AcDbEntity
100
AcDbLine
  8
Group#1
 62
256
370
-1
  6
ByLayer
 10
10.1063690556374013
 20
7.6503968751131595
 30
0.0
 11
9.3960588383379218
 21
8.8077600290966274
 31
0.0
  0
LINE
  5
4C
100
AcDbEntity
100
AcDbLine
  8
Group#1
 62
256
370
-1
  6
ByLayer
 10
9.3960588383379218
 20
8.8077600290966274
 30
0.0
 11
8.5462935627642764
 21
9.8669715525554125
 31
0.0
  0
LINE
  5
4D
100
AcDbEntity
100
AcDbLine
  8
Group#1
 62
256
370
-1
  6
ByLayer
 10
8.5462935627642764
 20
9.8669715525554125
 30
0.0
 11
7.5704745349374605
 21
10.8113270470222744
 31
0.0
  0
LINE
  5
4E
100
AcDbEntity
100
AcDbLine
  8
Group#1
 62
256
370
-1
  6
ByLayer
 10
7.5704745349374605
 20
10.8113270470222744
 30
0.0
 11
6.4839910038523385
 21
11.6259334622188391
 31
0.0
  0
LINE
  5
4F
100
AcDbEntity
100
AcDbLine
  8
Group#1
 62
256
370
-1
  6
ByLayer
 10
6.4839910038523385
 20
11.6259334622188391
 30
0.0
 11
5.3039774638278914
 21
12.2979439683551703
 31
0.0
  0
LINE
  5
50
100
AcDbEntity
100
AcDbLine
  8
Group#1
 62
256
370
-1
  6
ByLayer
 10
5.3039774638278914
 20
12.2979439683551703
 30
0.0
 11
4.0490434332962479
 21
12.8167605583098805
 31
0.0
  0
LINE
  5
51
100
AcDbEntity
100
AcDbLine
  8
Group#1
 62
256
370
-1
  6
ByLayer
 10
4.0490434332962479
 20
12.8167605583098805
 30
0.0
 11
2.738979971580136
 21
13.1742011845333877
 31
0.0
  0
LINE
  5
52
100
AcDbEntity
100
AcDbLine
  8
Group#1
 62
256
370
-1
  6
ByLayer
 10
2.738979971580136
 20
13.1742011845333877
 30
0.0
 11
1.394447562064812
 21
13.3646287948254496
 31
0.0
  0
LINE
  5
53
100
AcDbEntity
100
AcDbLine
  8
Group#1
 62
256
370
-1
  6
ByLayer
 10
1.394447562064812
 20
13.3646287948254496
 30
0.0
 11
0.036650284033044
 21
13.3850402320158253
 31
0.0
  0
LINE
  5
54
100
AcDbEntity
100
AcDbLine
  8
Group#1
 62
256
370
-1
  6
ByLayer
 10
0.036650284033044
 20
13.3850402320158253
 30
0.0
 11
-1.3129985883317943
 21
13.2351135955468209
 31
0.0
  0
LINE
  5
55
100
AcDbEntity
100
AcDbLine
  8
Group#1
 62
256
370
-1
  6
ByLayer
 10
-1.3129985883317943
 20
13.2351135955468209
 30
0.0
 11
-2.633214286071393
 21
12.9172133180373976
 31
0.0
  0
LINE
  5
56
100
AcDbEntity
100
AcDbLine
  8
Group#1
 62
256
370
-1
  6
ByLayer
 10
-2.633214286071393
 20
12.9172133180373976
 30
0.0
 11
-3.9031762189737549
 21
12.4363528767682823
 31
0.0
  0
LINE
  5
57
100
AcDbEntity
100
AcDbLine
  8
Group#1
 62
256
370
-1
  6
ByLayer
 10
-3.9031762189737549
 20
12.4363528767682823
 30
0.0
 11
-5.1028563287185307
 21
11.8001157281504021
 31
0.0
  0
LINE
  5
58
100
AcDbEntity
100
AcDbLine
  8
Group#1
 62
256
370
-1
  6
ByLayer
 10
-5.1028563287185307
 20
11.8001157281504021
 30
0.0
 11
-6.2133349433208593
 21
11.0185357120871004
 31
0.0
  0
LINE
  5
59
100
AcDbEntity
100
AcDbLine
  8
Group#1
 62
256
370
-1
  6
ByLayer
 10
-6.2133349433208593
 20
11.0185357120871004
 30
0.0
 11
-7.2170991516607046
 21
10.1039388123249694
 31
0.0
  0
LINE
  5
5A
100
AcDbEntity
100
AcDbLine
  8
Group#1
 62
256
370
-1
  6
ByLayer
 10
-7.2170991516607046
 20
10.1039388123249694
 30
0.0
 11
-8.0983189925528904
 21
9.070748768326979
 31
0.0
  0
LINE
  5
5B
100
AcDbEntity
100
AcDbLine
  8
Group#1
 62
256
370
-1
  6
ByLayer
 10
-8.0983189925528904
 20
9.070748768326979
 30
0.0
 11
-8.8430971026913028
 21
7.9352596042847807
 31
0.0
  0
LINE
  5
5C
100
AcDbEntity
100
AcDbLine
  8
Group#1
 62
256
370
-1
  6
ByLayer
 10
-8.8430971026913028
 20
7.9352596042847807
 30
0.0
 11
-9.4396878863702227
 21
6.7153786626236638
 31
0.0
  0
LINE
  5
5D
100
AcDbEntity
100
AcDbLine
  8
Group#1
 62
256
370
-1
  6
ByLayer
 10
-9.4396878863702227
 20
6.7153786626236638
 30
0.0
 11
-9.8786827505449253
 21
5.430344194515186
 31
0.0
  0
LINE
  5
5E
100
AcDbEntity
100
AcDbLine
  8
Group#1
 62
256
370
-1
  6
ByLayer
 10
-9.8786827505449253
 20
5.430344194515186
 30
0.0
 11
-10.153158483964603
 21
4.1004219611637893
 31
0.0
  0
LINE
  5
5F
100
AcDbEntity
100
AcDbLine
  8
Group#1
 62
256
370
-1
  6
ByLayer
 10
-10.153158483964603
 20
4.1004219611637893
 30
0.0
 11
-10.2587864403493256
 21
2.7465856306464644
 31
0.0
  0
LINE
  5
60
100
AcDbEntity
100
AcDbLine
  8
Group#1
 62
256
370
-1
  6
ByLayer
 10
-10.2587864403493256
 20
2.7465856306464644
 30
0.0
 11
-10.1939008037278427
 21
1.3901860106380894
 31
0.0
  0
LINE
  5
61
100
AcDbEntity
100
AcDbLine
  8
Group#1
 62
256
370
-1
  6
ByLayer
 10
-10.1939008037278427
 20
1.3901860106380894
 30
0.0
 11
-9.9595248593504948
 21
0.0526143334200668
 31
0.0
  0
LINE
  5
62
100
AcDbEntity
100
AcDbLine
  8
Group#1
 62
256
370
-1
  6
ByLayer
 10
-9.9595248593504948
 20
0.0526143334200668
 30
0.0
 11
-9.5593548558694863
 21
-1.2450350966312982
 31
0.0
  0
LINE
  5
63
100
AcDbEntity
100
AcDbLine
  8
Group#1
 62
256
370
-1
  6
ByLayer
 10
-9.5593548558694863
 20
-1.2450350966312982
 30
0.0
 11
-8.9997017132897099
 21
-2.4822975728258996
 31
0.0
  0
LINE
  5
64
100
AcDbEntity
100
AcDbLine
  8
Group#1
 62
256
370
-1
  6
ByLayer
 10
-8.9997017132897099
 20
-2.4822975728258996
 30
0.0
 11
-8.289391495990202
 21
-3.6396607268093675
 31
0.0
  0
LINE
  5
65
100
AcDbEntity
100
AcDbLine
  8
Group#1
 62
256
370
-1
  6
ByLayer
 10
-8.289391495990202
 20
-3.6396607268093675
 30
0.0
 11
-7.4396262204165566
 21
-4.6988722502681526
 31
0.0
  0
LINE
  5
66
100
AcDbEntity
100
AcDbLine
  8
Group#1
 62
256
370
-1
  6
ByLayer
 10
-7.4396262204165566
 20
-4.6988722502681526
 30
0.0
 11
-6.4638071925897407
 21
-5.6432277447350003
 31
0.0
  0
LINE
  5
67
100
AcDbEntity
100
AcDbLine
  8
Group#1
 62
256
370
-1
  6
ByLayer
 10
-6.4638071925897407
 20
-5.6432277447350003
 30
0.0
 11
-5.3773236615045903
 21
-6.457834159931565
 31
0.0
  0
LINE
  5
68
100
AcDbEntity
100
AcDbLine
  8
Group#1
 62
256
370
-1
  6
ByLayer
 10
-5.3773236615045903
 20
-6.457834159931565
 30
0.0
 11
-4.1973101214801432
 21
-7.129844666067882
 31
0.0
  0
LINE
  5
69
100
AcDbEntity
100
AcDbLine
  8
Group#1
 62
256
370
-1
  6
ByLayer
 10
6.2095236710661936
 20
-6.6320164258630854
 30
0.0
 11
7.3200022856685223
 21
-5.8504364097997978
 31
0.0
  0
LINE
  5
6A
100
AcDbEntity
100
AcDbLine
  8
Group#1
 62
256
370
-1
  6
ByLayer
 10
7.3200022856685223
 20
-5.8504364097997978
 30
0.0
 11
8.3237664940083675
 21
-4.9358395100376811
 31
0.0
  0
LINE
  5
6B
100
AcDbEntity
100
AcDbLine
  8
Group#1
 62
256
370
-1
  6
ByLayer
 10
8.3237664940083675
 20
-4.9358395100376811
 30
0.0
 11
9.2049863349005534
 21
-3.9026494660396907
 31
0.0
  0
LINE
  5
6C
100
AcDbEntity
100
AcDbLine
  8
Group#1
 62
256
370
-1
  6
ByLayer
 10
9.2049863349005534
 20
-3.9026494660396907
 30
0.0
 11
9.9497644450389657
 21
-2.7671603019974924
 31
0.0
  0
LINE
  5
6D
100
AcDbEntity
100
AcDbLine
  8
Group#1
 62
256
370
-1
  6
ByLayer
 10
9.9497644450389657
 20
-2.7671603019974924
 30
0.0
 11
10.5463552287178572
 21
-1.5472793603363897
 31
0.0
  0
LINE
  5
6E
100
AcDbEntity
100
AcDbLine
  8
Group#1
 62
256
370
-1
  6
ByLayer
 10
10.5463552287178572
 20
-1.5472793603363897
 30
0.0
 11
10.9853500928925882
 21
-0.2622448922279119
 31
0.0
  0
LINE
  5
6F
100
AcDbEntity
100
AcDbLine
  8
Group#1
 62
256
370
-1
  6
ByLayer
 10
10.9853500928925882
 20
-0.2622448922279119
 30
0.0
 11
11.2598258263122659
 21
1.0676773411234706
 31
0.0
  0
LWPOLYLINE
  5
70
  8
Layer0
 62
256
370
-1
  6
ByLayer
100
AcDbEntity
100
AcDbPolyline
 90
27
 70
0
 10
2.4157127716205764
 20
-9.591956366250912
 10
2.431531012950586
 20
-9.4602855138889055
 10
2.432254603859576
 20
-9.4542623517869089
 10
2.4125949534935955
 20
-9.3169788058669099
 10
2.3580735932055745
 20
-9.1894613752729128
 10
2.272406063598595
 20
-9.0804001621679049
 10
2.1614304652425744
 20
-8.9972275079919086
 10
2.032709601771586
 20
-8.9456114916789033
 10
1.8950155873075971
 20
-8.9290696594399037
 10
1.7577320413875839
 20
-8.9487293098059126
 10
1.6302146107935869
 20
-9.0032506700939052
 10
1.5211533976885789
 20
-9.0889181997009132
 10
1.4379807435125826
 20
-9.1998937980559106
 10
1.3863647271995774
 20
-9.328614661527908
 10
1.3705464858695962
 20
-9.4602855138889055
 10
1.3698228949605777
 20
-9.4663086759919111
 10
1.3894825453275814
 20
-9.6035922219119101
 10
1.4440039056156024
 20
-9.7311096525059071
 10
1.5296714352215872
 20
-9.840170865610915
 10
1.6406470335775794
 20
-9.9233435197869113
 10
1.7693678970485962
 20
-9.9749595360999024
 10
1.9070619115125851
 20
-9.991501368338902
 10
2.0443454574325983
 20
-9.9718417179719125
 10
2.1718628880265953
 20
-9.9173203576839057
 10
2.2809241011315748
 20
-9.8316528280779067
 10
2.3640967553075996
 20
-9.7206772297219146
 10
2.4157127716205764
 20
-9.591956366250912
  0
LWPOLYLINE
  5
71
  8
Layer0
 62
256
370
-1
  6
ByLayer
100
AcDbEntity
100
AcDbPolyline
 90
25
 70
0
 10
-1.0417251217830596
 20
-9.3040247912912264
 10
-1.0598270265670635
 20
-9.4415224090012231
 10
-1.0417251217830596
 20
-9.5790200267122287
 10
-0.9886530223270711
 20
-9.7071474090012231
 10
-0.904227504072054
 20
-9.8171728865072225
 10
-0.7942020265670635
 20
-9.9015984047622254
 10
-0.6660746442780692
 20
-9.9546705042172192
 10
-0.5285770265670635
 20
-9.9727724090012231
 10
-0.3910794088560579
 20
-9.9546705042172192
 10
-0.2629520265670635
 20
-9.9015984047622254
 10
-0.152926549062073
 20
-9.8171728865072225
 10
-0.0685010308070559
 20
-9.7071474090012231
 10
-0.0154289313510674
 20
-9.5790200267122287
 10
0.0026729734329365
 20
-9.4415224090012231
 10
-0.0154289313510674
 20
-9.3040247912912264
 10
-0.0685010308070559
 20
-9.1758974090012231
 10
-0.152926549062073
 20
-9.0658719314962326
 10
-0.2629520265670635
 20
-8.9814464132412297
 10
-0.3910794088560579
 20
-8.9283743137852269
 10
-0.5285770265670635
 20
-8.9102724090012231
 10
-0.6660746442780692
 20
-8.9283743137852269
 10
-0.7942020265670635
 20
-8.9814464132412297
 10
-0.904227504072054
 20
-9.0658719314962326
 10
-0.9886530223270711
 20
-9.1758974090012231
 10
-1.0417251217830596
 20
-9.3040247912912264
  0
LINE
  5
72
100
AcDbEntity
100
AcDbLine
  8
Group#1
 62
256
370
-1
  6
ByLayer
 10
-4.1973101214801432
 20
-7.129844666067882
 30
0.0
 11
-1.8060766016111813
 21
-8.0751041270368944
 31
0.0
  0
LINE
  5
73
100
AcDbEntity
100
AcDbLine
  8
Group#1
 62
256
370
-1
  6
ByLayer
 10
-1.846279378312488
 20
-8.0617032014697827
 30
0.0
 11
-1.819477527178293
 21
-10.8490957194277797
 31
0.0
  0
LINE
  5
74
100
AcDbEntity
100
AcDbLine
  8
Group#1
 62
256
370
-1
  6
ByLayer
 10
3.0768856519032965
 20
-7.9318817350386581
 30
0.0
 11
3.7398816284190843
 21
-7.7491140157500809
 31
0.0
  0
LINE
  5
75
100
AcDbEntity
100
AcDbLine
  8
Group#1
 62
256
370
-1
  6
ByLayer
 10
-1.819477527178293
 20
-10.8490957194277797
 30
0.0
 11
3.0768856519032965
 21
-10.8842731490416469
 31
0.0
  0
LINE
  5
76
100
AcDbEntity
100
AcDbLine
  8
Group#1
 62
256
370
-1
  6
ByLayer
 10
3.0768856519032965
 20
-10.9390159299832135
 30
0.0
 11
3.0768856519032965
 21
-7.9528206812372702
 31
0.0
  0
LINE
  5
77
100
AcDbEntity
100
AcDbLine
  8
Group#1
 62
256
370
-1
  6
ByLayer
 10
5.0124793453954624
 20
-7.2645818451640167
 30
0.0
 11
6.2093502117026844
 21
-6.6317535710245465
 31
0.0
  0
CIRCLE
  5
78
100
AcDbEntity
100
AcDbCircle
  8
Group#1
 62
256
370
-1
  6
ByLayer
 10
0.5854814885616975
 20
2.4995682137539319
 30
0.0
 40
5.4000000000000004
  0
LINE
  5
79
100
AcDbEntity
100
AcDbLine
  8
Group#1
 62
256
370
-1
  6
ByLayer
 10
3.7552637784925764
 20
-7.7451124701869816
 30
0.0
 11
5.0332833681742386
 21
-7.2530407565127462
 31
0.0
  0
ENDSEC
  0
SECTION
  2
OBJECTS
  0
DICTIONARY
  5
C
100
AcDbDictionary
280
0
281
1
  3
ACAD_GROUP
350
D
  3
ACAD_LAYOUT
350
1A
  3
ACAD_MLINESTYLE
350
17
  3
ACAD_PLOTSETTINGS
350
19
  3
ACAD_PLOTSTYLENAME
350
E
  3
AcDbVariableDictionary
350
7A
  0
DICTIONARY
  5
D
100
AcDbDictionary
280
0
281
1
  0
ACDBDICTIONARYWDFLT
  5
E
100
AcDbDictionary
281
1
  3
Normal
350
F
100
AcDbDictionaryWithDefault
340
F
  0
ACDBPLACEHOLDER
  5
F
  0
DICTIONARY
  5
17
100
AcDbDictionary
280
0
281
1
  3
Standard
350
18
  0
MLINESTYLE
  5
18
100
AcDbMlineStyle
  2
STANDARD
 70
0
  3

 62
256
 51
90.0
 52
90.0
 71
2
 49
0.5
 62
256
  6
BYLAYER
 49
-0.5
 62
256
  6
BYLAYER
  0
DICTIONARY
  5
19
100
AcDbDictionary
280
0
281
1
  0
DICTIONARY
  5
1A
100
AcDbDictionary
281
1
  3
Layout1
350
1E
  3
Layout2
350
26
  3
Model
350
22
  0
LAYOUT
  5
1E
100
AcDbPlotSettings
  1

  2
C:\Program Files\AutoCAD 2002\plotters\DWF ePlot (optimized for plotting).pc3
  4

  6

 40
0.0
 41
0.0
 42
0.0
 43
0.0
 44
0.0
 45
0.0
 46
0.0
 47
0.0
 48
0.0
 49
0.0
140
0.0
141
0.0
142
1.0
143
1.0
 70
688
 72
0
 73
0
 74
5
  7

 75
16
147
1.0
148
0.0
149
0.0
100
AcDbLayout
  1
Layout1
 70
1
 71
1
 10
0.0
 20
0.0
 11
420.0
 21
297.0
 12
0.0
 22
0.0
 32
0.0
 14
100000000000000000000.0
 24
100000000000000000000.0
 34
100000000000000000000.0
 15
-100000000000000000000.0
 25
-100000000000000000000.0
 35
-100000000000000000000.0
146
0.0
 13
0.0
 23
0.0
 33
0.0
 16
1.0
 26
0.0
 36
0.0
 17
0.0
 27
1.0
 37
0.0
 76
0
330
1B
  0
LAYOUT
  5
22
100
AcDbPlotSettings
  1

  2
C:\Program Files\AutoCAD 2002\plotters\DWF ePlot (optimized for plotting).pc3
  4

  6

 40
0.0
 41
0.0
 42
0.0
 43
0.0
 44
0.0
 45
0.0
 46
0.0
 47
0.0
 48
0.0
 49
0.0
140
0.0
141
0.0
142
1.0
143
1.0
 70
1712
 72
0
 73
0
 74
0
  7

 75
0
147
1.0
148
0.0
149
0.0
100
AcDbLayout
  1
Model
 70
1
 71
0
 10
0.0
 20
0.0
 11
12.0
 21
9.0
 12
0.0
 22
0.0
 32
0.0
 14
0.0
 24
0.0
 34
0.0
 15
0.0
 25
0.0
 35
0.0
146
0.0
 13
0.0
 23
0.0
 33
0.0
 16
1.0
 26
0.0
 36
0.0
 17
0.0
 27
1.0
 37
0.0
 76
0
330
1F
  0
LAYOUT
  5
26
100
AcDbPlotSettings
  1

  2
C:\Program Files\AutoCAD 2002\plotters\DWF ePlot (optimized for plotting).pc3
  4

  6

 40
0.0
 41
0.0
 42
0.0
 43
0.0
 44
0.0
 45
0.0
 46
0.0
 47
0.0
 48
0.0
 49
0.0
140
0.0
141
0.0
142
1.0
143
1.0
 70
688
 72
0
 73
0
 74
5
  7

 75
16
147
1.0
148
0.0
149
0.0
100
AcDbLayout
  1
Layout2
 70
1
 71
2
 10
0.0
 20
0.0
 11
12.0
 21
9.0
 12
0.0
 22
0.0
 32
0.0
 14
0.0
 24
0.0
 34
0.0
 15
0.0
 25
0.0
 35
0.0
146
0.0
 13
0.0
 23
0.0
 33
0.0
 16
1.0
 26
0.0
 36
0.0
 17
0.0
 27
1.0
 37
0.0
 76
0
330
23
  0
DICTIONARY
  5
7A
100
AcDbDictionary
281
1
  3
DIMASSOC
350
7C
  3
HIDETEXT
350
7B
  0
DICTIONARYVAR
  5
7B
100
DictionaryVariables
280
0
  1
2
  0
DICTIONARYVAR
  5
7C
100
DictionaryVariables
280
0
  1
1
  0
ENDSEC
  0
EOF
