ISO-10303-21;
HEADER;
FILE_DESCRIPTION (( 'STEP AP203' ),
    '1' );
FILE_NAME ('LongSpacer.STEP',
    '2012-07-01T06:13:31',
    ( '' ),
    ( '' ),
    'SwSTEP 2.0',
    'SolidWorks 2010',
    '' );
FILE_SCHEMA (( 'CONFIG_CONTROL_DESIGN' ));
ENDSEC;

DATA;
#1 = ADVANCED_FACE ( 'NONE', ( #225 ), #75, .F. ) ;
#2 = ADVANCED_FACE ( 'NONE', ( #223 ), #73, .T. ) ;
#3 = ADVANCED_FACE ( 'NONE', ( #226 ), #63, .F. ) ;
#4 = ADVANCED_FACE ( 'NONE', ( #220 ), #150, .F. ) ;
#5 = ADVANCED_FACE ( 'NONE', ( #228 ), #127, .F. ) ;
#6 = ADVANCED_FACE ( 'NONE', ( #229 ), #152, .F. ) ;
#7 = APPROVAL_DATE_TIME ( #15, #56 ) ;
#8 = APPROVAL_DATE_TIME ( #23, #58 ) ;
#9 = COORDINATED_UNIVERSAL_TIME_OFFSET ( 6, 0, .BEHIND. ) ;
#10 = CALENDAR_DATE ( 2012, 1, 7 ) ;
#11 = PERSON_AND_ORGANIZATION ( #144, #185 ) ;
#12 = LOCAL_TIME ( 1, 13, 31.00000000000000000, #17 ) ;
#13 = CALENDAR_DATE ( 2012, 1, 7 ) ;
#14 = PERSON_AND_ORGANIZATION ( #144, #185 ) ;
#15 = DATE_AND_TIME ( #16, #12 ) ;
#16 = CALENDAR_DATE ( 2012, 1, 7 ) ;
#17 = COORDINATED_UNIVERSAL_TIME_OFFSET ( 6, 0, .BEHIND. ) ;
#18 = DATE_AND_TIME ( #10, #20 ) ;
#19 = PERSON_AND_ORGANIZATION ( #144, #185 ) ;
#20 = LOCAL_TIME ( 1, 13, 31.00000000000000000, #9 ) ;
#21 = LOCAL_TIME ( 1, 13, 31.00000000000000000, #169 ) ;
#22 = APPROVAL_PERSON_ORGANIZATION ( #14, #56, #82 ) ;
#23 = DATE_AND_TIME ( #13, #21 ) ;
#24 = PERSON_AND_ORGANIZATION ( #144, #185 ) ;
#25 = AXIS2_PLACEMENT_3D ( 'NONE', #124, #126, #122 ) ;
#26 = AXIS2_PLACEMENT_3D ( 'NONE', #64, #149, #118 ) ;
#27 = EDGE_CURVE ( 'NONE', #79, #62, #227, .T. ) ;
#28 = EDGE_CURVE ( 'NONE', #121, #62, #232, .T. ) ;
#29 = CC_DESIGN_PERSON_AND_ORGANIZATION_ASSIGNMENT ( #184, #88, ( #135 ) ) ;
#30 = EDGE_CURVE ( 'NONE', #76, #121, #231, .T. ) ;
#31 = EDGE_CURVE ( 'NONE', #79, #81, #234, .T. ) ;
#32 = EDGE_CURVE ( 'NONE', #62, #123, #235, .T. ) ;
#33 = EDGE_CURVE ( 'NONE', #123, #76, #163, .T. ) ;
#34 = PRODUCT_DEFINITION_FORMATION_WITH_SPECIFIED_SOURCE ( 'ANY', '', #135, .NOT_KNOWN. ) ;
#35 = CC_DESIGN_DATE_AND_TIME_ASSIGNMENT ( #172, #69, ( #43 ) ) ;
#36 = CC_DESIGN_APPROVAL ( #58, ( #34 ) ) ;
#37 = EDGE_CURVE ( 'NONE', #81, #123, #164, .T. ) ;
#38 = AXIS2_PLACEMENT_3D ( 'NONE', #65, #143, #142 ) ;
#39 = CC_DESIGN_PERSON_AND_ORGANIZATION_ASSIGNMENT ( #24, #131, ( #34 ) ) ;
#40 = CC_DESIGN_PERSON_AND_ORGANIZATION_ASSIGNMENT ( #175, #72, ( #43 ) ) ;
#41 = AXIS2_PLACEMENT_3D ( 'NONE', #92, #94, #93 ) ;
#42 = CC_DESIGN_APPROVAL ( #44, ( #43 ) ) ;
#43 = PRODUCT_DEFINITION ( 'UNKNOWN', '', #34, #153 ) ;
#44 = APPROVAL ( #66, 'UNSPECIFIED' ) ;
#45 = CC_DESIGN_PERSON_AND_ORGANIZATION_ASSIGNMENT ( #19, #89, ( #34 ) ) ;
#46 = SECURITY_CLASSIFICATION ( '', '', #87 ) ;
#47 = EDGE_CURVE ( 'NONE', #119, #128, #158, .T. ) ;
#48 = EDGE_CURVE ( 'NONE', #119, #76, #195, .T. ) ;
#49 = EDGE_CURVE ( 'NONE', #128, #121, #193, .T. ) ;
#50 = AXIS2_PLACEMENT_3D ( 'NONE', #117, #151, #125 ) ;
#51 = AXIS2_PLACEMENT_3D ( 'NONE', #80, #84, #129 ) ;
#52 = EDGE_CURVE ( 'NONE', #128, #79, #191, .T. ) ;
#53 = EDGE_CURVE ( 'NONE', #81, #119, #189, .T. ) ;
#54 = CC_DESIGN_SECURITY_CLASSIFICATION ( #46, ( #34 ) ) ;
#55 = CC_DESIGN_APPROVAL ( #56, ( #46 ) ) ;
#56 = APPROVAL ( #83, 'UNSPECIFIED' ) ;
#57 = CC_DESIGN_DATE_AND_TIME_ASSIGNMENT ( #18, #85, ( #46 ) ) ;
#58 = APPROVAL ( #70, 'UNSPECIFIED' ) ;
#59 = AXIS2_PLACEMENT_3D ( 'NONE', #120, #78, #77 ) ;
#60 = PRODUCT_RELATED_PRODUCT_CATEGORY ( 'detail', '', ( #135 ) ) ;
#61 = CC_DESIGN_PERSON_AND_ORGANIZATION_ASSIGNMENT ( #11, #86, ( #46 ) ) ;
#62 = VERTEX_POINT ( 'NONE', #109 ) ;
#63 = PLANE ( 'NONE',  #25 ) ;
#64 = CARTESIAN_POINT ( 'NONE',  ( 0.0000000000000000000, 70.00000000000000000, -50.79999999999999700 ) ) ;
#65 = CARTESIAN_POINT ( 'NONE',  ( 0.0000000000000000000, 70.00000000000000000, -50.79999999999999700 ) ) ;
#66 = APPROVAL_STATUS ( 'not_yet_approved' ) ;
#67 = APPLICATION_PROTOCOL_DEFINITION ( 'international standard', 'config_control_design', 1994, #68 ) ;
#68 = APPLICATION_CONTEXT ( 'configuration controlled 3d designs of mechanical parts and assemblies' ) ;
#69 = DATE_TIME_ROLE ( 'creation_date' ) ;
#70 = APPROVAL_STATUS ( 'not_yet_approved' ) ;
#71 = APPROVAL_ROLE ( '' ) ;
#72 = PERSON_AND_ORGANIZATION_ROLE ( 'creator' ) ;
#73 = PLANE ( 'NONE',  #50 ) ;
#74 = MECHANICAL_CONTEXT ( 'NONE', #91, 'mechanical' ) ;
#75 = PLANE ( 'NONE',  #51 ) ;
#76 = VERTEX_POINT ( 'NONE', #102 ) ;
#77 = DIRECTION ( 'NONE',  ( -1.000000000000000000, 0.0000000000000000000, -0.0000000000000000000 ) ) ;
#78 = DIRECTION ( 'NONE',  ( 0.0000000000000000000, 0.0000000000000000000, -1.000000000000000000 ) ) ;
#79 = VERTEX_POINT ( 'NONE', #96 ) ;
#80 = CARTESIAN_POINT ( 'NONE',  ( 0.0000000000000000000, 70.00000000000000000, 0.0000000000000000000 ) ) ;
#81 = VERTEX_POINT ( 'NONE', #100 ) ;
#82 = APPROVAL_ROLE ( '' ) ;
#83 = APPROVAL_STATUS ( 'not_yet_approved' ) ;
#84 = DIRECTION ( 'NONE',  ( 1.000000000000000000, -0.0000000000000000000, 0.0000000000000000000 ) ) ;
#85 = DATE_TIME_ROLE ( 'classification_date' ) ;
#86 = PERSON_AND_ORGANIZATION_ROLE ( 'classification_officer' ) ;
#87 = SECURITY_CLASSIFICATION_LEVEL ( 'unclassified' ) ;
#88 = PERSON_AND_ORGANIZATION_ROLE ( 'design_owner' ) ;
#89 = PERSON_AND_ORGANIZATION_ROLE ( 'design_supplier' ) ;
#90 =( NAMED_UNIT ( * ) SI_UNIT ( $, .STERADIAN. ) SOLID_ANGLE_UNIT ( ) );
#91 = APPLICATION_CONTEXT ( 'configuration controlled 3d designs of mechanical parts and assemblies' ) ;
#92 = CARTESIAN_POINT ( 'NONE',  ( 0.0000000000000000000, 0.0000000000000000000, 0.0000000000000000000 ) ) ;
#93 = DIRECTION ( 'NONE',  ( 1.000000000000000000, 0.0000000000000000000, 0.0000000000000000000 ) ) ;
#94 = DIRECTION ( 'NONE',  ( 0.0000000000000000000, 0.0000000000000000000, 1.000000000000000000 ) ) ;
#95 =( NAMED_UNIT ( * ) PLANE_ANGLE_UNIT ( ) SI_UNIT ( $, .RADIAN. ) );
#96 = CARTESIAN_POINT ( 'NONE',  ( 76.20000000000000300, 70.00000000000000000, -50.79999999999999700 ) ) ;
#97 = DIRECTION ( 'NONE',  ( 0.0000000000000000000, 0.0000000000000000000, -1.000000000000000000 ) ) ;
#98 =( LENGTH_UNIT ( ) NAMED_UNIT ( * ) SI_UNIT ( .MILLI., .METRE. ) );
#99 = CARTESIAN_POINT ( 'NONE',  ( 76.20000000000000300, 70.00000000000000000, 0.0000000000000000000 ) ) ;
#100 = CARTESIAN_POINT ( 'NONE',  ( 0.0000000000000000000, 70.00000000000000000, -50.79999999999999700 ) ) ;
#101 = CARTESIAN_POINT ( 'NONE',  ( 0.0000000000000000000, 70.00000000000000000, 0.0000000000000000000 ) ) ;
#102 = CARTESIAN_POINT ( 'NONE',  ( 0.0000000000000000000, 0.0000000000000000000, 0.0000000000000000000 ) ) ;
#103 = CARTESIAN_POINT ( 'NONE',  ( 0.0000000000000000000, 70.00000000000000000, 0.0000000000000000000 ) ) ;
#104 = DIRECTION ( 'NONE',  ( -0.0000000000000000000, -0.0000000000000000000, 1.000000000000000000 ) ) ;
#105 = CARTESIAN_POINT ( 'NONE',  ( 0.0000000000000000000, 0.0000000000000000000, -50.79999999999999700 ) ) ;
#106 = DIRECTION ( 'NONE',  ( -0.0000000000000000000, -1.000000000000000000, -0.0000000000000000000 ) ) ;
#107 = DIRECTION ( 'NONE',  ( -0.0000000000000000000, -0.0000000000000000000, 1.000000000000000000 ) ) ;
#108 = CARTESIAN_POINT ( 'NONE',  ( 0.0000000000000000000, 0.0000000000000000000, 0.0000000000000000000 ) ) ;
#109 = CARTESIAN_POINT ( 'NONE',  ( 76.20000000000000300, 0.0000000000000000000, -50.79999999999999700 ) ) ;
#110 = DIRECTION ( 'NONE',  ( -1.000000000000000000, -0.0000000000000000000, -0.0000000000000000000 ) ) ;
#111 = CARTESIAN_POINT ( 'NONE',  ( 0.0000000000000000000, 70.00000000000000000, 0.0000000000000000000 ) ) ;
#112 = DIRECTION ( 'NONE',  ( -0.0000000000000000000, -1.000000000000000000, -0.0000000000000000000 ) ) ;
#113 = DIRECTION ( 'NONE',  ( 1.000000000000000000, 0.0000000000000000000, 0.0000000000000000000 ) ) ;
#114 = CARTESIAN_POINT ( 'NONE',  ( 0.0000000000000000000, 70.00000000000000000, 0.0000000000000000000 ) ) ;
#115 = DIRECTION ( 'NONE',  ( -0.0000000000000000000, -1.000000000000000000, -0.0000000000000000000 ) ) ;
#116 = CARTESIAN_POINT ( 'NONE',  ( 0.0000000000000000000, 70.00000000000000000, -50.79999999999999700 ) ) ;
#117 = CARTESIAN_POINT ( 'NONE',  ( 0.0000000000000000000, 0.0000000000000000000, -50.79999999999999700 ) ) ;
#118 = DIRECTION ( 'NONE',  ( 1.000000000000000000, 0.0000000000000000000, -0.0000000000000000000 ) ) ;
#119 = VERTEX_POINT ( 'NONE', #101 ) ;
#120 = CARTESIAN_POINT ( 'NONE',  ( 0.0000000000000000000, 70.00000000000000000, 0.0000000000000000000 ) ) ;
#121 = VERTEX_POINT ( 'NONE', #147 ) ;
#122 = DIRECTION ( 'NONE',  ( 0.0000000000000000000, 0.0000000000000000000, 1.000000000000000000 ) ) ;
#123 = VERTEX_POINT ( 'NONE', #105 ) ;
#124 = CARTESIAN_POINT ( 'NONE',  ( 76.20000000000000300, 70.00000000000000000, 0.0000000000000000000 ) ) ;
#125 = DIRECTION ( 'NONE',  ( 0.0000000000000000000, -0.0000000000000000000, -1.000000000000000000 ) ) ;
#126 = DIRECTION ( 'NONE',  ( -1.000000000000000000, 0.0000000000000000000, 0.0000000000000000000 ) ) ;
#127 = PLANE ( 'NONE',  #59 ) ;
#128 = VERTEX_POINT ( 'NONE', #146 ) ;
#129 = DIRECTION ( 'NONE',  ( 0.0000000000000000000, 0.0000000000000000000, -1.000000000000000000 ) ) ;
#130 = APPROVAL_ROLE ( '' ) ;
#131 = PERSON_AND_ORGANIZATION_ROLE ( 'creator' ) ;
#132 = DIRECTION ( 'NONE',  ( -1.000000000000000000, -0.0000000000000000000, -0.0000000000000000000 ) ) ;
#133 = CARTESIAN_POINT ( 'NONE',  ( 0.0000000000000000000, 70.00000000000000000, -50.79999999999999700 ) ) ;
#134 = CARTESIAN_POINT ( 'NONE',  ( 0.0000000000000000000, 0.0000000000000000000, -50.79999999999999700 ) ) ;
#135 = PRODUCT ( 'LongSpacer', 'LongSpacer', '', ( #74 ) ) ;
#136 = DIRECTION ( 'NONE',  ( 1.000000000000000000, 0.0000000000000000000, 0.0000000000000000000 ) ) ;
#137 = DIRECTION ( 'NONE',  ( 0.0000000000000000000, 0.0000000000000000000, -1.000000000000000000 ) ) ;
#138 = CARTESIAN_POINT ( 'NONE',  ( 76.20000000000000300, 0.0000000000000000000, 0.0000000000000000000 ) ) ;
#139 = DIRECTION ( 'NONE',  ( -0.0000000000000000000, -1.000000000000000000, -0.0000000000000000000 ) ) ;
#140 = CARTESIAN_POINT ( 'NONE',  ( 76.20000000000000300, 70.00000000000000000, -50.79999999999999700 ) ) ;
#141 = CARTESIAN_POINT ( 'NONE',  ( 0.0000000000000000000, 0.0000000000000000000, 0.0000000000000000000 ) ) ;
#142 = DIRECTION ( 'NONE',  ( 0.0000000000000000000, -0.0000000000000000000, -1.000000000000000000 ) ) ;
#143 = DIRECTION ( 'NONE',  ( 0.0000000000000000000, -1.000000000000000000, 0.0000000000000000000 ) ) ;
#144 = PERSON ( 'UNSPECIFIED', 'UNSPECIFIED', 'UNSPECIFIED', ('UNSPECIFIED'), ('UNSPECIFIED'), ('UNSPECIFIED') ) ;
#145 = APPLICATION_PROTOCOL_DEFINITION ( 'international standard', 'config_control_design', 1994, #91 ) ;
#146 = CARTESIAN_POINT ( 'NONE',  ( 76.20000000000000300, 70.00000000000000000, 0.0000000000000000000 ) ) ;
#147 = CARTESIAN_POINT ( 'NONE',  ( 76.20000000000000300, 0.0000000000000000000, 0.0000000000000000000 ) ) ;
#148 = CARTESIAN_POINT ( 'NONE',  ( 76.20000000000000300, 70.00000000000000000, 0.0000000000000000000 ) ) ;
#149 = DIRECTION ( 'NONE',  ( 0.0000000000000000000, 0.0000000000000000000, 1.000000000000000000 ) ) ;
#150 = PLANE ( 'NONE',  #26 ) ;
#151 = DIRECTION ( 'NONE',  ( 0.0000000000000000000, -1.000000000000000000, 0.0000000000000000000 ) ) ;
#152 = PLANE ( 'NONE',  #38 ) ;
#153 = DESIGN_CONTEXT ( 'detailed design', #68, 'design' ) ;
#154 = PRODUCT_DEFINITION_SHAPE ( 'NONE', 'NONE',  #43 ) ;
#155 = ADVANCED_BREP_SHAPE_REPRESENTATION ( 'LongSpacer', ( #156, #41 ), #187 ) ;
#156 = MANIFOLD_SOLID_BREP ( 'Boss-Extrude1', #224 ) ;
#157 = UNCERTAINTY_MEASURE_WITH_UNIT (LENGTH_MEASURE( 1.000000000000000100E-005 ), #98, 'distance_accuracy_value', 'NONE');
#158 = LINE ( 'NONE', #114, #159 ) ;
#159 = VECTOR ( 'NONE', #113, 1000.000000000000000 ) ;
#160 = ORIENTED_EDGE ( 'NONE', *, *, #32, .T. ) ;
#161 = ORIENTED_EDGE ( 'NONE', *, *, #37, .F. ) ;
#162 = VECTOR ( 'NONE', #132, 1000.000000000000000 ) ;
#163 = LINE ( 'NONE', #108, #165 ) ;
#164 = LINE ( 'NONE', #116, #236 ) ;
#165 = VECTOR ( 'NONE', #107, 1000.000000000000000 ) ;
#166 = VECTOR ( 'NONE', #136, 1000.000000000000000 ) ;
#167 = VECTOR ( 'NONE', #110, 1000.000000000000000 ) ;
#168 = ORIENTED_EDGE ( 'NONE', *, *, #30, .T. ) ;
#169 = COORDINATED_UNIVERSAL_TIME_OFFSET ( 6, 0, .BEHIND. ) ;
#170 = APPROVAL_PERSON_ORGANIZATION ( #171, #58, #130 ) ;
#171 = PERSON_AND_ORGANIZATION ( #144, #185 ) ;
#172 = DATE_AND_TIME ( #173, #174 ) ;
#173 = CALENDAR_DATE ( 2012, 1, 7 ) ;
#174 = LOCAL_TIME ( 1, 13, 31.00000000000000000, #177 ) ;
#175 = PERSON_AND_ORGANIZATION ( #144, #185 ) ;
#176 = APPROVAL_DATE_TIME ( #178, #44 ) ;
#177 = COORDINATED_UNIVERSAL_TIME_OFFSET ( 6, 0, .BEHIND. ) ;
#178 = DATE_AND_TIME ( #179, #180 ) ;
#179 = CALENDAR_DATE ( 2012, 1, 7 ) ;
#180 = LOCAL_TIME ( 1, 13, 31.00000000000000000, #181 ) ;
#181 = COORDINATED_UNIVERSAL_TIME_OFFSET ( 6, 0, .BEHIND. ) ;
#182 = APPROVAL_PERSON_ORGANIZATION ( #183, #44, #71 ) ;
#183 = PERSON_AND_ORGANIZATION ( #144, #185 ) ;
#184 = PERSON_AND_ORGANIZATION ( #144, #185 ) ;
#185 = ORGANIZATION ( 'UNSPECIFIED', 'UNSPECIFIED', '' ) ;
#186 = SHAPE_DEFINITION_REPRESENTATION ( #154, #155 ) ;
#187 =( GEOMETRIC_REPRESENTATION_CONTEXT ( 3 ) GLOBAL_UNCERTAINTY_ASSIGNED_CONTEXT ( ( #157 ) ) GLOBAL_UNIT_ASSIGNED_CONTEXT ( ( #98, #95, #90 ) ) REPRESENTATION_CONTEXT ( 'NONE', 'WORKASPACE' ) );
#188 = VECTOR ( 'NONE', #104, 1000.000000000000000 ) ;
#189 = LINE ( 'NONE', #103, #188 ) ;
#190 = VECTOR ( 'NONE', #97, 1000.000000000000000 ) ;
#191 = LINE ( 'NONE', #99, #190 ) ;
#192 = VECTOR ( 'NONE', #106, 1000.000000000000000 ) ;
#193 = LINE ( 'NONE', #148, #192 ) ;
#194 = VECTOR ( 'NONE', #112, 1000.000000000000000 ) ;
#195 = LINE ( 'NONE', #111, #194 ) ;
#196 = ORIENTED_EDGE ( 'NONE', *, *, #30, .F. ) ;
#197 = ORIENTED_EDGE ( 'NONE', *, *, #32, .F. ) ;
#198 = ORIENTED_EDGE ( 'NONE', *, *, #27, .T. ) ;
#199 = ORIENTED_EDGE ( 'NONE', *, *, #52, .T. ) ;
#200 = ORIENTED_EDGE ( 'NONE', *, *, #28, .F. ) ;
#201 = ORIENTED_EDGE ( 'NONE', *, *, #53, .F. ) ;
#202 = ORIENTED_EDGE ( 'NONE', *, *, #33, .F. ) ;
#203 = ORIENTED_EDGE ( 'NONE', *, *, #31, .F. ) ;
#204 = ORIENTED_EDGE ( 'NONE', *, *, #47, .T. ) ;
#205 = ORIENTED_EDGE ( 'NONE', *, *, #53, .T. ) ;
#206 = ORIENTED_EDGE ( 'NONE', *, *, #52, .F. ) ;
#207 = ORIENTED_EDGE ( 'NONE', *, *, #47, .F. ) ;
#208 = ORIENTED_EDGE ( 'NONE', *, *, #27, .F. ) ;
#209 = ORIENTED_EDGE ( 'NONE', *, *, #49, .F. ) ;
#210 = ORIENTED_EDGE ( 'NONE', *, *, #37, .T. ) ;
#211 = ORIENTED_EDGE ( 'NONE', *, *, #48, .T. ) ;
#212 = ORIENTED_EDGE ( 'NONE', *, *, #28, .T. ) ;
#213 = ORIENTED_EDGE ( 'NONE', *, *, #49, .T. ) ;
#214 = EDGE_LOOP ( 'NONE', ( #202, #197, #200, #196 ) ) ;
#215 = EDGE_LOOP ( 'NONE', ( #212, #208, #206, #213 ) ) ;
#216 = EDGE_LOOP ( 'NONE', ( #168, #209, #207, #211 ) ) ;
#217 = EDGE_LOOP ( 'NONE', ( #222, #221, #201, #210 ) ) ;
#218 = EDGE_LOOP ( 'NONE', ( #205, #204, #199, #237 ) ) ;
#219 = EDGE_LOOP ( 'NONE', ( #160, #161, #203, #198 ) ) ;
#220 = FACE_OUTER_BOUND ( 'NONE', #219, .T. ) ;
#221 = ORIENTED_EDGE ( 'NONE', *, *, #48, .F. ) ;
#222 = ORIENTED_EDGE ( 'NONE', *, *, #33, .T. ) ;
#223 = FACE_OUTER_BOUND ( 'NONE', #214, .T. ) ;
#224 = CLOSED_SHELL ( 'NONE', ( #1, #5, #3, #4, #6, #2 ) ) ;
#225 = FACE_OUTER_BOUND ( 'NONE', #217, .T. ) ;
#226 = FACE_OUTER_BOUND ( 'NONE', #215, .T. ) ;
#227 = LINE ( 'NONE', #140, #230 ) ;
#228 = FACE_OUTER_BOUND ( 'NONE', #216, .T. ) ;
#229 = FACE_OUTER_BOUND ( 'NONE', #218, .T. ) ;
#230 = VECTOR ( 'NONE', #139, 1000.000000000000000 ) ;
#231 = LINE ( 'NONE', #141, #166 ) ;
#232 = LINE ( 'NONE', #138, #233 ) ;
#233 = VECTOR ( 'NONE', #137, 1000.000000000000000 ) ;
#234 = LINE ( 'NONE', #133, #162 ) ;
#235 = LINE ( 'NONE', #134, #167 ) ;
#236 = VECTOR ( 'NONE', #115, 1000.000000000000000 ) ;
#237 = ORIENTED_EDGE ( 'NONE', *, *, #31, .T. ) ;
ENDSEC;
END-ISO-10303-21;
