 0
SECTION
 2
ENTITIES
  0
POLYLINE
 8
Layer0
 66
     1
70
    8
 10
0.0
 20
 0.0
 30
0.0
  0
VERTEX
  8
MY3DLAYER
10
27.76645
20
-4.74999999994792
30
-5.85759999999993
 70
     32
  0
VERTEX
  8
MY3DLAYER
10
31.76645
20
-4.74999999994792
30
-5.85759999999993
 70
     32
  0
VERTEX
  8
MY3DLAYER
10
31.76645
20
42.7500000000193
30
-5.85759999999993
 70
     32
  0
VERTEX
  8
MY3DLAYER
10
27.76645
20
42.7500000000193
30
-5.85759999999993
 70
     32
  0
VERTEX
  8
MY3DLAYER
10
27.76645
20
-4.74999999994792
30
-5.85759999999993
 70
     32
  0
SEQEND
  0
POLYLINE
 8
Layer0
 66
     1
70
    8
 10
0.0
 20
 0.0
 30
0.0
  0
VERTEX
  8
MY3DLAYER
10
30.0781169750802
20
5.22912658778862
30
-5.85759999999992
 70
     32
  0
VERTEX
  8
MY3DLAYER
10
30.0651760228251
20
5.23083029647417
30
-5.85759999999993
 70
     32
  0
VERTEX
  8
MY3DLAYER
10
30.0531169750802
20
5.2358253175994
30
-5.85759999999992
 70
     32
  0
VERTEX
  8
MY3DLAYER
10
30.0427616360209
20
5.24377124872929
30
-5.85759999999993
 70
     32
  0
VERTEX
  8
MY3DLAYER
10
30.034815704891
20
5.25412658778862
30
-5.85759999999993
 70
     32
  0
VERTEX
  8
MY3DLAYER
10
30.0298206837658
20
5.26618563553349
30
-5.85759999999992
 70
     32
  0
VERTEX
  8
MY3DLAYER
10
30.0281169750802
20
5.27912658778862
30
-5.85759999999993
 70
     32
  0
VERTEX
  8
MY3DLAYER
10
30.0298206837658
20
5.29206754004374
30
-5.85759999999992
 70
     32
  0
VERTEX
  8
MY3DLAYER
10
30.034815704891
20
5.30412658778861
30
-5.85759999999993
 70
     32
  0
VERTEX
  8
MY3DLAYER
10
30.0427616360209
20
5.31448192684794
30
-5.85759999999993
 70
     32
  0
VERTEX
  8
MY3DLAYER
10
30.0531169750802
20
5.32242785797783
30
-5.85759999999993
 70
     32
  0
VERTEX
  8
MY3DLAYER
10
30.0651760228251
20
5.32742287910307
30
-5.85759999999993
 70
     32
  0
VERTEX
  8
MY3DLAYER
10
30.0781169750802
20
5.32912658778861
30
-5.85759999999993
 70
     32
  0
VERTEX
  8
MY3DLAYER
10
30.0910579273354
20
5.32742287910307
30
-5.85759999999993
 70
     32
  0
VERTEX
  8
MY3DLAYER
10
30.1031169750802
20
5.32242785797783
30
-5.85759999999992
 70
     32
  0
VERTEX
  8
MY3DLAYER
10
30.1134723141396
20
5.31448192684794
30
-5.85759999999993
 70
     32
  0
VERTEX
  8
MY3DLAYER
10
30.1214182452694
20
5.30412658778861
30
-5.85759999999992
 70
     32
  0
VERTEX
  8
MY3DLAYER
10
30.6289822173509
20
5.59716878370078
30
-5.85759999999992
 70
     32
  0
VERTEX
  8
MY3DLAYER
10
30.6239871962257
20
5.60922783144565
30
-5.85759999999992
 70
     32
  0
VERTEX
  8
MY3DLAYER
10
30.6222834875401
20
5.62216878370078
30
-5.85759999999992
 70
     32
  0
VERTEX
  8
MY3DLAYER
10
30.6239871962257
20
5.63510973595591
30
-5.85759999999992
 70
     32
  0
VERTEX
  8
MY3DLAYER
10
30.6289822173509
20
5.64716878370078
30
-5.85759999999992
 70
     32
  0
VERTEX
  8
MY3DLAYER
10
30.6369281484808
20
5.6575241227601
30
-5.85759999999992
 70
     32
  0
VERTEX
  8
MY3DLAYER
10
30.6472834875401
20
5.66547005389
30
-5.85759999999992
 70
     32
  0
VERTEX
  8
MY3DLAYER
10
30.659342535285
20
5.67046507501523
30
-5.85759999999993
 70
     32
  0
VERTEX
  8
MY3DLAYER
10
30.6722834875401
20
5.67216878370078
30
-5.85759999999992
 70
     32
  0
VERTEX
  8
MY3DLAYER
10
30.6852244397952
20
5.67046507501523
30
-5.85759999999992
 70
     32
  0
VERTEX
  8
MY3DLAYER
10
30.6972834875401
20
5.66547005389
30
-5.85759999999992
 70
     32
  0
VERTEX
  8
MY3DLAYER
10
30.7076388265994
20
5.6575241227601
30
-5.85759999999993
 70
     32
  0
VERTEX
  8
MY3DLAYER
10
30.7155847577293
20
5.64716878370078
30
-5.85759999999992
 70
     32
  0
VERTEX
  8
MY3DLAYER
10
30.7205797788546
20
5.63510973595591
30
-5.85759999999992
 70
     32
  0
VERTEX
  8
MY3DLAYER
10
30.7222834875401
20
5.62216878370078
30
-5.85759999999992
 70
     32
  0
VERTEX
  8
MY3DLAYER
10
30.7205797788546
20
5.60922783144565
30
-5.85759999999992
 70
     32
  0
VERTEX
  8
MY3DLAYER
10
30.7155847577293
20
5.59716878370078
30
-5.85759999999992
 70
     32
  0
VERTEX
  8
MY3DLAYER
10
31.2231487298108
20
5.3041265877886
30
-5.85759999999992
 70
     32
  0
VERTEX
  8
MY3DLAYER
10
31.2310946609407
20
5.31448192684793
30
-5.85759999999992
 70
     32
  0
VERTEX
  8
MY3DLAYER
10
31.24145
20
5.32242785797783
30
-5.85759999999993
 70
     32
  0
VERTEX
  8
MY3DLAYER
10
31.2535090477449
20
5.32742287910305
30
-5.85759999999992
 70
     32
  0
VERTEX
  8
MY3DLAYER
10
31.26645
20
5.3291265877886
30
-5.85759999999993
 70
     32
  0
VERTEX
  8
MY3DLAYER
10
31.2793909522551
20
5.32742287910305
30
-5.85759999999992
 70
     32
  0
VERTEX
  8
MY3DLAYER
10
31.29145
20
5.32242785797782
30
-5.85759999999993
 70
     32
  0
VERTEX
  8
MY3DLAYER
10
31.3018053390593
20
5.31448192684793
30
-5.85759999999992
 70
     32
  0
VERTEX
  8
MY3DLAYER
10
31.3097512701892
20
5.3041265877886
30
-5.85759999999992
 70
     32
  0
VERTEX
  8
MY3DLAYER
10
31.3147462913144
20
5.29206754004372
30
-5.85759999999992
 70
     32
  0
VERTEX
  8
MY3DLAYER
10
31.31645
20
5.2791265877886
30
-5.85759999999993
 70
     32
  0
VERTEX
  8
MY3DLAYER
10
31.3147462913144
20
5.26618563553347
30
-5.85759999999992
 70
     32
  0
VERTEX
  8
MY3DLAYER
10
31.3097512701892
20
5.2541265877886
30
-5.85759999999992
 70
     32
  0
VERTEX
  8
MY3DLAYER
10
31.3018053390593
20
5.24377124872927
30
-5.85759999999993
 70
     32
  0
VERTEX
  8
MY3DLAYER
10
31.29145
20
5.23582531759938
30
-5.85759999999992
 70
     32
  0
VERTEX
  8
MY3DLAYER
10
31.2793909522551
20
5.23083029647415
30
-5.85759999999992
 70
     32
  0
VERTEX
  8
MY3DLAYER
10
31.26645
20
5.2291265877886
30
-5.85759999999992
 70
     32
  0
VERTEX
  8
MY3DLAYER
10
31.26645
20
4.64304219596426
30
-5.85759999999992
 70
     32
  0
VERTEX
  8
MY3DLAYER
10
31.2793909522551
20
4.64133848727871
30
-5.85759999999992
 70
     32
  0
VERTEX
  8
MY3DLAYER
10
31.29145
20
4.63634346615348
30
-5.85759999999993
 70
     32
  0
VERTEX
  8
MY3DLAYER
10
31.3018053390593
20
4.62839753502359
30
-5.85759999999992
 70
     32
  0
VERTEX
  8
MY3DLAYER
10
31.3097512701892
20
4.61804219596426
30
-5.85759999999992
 70
     32
  0
VERTEX
  8
MY3DLAYER
10
31.3147462913144
20
4.60598314821939
30
-5.85759999999992
 70
     32
  0
VERTEX
  8
MY3DLAYER
10
31.31645
20
4.59304219596426
30
-5.85759999999993
 70
     32
  0
VERTEX
  8
MY3DLAYER
10
31.3147462913144
20
4.58010124370914
30
-5.85759999999992
 70
     32
  0
VERTEX
  8
MY3DLAYER
10
31.3097512701892
20
4.56804219596426
30
-5.85759999999992
 70
     32
  0
VERTEX
  8
MY3DLAYER
10
31.3018053390593
20
4.55768685690493
30
-5.85759999999992
 70
     32
  0
VERTEX
  8
MY3DLAYER
10
31.29145
20
4.54974092577504
30
-5.85759999999993
 70
     32
  0
VERTEX
  8
MY3DLAYER
10
31.2793909522551
20
4.54474590464981
30
-5.85759999999992
 70
     32
  0
VERTEX
  8
MY3DLAYER
10
31.26645
20
4.54304219596427
30
-5.85759999999993
 70
     32
  0
VERTEX
  8
MY3DLAYER
10
31.2535090477449
20
4.54474590464981
30
-5.85759999999992
 70
     32
  0
VERTEX
  8
MY3DLAYER
10
31.24145
20
4.54974092577504
30
-5.85759999999993
 70
     32
  0
VERTEX
  8
MY3DLAYER
10
31.2310946609407
20
4.55768685690493
30
-5.85759999999992
 70
     32
  0
VERTEX
  8
MY3DLAYER
10
31.2231487298108
20
4.56804219596426
30
-5.85759999999992
 70
     32
  0
VERTEX
  8
MY3DLAYER
10
30.7155847577293
20
4.27500000005208
30
-5.85759999999992
 70
     32
  0
VERTEX
  8
MY3DLAYER
10
30.7205797788546
20
4.26294095230721
30
-5.85759999999992
 70
     32
  0
VERTEX
  8
MY3DLAYER
10
30.7222834875401
20
4.25000000005208
30
-5.85759999999992
 70
     32
  0
VERTEX
  8
MY3DLAYER
10
30.7205797788546
20
4.23705904779695
30
-5.85759999999992
 70
     32
  0
VERTEX
  8
MY3DLAYER
10
30.7155847577293
20
4.22500000005208
30
-5.85759999999992
 70
     32
  0
VERTEX
  8
MY3DLAYER
10
30.7076388265994
20
4.21464466099276
30
-5.85759999999993
 70
     32
  0
VERTEX
  8
MY3DLAYER
10
30.6972834875401
20
4.20669872986286
30
-5.85759999999992
 70
     32
  0
VERTEX
  8
MY3DLAYER
10
30.6852244397952
20
4.20170370873763
30
-5.85759999999992
 70
     32
  0
VERTEX
  8
MY3DLAYER
10
30.6722834875401
20
4.20000000005208
30
-5.85759999999992
 70
     32
  0
VERTEX
  8
MY3DLAYER
10
30.659342535285
20
4.20170370873763
30
-5.85759999999993
 70
     32
  0
VERTEX
  8
MY3DLAYER
10
30.6472834875401
20
4.20669872986286
30
-5.85759999999992
 70
     32
  0
VERTEX
  8
MY3DLAYER
10
30.6369281484808
20
4.21464466099276
30
-5.85759999999992
 70
     32
  0
VERTEX
  8
MY3DLAYER
10
30.6289822173509
20
4.22500000005208
30
-5.85759999999992
 70
     32
  0
VERTEX
  8
MY3DLAYER
10
30.6239871962257
20
4.23705904779695
30
-5.85759999999992
 70
     32
  0
VERTEX
  8
MY3DLAYER
10
30.6222834875401
20
4.25000000005208
30
-5.85759999999992
 70
     32
  0
VERTEX
  8
MY3DLAYER
10
30.6239871962257
20
4.26294095230721
30
-5.85759999999992
 70
     32
  0
VERTEX
  8
MY3DLAYER
10
30.6289822173509
20
4.27500000005208
30
-5.85759999999992
 70
     32
  0
VERTEX
  8
MY3DLAYER
10
30.1214182452695
20
4.56804219596427
30
-5.85759999999992
 70
     32
  0
VERTEX
  8
MY3DLAYER
10
30.1134723141396
20
4.55768685690494
30
-5.85759999999992
 70
     32
  0
VERTEX
  8
MY3DLAYER
10
30.1031169750802
20
4.54974092577504
30
-5.85759999999992
 70
     32
  0
VERTEX
  8
MY3DLAYER
10
30.0910579273354
20
4.54474590464982
30
-5.85759999999992
 70
     32
  0
VERTEX
  8
MY3DLAYER
10
30.0781169750802
20
4.54304219596427
30
-5.85759999999993
 70
     32
  0
VERTEX
  8
MY3DLAYER
10
30.0651760228251
20
4.54474590464982
30
-5.85759999999993
 70
     32
  0
VERTEX
  8
MY3DLAYER
10
30.0531169750802
20
4.54974092577505
30
-5.85759999999993
 70
     32
  0
VERTEX
  8
MY3DLAYER
10
30.0427616360209
20
4.55768685690494
30
-5.85759999999992
 70
     32
  0
VERTEX
  8
MY3DLAYER
10
30.034815704891
20
4.56804219596427
30
-5.85759999999993
 70
     32
  0
VERTEX
  8
MY3DLAYER
10
30.0298206837658
20
4.58010124370915
30
-5.85759999999993
 70
     32
  0
VERTEX
  8
MY3DLAYER
10
30.0281169750802
20
4.59304219596427
30
-5.85759999999993
 70
     32
  0
VERTEX
  8
MY3DLAYER
10
30.0298206837658
20
4.6059831482194
30
-5.85759999999993
 70
     32
  0
VERTEX
  8
MY3DLAYER
10
30.034815704891
20
4.61804219596427
30
-5.85759999999993
 70
     32
  0
VERTEX
  8
MY3DLAYER
10
30.0427616360209
20
4.6283975350236
30
-5.85759999999993
 70
     32
  0
VERTEX
  8
MY3DLAYER
10
30.0531169750802
20
4.63634346615349
30
-5.85759999999993
 70
     32
  0
VERTEX
  8
MY3DLAYER
10
30.0651760228251
20
4.64133848727872
30
-5.85759999999993
 70
     32
  0
VERTEX
  8
MY3DLAYER
10
30.0781169750802
20
4.64304219596427
30
-5.85759999999993
 70
     32
  0
VERTEX
  8
MY3DLAYER
10
30.0781169750802
20
5.22912658778862
30
-5.85759999999992
 70
     32
  0
SEQEND
  0
POLYLINE
 8
Layer0
 66
     1
70
    8
 10
0.0
 20
 0.0
 30
0.0
  0
VERTEX
  8
MY3DLAYER
10
29.5030792913144
20
5.29206754004372
30
-5.85759999999992
 70
     32
  0
VERTEX
  8
MY3DLAYER
10
29.504783
20
5.2791265877886
30
-5.85759999999993
 70
     32
  0
VERTEX
  8
MY3DLAYER
10
29.5030792913144
20
5.26618563553347
30
-5.85759999999992
 70
     32
  0
VERTEX
  8
MY3DLAYER
10
29.4980842701892
20
5.2541265877886
30
-5.85759999999992
 70
     32
  0
VERTEX
  8
MY3DLAYER
10
29.4901383390593
20
5.24377124872927
30
-5.85759999999993
 70
     32
  0
VERTEX
  8
MY3DLAYER
10
29.479783
20
5.23582531759938
30
-5.85759999999992
 70
     32
  0
VERTEX
  8
MY3DLAYER
10
29.4677239522551
20
5.23083029647415
30
-5.85759999999992
 70
     32
  0
VERTEX
  8
MY3DLAYER
10
29.454783
20
5.2291265877886
30
-5.85759999999992
 70
     32
  0
VERTEX
  8
MY3DLAYER
10
29.454783
20
4.64304219596426
30
-5.85759999999992
 70
     32
  0
VERTEX
  8
MY3DLAYER
10
29.4677239522551
20
4.64133848727871
30
-5.85759999999992
 70
     32
  0
VERTEX
  8
MY3DLAYER
10
29.479783
20
4.63634346615348
30
-5.85759999999993
 70
     32
  0
VERTEX
  8
MY3DLAYER
10
29.4901383390593
20
4.62839753502359
30
-5.85759999999992
 70
     32
  0
VERTEX
  8
MY3DLAYER
10
29.4980842701892
20
4.61804219596426
30
-5.85759999999992
 70
     32
  0
VERTEX
  8
MY3DLAYER
10
29.5030792913144
20
4.60598314821939
30
-5.85759999999992
 70
     32
  0
VERTEX
  8
MY3DLAYER
10
29.504783
20
4.59304219596426
30
-5.85759999999993
 70
     32
  0
VERTEX
  8
MY3DLAYER
10
29.5030792913144
20
4.58010124370914
30
-5.85759999999992
 70
     32
  0
VERTEX
  8
MY3DLAYER
10
29.4980842701892
20
4.56804219596426
30
-5.85759999999992
 70
     32
  0
VERTEX
  8
MY3DLAYER
10
29.4901383390593
20
4.55768685690493
30
-5.85759999999992
 70
     32
  0
VERTEX
  8
MY3DLAYER
10
29.479783
20
4.54974092577504
30
-5.85759999999993
 70
     32
  0
VERTEX
  8
MY3DLAYER
10
29.4677239522551
20
4.54474590464981
30
-5.85759999999992
 70
     32
  0
VERTEX
  8
MY3DLAYER
10
29.454783
20
4.54304219596427
30
-5.85759999999993
 70
     32
  0
VERTEX
  8
MY3DLAYER
10
29.4418420477449
20
4.54474590464981
30
-5.85759999999992
 70
     32
  0
VERTEX
  8
MY3DLAYER
10
29.429783
20
4.54974092577504
30
-5.85759999999993
 70
     32
  0
VERTEX
  8
MY3DLAYER
10
29.4194276609407
20
4.55768685690493
30
-5.85759999999992
 70
     32
  0
VERTEX
  8
MY3DLAYER
10
29.4114817298108
20
4.56804219596426
30
-5.85759999999992
 70
     32
  0
VERTEX
  8
MY3DLAYER
10
28.9039177577293
20
4.27500000005208
30
-5.85759999999992
 70
     32
  0
VERTEX
  8
MY3DLAYER
10
28.9089127788546
20
4.26294095230721
30
-5.85759999999992
 70
     32
  0
VERTEX
  8
MY3DLAYER
10
28.9106164875401
20
4.25000000005208
30
-5.85759999999992
 70
     32
  0
VERTEX
  8
MY3DLAYER
10
28.9089127788546
20
4.23705904779695
30
-5.85759999999992
 70
     32
  0
VERTEX
  8
MY3DLAYER
10
28.9039177577293
20
4.22500000005208
30
-5.85759999999992
 70
     32
  0
VERTEX
  8
MY3DLAYER
10
28.8959718265994
20
4.21464466099276
30
-5.85759999999993
 70
     32
  0
VERTEX
  8
MY3DLAYER
10
28.8856164875401
20
4.20669872986286
30
-5.85759999999992
 70
     32
  0
VERTEX
  8
MY3DLAYER
10
28.8735574397952
20
4.20170370873763
30
-5.85759999999992
 70
     32
  0
VERTEX
  8
MY3DLAYER
10
28.8606164875401
20
4.20000000005208
30
-5.85759999999992
 70
     32
  0
VERTEX
  8
MY3DLAYER
10
28.847675535285
20
4.20170370873763
30
-5.85759999999993
 70
     32
  0
VERTEX
  8
MY3DLAYER
10
28.8356164875401
20
4.20669872986286
30
-5.85759999999992
 70
     32
  0
VERTEX
  8
MY3DLAYER
10
28.8252611484808
20
4.21464466099276
30
-5.85759999999992
 70
     32
  0
VERTEX
  8
MY3DLAYER
10
28.8173152173509
20
4.22500000005208
30
-5.85759999999992
 70
     32
  0
VERTEX
  8
MY3DLAYER
10
28.8123201962257
20
4.23705904779695
30
-5.85759999999992
 70
     32
  0
VERTEX
  8
MY3DLAYER
10
28.8106164875401
20
4.25000000005208
30
-5.85759999999992
 70
     32
  0
VERTEX
  8
MY3DLAYER
10
28.8123201962257
20
4.26294095230721
30
-5.85759999999992
 70
     32
  0
VERTEX
  8
MY3DLAYER
10
28.8173152173509
20
4.27500000005208
30
-5.85759999999992
 70
     32
  0
VERTEX
  8
MY3DLAYER
10
28.3097512452695
20
4.56804219596427
30
-5.85759999999992
 70
     32
  0
VERTEX
  8
MY3DLAYER
10
28.3018053141396
20
4.55768685690494
30
-5.85759999999992
 70
     32
  0
VERTEX
  8
MY3DLAYER
10
28.2914499750802
20
4.54974092577504
30
-5.85759999999992
 70
     32
  0
VERTEX
  8
MY3DLAYER
10
28.2793909273354
20
4.54474590464982
30
-5.85759999999992
 70
     32
  0
VERTEX
  8
MY3DLAYER
10
28.2664499750802
20
4.54304219596427
30
-5.85759999999993
 70
     32
  0
VERTEX
  8
MY3DLAYER
10
28.2535090228251
20
4.54474590464982
30
-5.85759999999993
 70
     32
  0
VERTEX
  8
MY3DLAYER
10
28.2414499750802
20
4.54974092577505
30
-5.85759999999993
 70
     32
  0
VERTEX
  8
MY3DLAYER
10
28.2310946360209
20
4.55768685690494
30
-5.85759999999992
 70
     32
  0
VERTEX
  8
MY3DLAYER
10
28.223148704891
20
4.56804219596427
30
-5.85759999999993
 70
     32
  0
VERTEX
  8
MY3DLAYER
10
28.2181536837658
20
4.58010124370915
30
-5.85759999999993
 70
     32
  0
VERTEX
  8
MY3DLAYER
10
28.2164499750802
20
4.59304219596427
30
-5.85759999999993
 70
     32
  0
VERTEX
  8
MY3DLAYER
10
28.2181536837658
20
4.6059831482194
30
-5.85759999999993
 70
     32
  0
VERTEX
  8
MY3DLAYER
10
28.223148704891
20
4.61804219596427
30
-5.85759999999993
 70
     32
  0
VERTEX
  8
MY3DLAYER
10
28.2310946360209
20
4.6283975350236
30
-5.85759999999993
 70
     32
  0
VERTEX
  8
MY3DLAYER
10
28.2414499750802
20
4.63634346615349
30
-5.85759999999993
 70
     32
  0
VERTEX
  8
MY3DLAYER
10
28.2535090228251
20
4.64133848727872
30
-5.85759999999993
 70
     32
  0
VERTEX
  8
MY3DLAYER
10
28.2664499750802
20
4.64304219596427
30
-5.85759999999993
 70
     32
  0
VERTEX
  8
MY3DLAYER
10
28.2664499750802
20
5.22912658778862
30
-5.85759999999992
 70
     32
  0
VERTEX
  8
MY3DLAYER
10
28.2535090228251
20
5.23083029647417
30
-5.85759999999993
 70
     32
  0
VERTEX
  8
MY3DLAYER
10
28.2414499750802
20
5.2358253175994
30
-5.85759999999992
 70
     32
  0
VERTEX
  8
MY3DLAYER
10
28.2310946360209
20
5.24377124872929
30
-5.85759999999993
 70
     32
  0
VERTEX
  8
MY3DLAYER
10
28.223148704891
20
5.25412658778862
30
-5.85759999999993
 70
     32
  0
VERTEX
  8
MY3DLAYER
10
28.2181536837658
20
5.26618563553349
30
-5.85759999999992
 70
     32
  0
VERTEX
  8
MY3DLAYER
10
28.2164499750802
20
5.27912658778862
30
-5.85759999999993
 70
     32
  0
VERTEX
  8
MY3DLAYER
10
28.2181536837658
20
5.29206754004374
30
-5.85759999999992
 70
     32
  0
VERTEX
  8
MY3DLAYER
10
28.223148704891
20
5.30412658778861
30
-5.85759999999993
 70
     32
  0
VERTEX
  8
MY3DLAYER
10
28.2310946360209
20
5.31448192684794
30
-5.85759999999993
 70
     32
  0
VERTEX
  8
MY3DLAYER
10
28.2414499750802
20
5.32242785797783
30
-5.85759999999993
 70
     32
  0
VERTEX
  8
MY3DLAYER
10
28.2535090228251
20
5.32742287910307
30
-5.85759999999993
 70
     32
  0
VERTEX
  8
MY3DLAYER
10
28.2664499750802
20
5.32912658778861
30
-5.85759999999993
 70
     32
  0
VERTEX
  8
MY3DLAYER
10
28.2793909273354
20
5.32742287910307
30
-5.85759999999993
 70
     32
  0
VERTEX
  8
MY3DLAYER
10
28.2914499750802
20
5.32242785797783
30
-5.85759999999992
 70
     32
  0
VERTEX
  8
MY3DLAYER
10
28.3018053141396
20
5.31448192684794
30
-5.85759999999993
 70
     32
  0
VERTEX
  8
MY3DLAYER
10
28.3097512452694
20
5.30412658778861
30
-5.85759999999992
 70
     32
  0
VERTEX
  8
MY3DLAYER
10
28.8173152173509
20
5.59716878370078
30
-5.85759999999992
 70
     32
  0
VERTEX
  8
MY3DLAYER
10
28.8123201962257
20
5.60922783144565
30
-5.85759999999992
 70
     32
  0
VERTEX
  8
MY3DLAYER
10
28.8106164875401
20
5.62216878370078
30
-5.85759999999992
 70
     32
  0
VERTEX
  8
MY3DLAYER
10
28.8123201962257
20
5.63510973595591
30
-5.85759999999992
 70
     32
  0
VERTEX
  8
MY3DLAYER
10
28.8173152173509
20
5.64716878370078
30
-5.85759999999992
 70
     32
  0
VERTEX
  8
MY3DLAYER
10
28.8252611484808
20
5.6575241227601
30
-5.85759999999992
 70
     32
  0
VERTEX
  8
MY3DLAYER
10
28.8356164875401
20
5.66547005389
30
-5.85759999999992
 70
     32
  0
VERTEX
  8
MY3DLAYER
10
28.847675535285
20
5.67046507501523
30
-5.85759999999993
 70
     32
  0
VERTEX
  8
MY3DLAYER
10
28.8606164875401
20
5.67216878370078
30
-5.85759999999992
 70
     32
  0
VERTEX
  8
MY3DLAYER
10
28.8735574397952
20
5.67046507501523
30
-5.85759999999992
 70
     32
  0
VERTEX
  8
MY3DLAYER
10
28.8856164875401
20
5.66547005389
30
-5.85759999999992
 70
     32
  0
VERTEX
  8
MY3DLAYER
10
28.8959718265994
20
5.6575241227601
30
-5.85759999999993
 70
     32
  0
VERTEX
  8
MY3DLAYER
10
28.9039177577293
20
5.64716878370078
30
-5.85759999999992
 70
     32
  0
VERTEX
  8
MY3DLAYER
10
28.9089127788546
20
5.63510973595591
30
-5.85759999999992
 70
     32
  0
VERTEX
  8
MY3DLAYER
10
28.9106164875401
20
5.62216878370078
30
-5.85759999999992
 70
     32
  0
VERTEX
  8
MY3DLAYER
10
28.9089127788546
20
5.60922783144565
30
-5.85759999999992
 70
     32
  0
VERTEX
  8
MY3DLAYER
10
28.9039177577293
20
5.59716878370078
30
-5.85759999999992
 70
     32
  0
VERTEX
  8
MY3DLAYER
10
29.4114817298108
20
5.3041265877886
30
-5.85759999999992
 70
     32
  0
VERTEX
  8
MY3DLAYER
10
29.4194276609407
20
5.31448192684793
30
-5.85759999999992
 70
     32
  0
VERTEX
  8
MY3DLAYER
10
29.429783
20
5.32242785797783
30
-5.85759999999993
 70
     32
  0
VERTEX
  8
MY3DLAYER
10
29.4418420477449
20
5.32742287910305
30
-5.85759999999992
 70
     32
  0
VERTEX
  8
MY3DLAYER
10
29.454783
20
5.3291265877886
30
-5.85759999999993
 70
     32
  0
VERTEX
  8
MY3DLAYER
10
29.4677239522551
20
5.32742287910305
30
-5.85759999999992
 70
     32
  0
VERTEX
  8
MY3DLAYER
10
29.479783
20
5.32242785797782
30
-5.85759999999993
 70
     32
  0
VERTEX
  8
MY3DLAYER
10
29.4901383390593
20
5.31448192684793
30
-5.85759999999992
 70
     32
  0
VERTEX
  8
MY3DLAYER
10
29.4980842701892
20
5.3041265877886
30
-5.85759999999992
 70
     32
  0
VERTEX
  8
MY3DLAYER
10
29.5030792913144
20
5.29206754004372
30
-5.85759999999992
 70
     32
  0
SEQEND
  0
POLYLINE
 8
Layer0
 66
     1
70
    8
 10
0.0
 20
 0.0
 30
0.0
  0
VERTEX
  8
MY3DLAYER
10
31.3147462913144
20
7.10373454004372
30
-5.85759999999992
 70
     32
  0
VERTEX
  8
MY3DLAYER
10
31.31645
20
7.0907935877886
30
-5.85759999999993
 70
     32
  0
VERTEX
  8
MY3DLAYER
10
31.3147462913144
20
7.07785263553347
30
-5.85759999999992
 70
     32
  0
VERTEX
  8
MY3DLAYER
10
31.3097512701892
20
7.0657935877886
30
-5.85759999999992
 70
     32
  0
VERTEX
  8
MY3DLAYER
10
31.3018053390593
20
7.05543824872927
30
-5.85759999999993
 70
     32
  0
VERTEX
  8
MY3DLAYER
10
31.29145
20
7.04749231759938
30
-5.85759999999992
 70
     32
  0
VERTEX
  8
MY3DLAYER
10
31.2793909522551
20
7.04249729647415
30
-5.85759999999992
 70
     32
  0
VERTEX
  8
MY3DLAYER
10
31.26645
20
7.0407935877886
30
-5.85759999999992
 70
     32
  0
VERTEX
  8
MY3DLAYER
10
31.26645
20
6.45470919596426
30
-5.85759999999992
 70
     32
  0
VERTEX
  8
MY3DLAYER
10
31.2793909522551
20
6.45300548727871
30
-5.85759999999992
 70
     32
  0
VERTEX
  8
MY3DLAYER
10
31.29145
20
6.44801046615348
30
-5.85759999999993
 70
     32
  0
VERTEX
  8
MY3DLAYER
10
31.3018053390593
20
6.44006453502359
30
-5.85759999999992
 70
     32
  0
VERTEX
  8
MY3DLAYER
10
31.3097512701892
20
6.42970919596426
30
-5.85759999999992
 70
     32
  0
VERTEX
  8
MY3DLAYER
10
31.3147462913144
20
6.41765014821939
30
-5.85759999999992
 70
     32
  0
VERTEX
  8
MY3DLAYER
10
31.31645
20
6.40470919596426
30
-5.85759999999993
 70
     32
  0
VERTEX
  8
MY3DLAYER
10
31.3147462913144
20
6.39176824370914
30
-5.85759999999992
 70
     32
  0
VERTEX
  8
MY3DLAYER
10
31.3097512701892
20
6.37970919596426
30
-5.85759999999992
 70
     32
  0
VERTEX
  8
MY3DLAYER
10
31.3018053390593
20
6.36935385690493
30
-5.85759999999992
 70
     32
  0
VERTEX
  8
MY3DLAYER
10
31.29145
20
6.36140792577504
30
-5.85759999999993
 70
     32
  0
VERTEX
  8
MY3DLAYER
10
31.2793909522551
20
6.35641290464981
30
-5.85759999999992
 70
     32
  0
VERTEX
  8
MY3DLAYER
10
31.26645
20
6.35470919596426
30
-5.85759999999993
 70
     32
  0
VERTEX
  8
MY3DLAYER
10
31.2535090477449
20
6.35641290464981
30
-5.85759999999992
 70
     32
  0
VERTEX
  8
MY3DLAYER
10
31.24145
20
6.36140792577504
30
-5.85759999999993
 70
     32
  0
VERTEX
  8
MY3DLAYER
10
31.2310946609407
20
6.36935385690493
30
-5.85759999999992
 70
     32
  0
VERTEX
  8
MY3DLAYER
10
31.2231487298108
20
6.37970919596426
30
-5.85759999999992
 70
     32
  0
VERTEX
  8
MY3DLAYER
10
30.7155847577293
20
6.08666700005208
30
-5.85759999999992
 70
     32
  0
VERTEX
  8
MY3DLAYER
10
30.7205797788546
20
6.07460795230721
30
-5.85759999999992
 70
     32
  0
VERTEX
  8
MY3DLAYER
10
30.7222834875401
20
6.06166700005208
30
-5.85759999999992
 70
     32
  0
VERTEX
  8
MY3DLAYER
10
30.7205797788546
20
6.04872604779695
30
-5.85759999999992
 70
     32
  0
VERTEX
  8
MY3DLAYER
10
30.7155847577293
20
6.03666700005208
30
-5.85759999999992
 70
     32
  0
VERTEX
  8
MY3DLAYER
10
30.7076388265994
20
6.02631166099276
30
-5.85759999999993
 70
     32
  0
VERTEX
  8
MY3DLAYER
10
30.6972834875401
20
6.01836572986286
30
-5.85759999999992
 70
     32
  0
VERTEX
  8
MY3DLAYER
10
30.6852244397952
20
6.01337070873763
30
-5.85759999999992
 70
     32
  0
VERTEX
  8
MY3DLAYER
10
30.6722834875401
20
6.01166700005208
30
-5.85759999999992
 70
     32
  0
VERTEX
  8
MY3DLAYER
10
30.659342535285
20
6.01337070873763
30
-5.85759999999993
 70
     32
  0
VERTEX
  8
MY3DLAYER
10
30.6472834875401
20
6.01836572986286
30
-5.85759999999992
 70
     32
  0
VERTEX
  8
MY3DLAYER
10
30.6369281484808
20
6.02631166099276
30
-5.85759999999992
 70
     32
  0
VERTEX
  8
MY3DLAYER
10
30.6289822173509
20
6.03666700005208
30
-5.85759999999992
 70
     32
  0
VERTEX
  8
MY3DLAYER
10
30.6239871962257
20
6.04872604779695
30
-5.85759999999992
 70
     32
  0
VERTEX
  8
MY3DLAYER
10
30.6222834875401
20
6.06166700005208
30
-5.85759999999992
 70
     32
  0
VERTEX
  8
MY3DLAYER
10
30.6239871962257
20
6.07460795230721
30
-5.85759999999992
 70
     32
  0
VERTEX
  8
MY3DLAYER
10
30.6289822173509
20
6.08666700005208
30
-5.85759999999992
 70
     32
  0
VERTEX
  8
MY3DLAYER
10
30.1214182452695
20
6.37970919596427
30
-5.85759999999992
 70
     32
  0
VERTEX
  8
MY3DLAYER
10
30.1134723141396
20
6.36935385690494
30
-5.85759999999992
 70
     32
  0
VERTEX
  8
MY3DLAYER
10
30.1031169750802
20
6.36140792577504
30
-5.85759999999992
 70
     32
  0
VERTEX
  8
MY3DLAYER
10
30.0910579273354
20
6.35641290464982
30
-5.85759999999992
 70
     32
  0
VERTEX
  8
MY3DLAYER
10
30.0781169750802
20
6.35470919596427
30
-5.85759999999993
 70
     32
  0
VERTEX
  8
MY3DLAYER
10
30.0651760228251
20
6.35641290464982
30
-5.85759999999993
 70
     32
  0
VERTEX
  8
MY3DLAYER
10
30.0531169750802
20
6.36140792577505
30
-5.85759999999993
 70
     32
  0
VERTEX
  8
MY3DLAYER
10
30.0427616360209
20
6.36935385690494
30
-5.85759999999992
 70
     32
  0
VERTEX
  8
MY3DLAYER
10
30.034815704891
20
6.37970919596427
30
-5.85759999999993
 70
     32
  0
VERTEX
  8
MY3DLAYER
10
30.0298206837658
20
6.39176824370915
30
-5.85759999999993
 70
     32
  0
VERTEX
  8
MY3DLAYER
10
30.0281169750802
20
6.40470919596427
30
-5.85759999999993
 70
     32
  0
VERTEX
  8
MY3DLAYER
10
30.0298206837658
20
6.4176501482194
30
-5.85759999999993
 70
     32
  0
VERTEX
  8
MY3DLAYER
10
30.034815704891
20
6.42970919596427
30
-5.85759999999993
 70
     32
  0
VERTEX
  8
MY3DLAYER
10
30.0427616360209
20
6.4400645350236
30
-5.85759999999993
 70
     32
  0
VERTEX
  8
MY3DLAYER
10
30.0531169750802
20
6.44801046615349
30
-5.85759999999993
 70
     32
  0
VERTEX
  8
MY3DLAYER
10
30.0651760228251
20
6.45300548727872
30
-5.85759999999993
 70
     32
  0
VERTEX
  8
MY3DLAYER
10
30.0781169750802
20
6.45470919596427
30
-5.85759999999993
 70
     32
  0
VERTEX
  8
MY3DLAYER
10
30.0781169750802
20
7.04079358778862
30
-5.85759999999992
 70
     32
  0
VERTEX
  8
MY3DLAYER
10
30.0651760228251
20
7.04249729647417
30
-5.85759999999993
 70
     32
  0
VERTEX
  8
MY3DLAYER
10
30.0531169750802
20
7.0474923175994
30
-5.85759999999992
 70
     32
  0
VERTEX
  8
MY3DLAYER
10
30.0427616360209
20
7.05543824872929
30
-5.85759999999993
 70
     32
  0
VERTEX
  8
MY3DLAYER
10
30.034815704891
20
7.06579358778862
30
-5.85759999999993
 70
     32
  0
VERTEX
  8
MY3DLAYER
10
30.0298206837658
20
7.07785263553349
30
-5.85759999999992
 70
     32
  0
VERTEX
  8
MY3DLAYER
10
30.0281169750802
20
7.09079358778862
30
-5.85759999999993
 70
     32
  0
VERTEX
  8
MY3DLAYER
10
30.0298206837658
20
7.10373454004374
30
-5.85759999999992
 70
     32
  0
VERTEX
  8
MY3DLAYER
10
30.034815704891
20
7.11579358778861
30
-5.85759999999993
 70
     32
  0
VERTEX
  8
MY3DLAYER
10
30.0427616360209
20
7.12614892684794
30
-5.85759999999993
 70
     32
  0
VERTEX
  8
MY3DLAYER
10
30.0531169750802
20
7.13409485797783
30
-5.85759999999993
 70
     32
  0
VERTEX
  8
MY3DLAYER
10
30.0651760228251
20
7.13908987910307
30
-5.85759999999993
 70
     32
  0
VERTEX
  8
MY3DLAYER
10
30.0781169750802
20
7.14079358778861
30
-5.85759999999993
 70
     32
  0
VERTEX
  8
MY3DLAYER
10
30.0910579273354
20
7.13908987910307
30
-5.85759999999993
 70
     32
  0
VERTEX
  8
MY3DLAYER
10
30.1031169750802
20
7.13409485797783
30
-5.85759999999992
 70
     32
  0
VERTEX
  8
MY3DLAYER
10
30.1134723141396
20
7.12614892684794
30
-5.85759999999993
 70
     32
  0
VERTEX
  8
MY3DLAYER
10
30.1214182452694
20
7.11579358778861
30
-5.85759999999992
 70
     32
  0
VERTEX
  8
MY3DLAYER
10
30.6289822173509
20
7.40883578370078
30
-5.85759999999992
 70
     32
  0
VERTEX
  8
MY3DLAYER
10
30.6239871962257
20
7.42089483144565
30
-5.85759999999992
 70
     32
  0
VERTEX
  8
MY3DLAYER
10
30.6222834875401
20
7.43383578370078
30
-5.85759999999992
 70
     32
  0
VERTEX
  8
MY3DLAYER
10
30.6239871962257
20
7.44677673595591
30
-5.85759999999992
 70
     32
  0
VERTEX
  8
MY3DLAYER
10
30.6289822173509
20
7.45883578370078
30
-5.85759999999992
 70
     32
  0
VERTEX
  8
MY3DLAYER
10
30.6369281484808
20
7.4691911227601
30
-5.85759999999992
 70
     32
  0
VERTEX
  8
MY3DLAYER
10
30.6472834875401
20
7.47713705389
30
-5.85759999999992
 70
     32
  0
VERTEX
  8
MY3DLAYER
10
30.659342535285
20
7.48213207501523
30
-5.85759999999993
 70
     32
  0
VERTEX
  8
MY3DLAYER
10
30.6722834875401
20
7.48383578370078
30
-5.85759999999992
 70
     32
  0
VERTEX
  8
MY3DLAYER
10
30.6852244397952
20
7.48213207501523
30
-5.85759999999992
 70
     32
  0
VERTEX
  8
MY3DLAYER
10
30.6972834875401
20
7.47713705389
30
-5.85759999999992
 70
     32
  0
VERTEX
  8
MY3DLAYER
10
30.7076388265994
20
7.4691911227601
30
-5.85759999999993
 70
     32
  0
VERTEX
  8
MY3DLAYER
10
30.7155847577293
20
7.45883578370078
30
-5.85759999999992
 70
     32
  0
VERTEX
  8
MY3DLAYER
10
30.7205797788546
20
7.44677673595591
30
-5.85759999999992
 70
     32
  0
VERTEX
  8
MY3DLAYER
10
30.7222834875401
20
7.43383578370078
30
-5.85759999999992
 70
     32
  0
VERTEX
  8
MY3DLAYER
10
30.7205797788546
20
7.42089483144565
30
-5.85759999999992
 70
     32
  0
VERTEX
  8
MY3DLAYER
10
30.7155847577293
20
7.40883578370078
30
-5.85759999999992
 70
     32
  0
VERTEX
  8
MY3DLAYER
10
31.2231487298108
20
7.1157935877886
30
-5.85759999999992
 70
     32
  0
VERTEX
  8
MY3DLAYER
10
31.2310946609407
20
7.12614892684793
30
-5.85759999999992
 70
     32
  0
VERTEX
  8
MY3DLAYER
10
31.24145
20
7.13409485797783
30
-5.85759999999993
 70
     32
  0
VERTEX
  8
MY3DLAYER
10
31.2535090477449
20
7.13908987910305
30
-5.85759999999992
 70
     32
  0
VERTEX
  8
MY3DLAYER
10
31.26645
20
7.1407935877886
30
-5.85759999999993
 70
     32
  0
VERTEX
  8
MY3DLAYER
10
31.2793909522551
20
7.13908987910305
30
-5.85759999999992
 70
     32
  0
VERTEX
  8
MY3DLAYER
10
31.29145
20
7.13409485797782
30
-5.85759999999993
 70
     32
  0
VERTEX
  8
MY3DLAYER
10
31.3018053390593
20
7.12614892684793
30
-5.85759999999992
 70
     32
  0
VERTEX
  8
MY3DLAYER
10
31.3097512701892
20
7.1157935877886
30
-5.85759999999992
 70
     32
  0
VERTEX
  8
MY3DLAYER
10
31.3147462913144
20
7.10373454004372
30
-5.85759999999992
 70
     32
  0
SEQEND
  0
POLYLINE
 8
Layer0
 66
     1
70
    8
 10
0.0
 20
 0.0
 30
0.0
  0
VERTEX
  8
MY3DLAYER
10
29.5030792913144
20
7.10373454004372
30
-5.85759999999992
 70
     32
  0
VERTEX
  8
MY3DLAYER
10
29.504783
20
7.0907935877886
30
-5.85759999999993
 70
     32
  0
VERTEX
  8
MY3DLAYER
10
29.5030792913144
20
7.07785263553347
30
-5.85759999999992
 70
     32
  0
VERTEX
  8
MY3DLAYER
10
29.4980842701892
20
7.0657935877886
30
-5.85759999999992
 70
     32
  0
VERTEX
  8
MY3DLAYER
10
29.4901383390593
20
7.05543824872927
30
-5.85759999999993
 70
     32
  0
VERTEX
  8
MY3DLAYER
10
29.479783
20
7.04749231759938
30
-5.85759999999992
 70
     32
  0
VERTEX
  8
MY3DLAYER
10
29.4677239522551
20
7.04249729647415
30
-5.85759999999992
 70
     32
  0
VERTEX
  8
MY3DLAYER
10
29.454783
20
7.0407935877886
30
-5.85759999999992
 70
     32
  0
VERTEX
  8
MY3DLAYER
10
29.454783
20
6.45470919596426
30
-5.85759999999992
 70
     32
  0
VERTEX
  8
MY3DLAYER
10
29.4677239522551
20
6.45300548727871
30
-5.85759999999992
 70
     32
  0
VERTEX
  8
MY3DLAYER
10
29.479783
20
6.44801046615348
30
-5.85759999999993
 70
     32
  0
VERTEX
  8
MY3DLAYER
10
29.4901383390593
20
6.44006453502359
30
-5.85759999999992
 70
     32
  0
VERTEX
  8
MY3DLAYER
10
29.4980842701892
20
6.42970919596426
30
-5.85759999999992
 70
     32
  0
VERTEX
  8
MY3DLAYER
10
29.5030792913144
20
6.41765014821939
30
-5.85759999999992
 70
     32
  0
VERTEX
  8
MY3DLAYER
10
29.504783
20
6.40470919596426
30
-5.85759999999993
 70
     32
  0
VERTEX
  8
MY3DLAYER
10
29.5030792913144
20
6.39176824370914
30
-5.85759999999992
 70
     32
  0
VERTEX
  8
MY3DLAYER
10
29.4980842701892
20
6.37970919596426
30
-5.85759999999992
 70
     32
  0
VERTEX
  8
MY3DLAYER
10
29.4901383390593
20
6.36935385690493
30
-5.85759999999992
 70
     32
  0
VERTEX
  8
MY3DLAYER
10
29.479783
20
6.36140792577504
30
-5.85759999999993
 70
     32
  0
VERTEX
  8
MY3DLAYER
10
29.4677239522551
20
6.35641290464981
30
-5.85759999999992
 70
     32
  0
VERTEX
  8
MY3DLAYER
10
29.454783
20
6.35470919596426
30
-5.85759999999993
 70
     32
  0
VERTEX
  8
MY3DLAYER
10
29.4418420477449
20
6.35641290464981
30
-5.85759999999992
 70
     32
  0
VERTEX
  8
MY3DLAYER
10
29.429783
20
6.36140792577504
30
-5.85759999999993
 70
     32
  0
VERTEX
  8
MY3DLAYER
10
29.4194276609407
20
6.36935385690493
30
-5.85759999999992
 70
     32
  0
VERTEX
  8
MY3DLAYER
10
29.4114817298108
20
6.37970919596426
30
-5.85759999999992
 70
     32
  0
VERTEX
  8
MY3DLAYER
10
28.9039177577293
20
6.08666700005208
30
-5.85759999999992
 70
     32
  0
VERTEX
  8
MY3DLAYER
10
28.9089127788546
20
6.07460795230721
30
-5.85759999999992
 70
     32
  0
VERTEX
  8
MY3DLAYER
10
28.9106164875401
20
6.06166700005208
30
-5.85759999999992
 70
     32
  0
VERTEX
  8
MY3DLAYER
10
28.9089127788546
20
6.04872604779695
30
-5.85759999999992
 70
     32
  0
VERTEX
  8
MY3DLAYER
10
28.9039177577293
20
6.03666700005208
30
-5.85759999999992
 70
     32
  0
VERTEX
  8
MY3DLAYER
10
28.8959718265994
20
6.02631166099276
30
-5.85759999999993
 70
     32
  0
VERTEX
  8
MY3DLAYER
10
28.8856164875401
20
6.01836572986286
30
-5.85759999999992
 70
     32
  0
VERTEX
  8
MY3DLAYER
10
28.8735574397952
20
6.01337070873763
30
-5.85759999999992
 70
     32
  0
VERTEX
  8
MY3DLAYER
10
28.8606164875401
20
6.01166700005208
30
-5.85759999999992
 70
     32
  0
VERTEX
  8
MY3DLAYER
10
28.847675535285
20
6.01337070873763
30
-5.85759999999993
 70
     32
  0
VERTEX
  8
MY3DLAYER
10
28.8356164875401
20
6.01836572986286
30
-5.85759999999992
 70
     32
  0
VERTEX
  8
MY3DLAYER
10
28.8252611484808
20
6.02631166099276
30
-5.85759999999992
 70
     32
  0
VERTEX
  8
MY3DLAYER
10
28.8173152173509
20
6.03666700005208
30
-5.85759999999992
 70
     32
  0
VERTEX
  8
MY3DLAYER
10
28.8123201962257
20
6.04872604779695
30
-5.85759999999992
 70
     32
  0
VERTEX
  8
MY3DLAYER
10
28.8106164875401
20
6.06166700005208
30
-5.85759999999992
 70
     32
  0
VERTEX
  8
MY3DLAYER
10
28.8123201962257
20
6.07460795230721
30
-5.85759999999992
 70
     32
  0
VERTEX
  8
MY3DLAYER
10
28.8173152173509
20
6.08666700005208
30
-5.85759999999992
 70
     32
  0
VERTEX
  8
MY3DLAYER
10
28.3097512452695
20
6.37970919596427
30
-5.85759999999992
 70
     32
  0
VERTEX
  8
MY3DLAYER
10
28.3018053141396
20
6.36935385690494
30
-5.85759999999992
 70
     32
  0
VERTEX
  8
MY3DLAYER
10
28.2914499750802
20
6.36140792577504
30
-5.85759999999992
 70
     32
  0
VERTEX
  8
MY3DLAYER
10
28.2793909273354
20
6.35641290464982
30
-5.85759999999992
 70
     32
  0
VERTEX
  8
MY3DLAYER
10
28.2664499750802
20
6.35470919596427
30
-5.85759999999993
 70
     32
  0
VERTEX
  8
MY3DLAYER
10
28.2535090228251
20
6.35641290464982
30
-5.85759999999993
 70
     32
  0
VERTEX
  8
MY3DLAYER
10
28.2414499750802
20
6.36140792577505
30
-5.85759999999993
 70
     32
  0
VERTEX
  8
MY3DLAYER
10
28.2310946360209
20
6.36935385690494
30
-5.85759999999992
 70
     32
  0
VERTEX
  8
MY3DLAYER
10
28.223148704891
20
6.37970919596427
30
-5.85759999999993
 70
     32
  0
VERTEX
  8
MY3DLAYER
10
28.2181536837658
20
6.39176824370915
30
-5.85759999999993
 70
     32
  0
VERTEX
  8
MY3DLAYER
10
28.2164499750802
20
6.40470919596427
30
-5.85759999999993
 70
     32
  0
VERTEX
  8
MY3DLAYER
10
28.2181536837658
20
6.4176501482194
30
-5.85759999999993
 70
     32
  0
VERTEX
  8
MY3DLAYER
10
28.223148704891
20
6.42970919596427
30
-5.85759999999993
 70
     32
  0
VERTEX
  8
MY3DLAYER
10
28.2310946360209
20
6.4400645350236
30
-5.85759999999993
 70
     32
  0
VERTEX
  8
MY3DLAYER
10
28.2414499750802
20
6.44801046615349
30
-5.85759999999993
 70
     32
  0
VERTEX
  8
MY3DLAYER
10
28.2535090228251
20
6.45300548727872
30
-5.85759999999993
 70
     32
  0
VERTEX
  8
MY3DLAYER
10
28.2664499750802
20
6.45470919596427
30
-5.85759999999993
 70
     32
  0
VERTEX
  8
MY3DLAYER
10
28.2664499750802
20
7.04079358778862
30
-5.85759999999992
 70
     32
  0
VERTEX
  8
MY3DLAYER
10
28.2535090228251
20
7.04249729647417
30
-5.85759999999993
 70
     32
  0
VERTEX
  8
MY3DLAYER
10
28.2414499750802
20
7.0474923175994
30
-5.85759999999992
 70
     32
  0
VERTEX
  8
MY3DLAYER
10
28.2310946360209
20
7.05543824872929
30
-5.85759999999993
 70
     32
  0
VERTEX
  8
MY3DLAYER
10
28.223148704891
20
7.06579358778862
30
-5.85759999999993
 70
     32
  0
VERTEX
  8
MY3DLAYER
10
28.2181536837658
20
7.07785263553349
30
-5.85759999999992
 70
     32
  0
VERTEX
  8
MY3DLAYER
10
28.2164499750802
20
7.09079358778862
30
-5.85759999999993
 70
     32
  0
VERTEX
  8
MY3DLAYER
10
28.2181536837658
20
7.10373454004374
30
-5.85759999999992
 70
     32
  0
VERTEX
  8
MY3DLAYER
10
28.223148704891
20
7.11579358778861
30
-5.85759999999993
 70
     32
  0
VERTEX
  8
MY3DLAYER
10
28.2310946360209
20
7.12614892684794
30
-5.85759999999993
 70
     32
  0
VERTEX
  8
MY3DLAYER
10
28.2414499750802
20
7.13409485797783
30
-5.85759999999993
 70
     32
  0
VERTEX
  8
MY3DLAYER
10
28.2535090228251
20
7.13908987910307
30
-5.85759999999993
 70
     32
  0
VERTEX
  8
MY3DLAYER
10
28.2664499750802
20
7.14079358778861
30
-5.85759999999993
 70
     32
  0
VERTEX
  8
MY3DLAYER
10
28.2793909273354
20
7.13908987910307
30
-5.85759999999993
 70
     32
  0
VERTEX
  8
MY3DLAYER
10
28.2914499750802
20
7.13409485797783
30
-5.85759999999992
 70
     32
  0
VERTEX
  8
MY3DLAYER
10
28.3018053141396
20
7.12614892684794
30
-5.85759999999993
 70
     32
  0
VERTEX
  8
MY3DLAYER
10
28.3097512452694
20
7.11579358778861
30
-5.85759999999992
 70
     32
  0
VERTEX
  8
MY3DLAYER
10
28.8173152173509
20
7.40883578370078
30
-5.85759999999992
 70
     32
  0
VERTEX
  8
MY3DLAYER
10
28.8123201962257
20
7.42089483144565
30
-5.85759999999992
 70
     32
  0
VERTEX
  8
MY3DLAYER
10
28.8106164875401
20
7.43383578370078
30
-5.85759999999992
 70
     32
  0
VERTEX
  8
MY3DLAYER
10
28.8123201962257
20
7.44677673595591
30
-5.85759999999992
 70
     32
  0
VERTEX
  8
MY3DLAYER
10
28.8173152173509
20
7.45883578370078
30
-5.85759999999992
 70
     32
  0
VERTEX
  8
MY3DLAYER
10
28.8252611484808
20
7.4691911227601
30
-5.85759999999992
 70
     32
  0
VERTEX
  8
MY3DLAYER
10
28.8356164875401
20
7.47713705389
30
-5.85759999999992
 70
     32
  0
VERTEX
  8
MY3DLAYER
10
28.847675535285
20
7.48213207501523
30
-5.85759999999993
 70
     32
  0
VERTEX
  8
MY3DLAYER
10
28.8606164875401
20
7.48383578370078
30
-5.85759999999992
 70
     32
  0
VERTEX
  8
MY3DLAYER
10
28.8735574397952
20
7.48213207501523
30
-5.85759999999992
 70
     32
  0
VERTEX
  8
MY3DLAYER
10
28.8856164875401
20
7.47713705389
30
-5.85759999999992
 70
     32
  0
VERTEX
  8
MY3DLAYER
10
28.8959718265994
20
7.4691911227601
30
-5.85759999999993
 70
     32
  0
VERTEX
  8
MY3DLAYER
10
28.9039177577293
20
7.45883578370078
30
-5.85759999999992
 70
     32
  0
VERTEX
  8
MY3DLAYER
10
28.9089127788546
20
7.44677673595591
30
-5.85759999999992
 70
     32
  0
VERTEX
  8
MY3DLAYER
10
28.9106164875401
20
7.43383578370078
30
-5.85759999999992
 70
     32
  0
VERTEX
  8
MY3DLAYER
10
28.9089127788546
20
7.42089483144565
30
-5.85759999999992
 70
     32
  0
VERTEX
  8
MY3DLAYER
10
28.9039177577293
20
7.40883578370078
30
-5.85759999999992
 70
     32
  0
VERTEX
  8
MY3DLAYER
10
29.4114817298108
20
7.1157935877886
30
-5.85759999999992
 70
     32
  0
VERTEX
  8
MY3DLAYER
10
29.4194276609407
20
7.12614892684793
30
-5.85759999999992
 70
     32
  0
VERTEX
  8
MY3DLAYER
10
29.429783
20
7.13409485797783
30
-5.85759999999993
 70
     32
  0
VERTEX
  8
MY3DLAYER
10
29.4418420477449
20
7.13908987910305
30
-5.85759999999992
 70
     32
  0
VERTEX
  8
MY3DLAYER
10
29.454783
20
7.1407935877886
30
-5.85759999999993
 70
     32
  0
VERTEX
  8
MY3DLAYER
10
29.4677239522551
20
7.13908987910305
30
-5.85759999999992
 70
     32
  0
VERTEX
  8
MY3DLAYER
10
29.479783
20
7.13409485797782
30
-5.85759999999993
 70
     32
  0
VERTEX
  8
MY3DLAYER
10
29.4901383390593
20
7.12614892684793
30
-5.85759999999992
 70
     32
  0
VERTEX
  8
MY3DLAYER
10
29.4980842701892
20
7.1157935877886
30
-5.85759999999992
 70
     32
  0
VERTEX
  8
MY3DLAYER
10
29.5030792913144
20
7.10373454004372
30
-5.85759999999992
 70
     32
  0
SEQEND
  0
POLYLINE
 8
Layer0
 66
     1
70
    8
 10
0.0
 20
 0.0
 30
0.0
  0
VERTEX
  8
MY3DLAYER
10
31.3147462913144
20
8.91540154004372
30
-5.85759999999992
 70
     32
  0
VERTEX
  8
MY3DLAYER
10
31.31645
20
8.9024605877886
30
-5.85759999999993
 70
     32
  0
VERTEX
  8
MY3DLAYER
10
31.3147462913144
20
8.88951963553347
30
-5.85759999999992
 70
     32
  0
VERTEX
  8
MY3DLAYER
10
31.3097512701892
20
8.8774605877886
30
-5.85759999999992
 70
     32
  0
VERTEX
  8
MY3DLAYER
10
31.3018053390593
20
8.86710524872927
30
-5.85759999999993
 70
     32
  0
VERTEX
  8
MY3DLAYER
10
31.29145
20
8.85915931759938
30
-5.85759999999992
 70
     32
  0
VERTEX
  8
MY3DLAYER
10
31.2793909522551
20
8.85416429647415
30
-5.85759999999992
 70
     32
  0
VERTEX
  8
MY3DLAYER
10
31.26645
20
8.8524605877886
30
-5.85759999999992
 70
     32
  0
VERTEX
  8
MY3DLAYER
10
31.26645
20
8.26637619596426
30
-5.85759999999992
 70
     32
  0
VERTEX
  8
MY3DLAYER
10
31.2793909522551
20
8.26467248727871
30
-5.85759999999992
 70
     32
  0
VERTEX
  8
MY3DLAYER
10
31.29145
20
8.25967746615348
30
-5.85759999999993
 70
     32
  0
VERTEX
  8
MY3DLAYER
10
31.3018053390593
20
8.25173153502359
30
-5.85759999999992
 70
     32
  0
VERTEX
  8
MY3DLAYER
10
31.3097512701892
20
8.24137619596426
30
-5.85759999999992
 70
     32
  0
VERTEX
  8
MY3DLAYER
10
31.3147462913144
20
8.22931714821939
30
-5.85759999999992
 70
     32
  0
VERTEX
  8
MY3DLAYER
10
31.31645
20
8.21637619596426
30
-5.85759999999993
 70
     32
  0
VERTEX
  8
MY3DLAYER
10
31.3147462913144
20
8.20343524370914
30
-5.85759999999992
 70
     32
  0
VERTEX
  8
MY3DLAYER
10
31.3097512701892
20
8.19137619596426
30
-5.85759999999992
 70
     32
  0
VERTEX
  8
MY3DLAYER
10
31.3018053390593
20
8.18102085690493
30
-5.85759999999992
 70
     32
  0
VERTEX
  8
MY3DLAYER
10
31.29145
20
8.17307492577504
30
-5.85759999999993
 70
     32
  0
VERTEX
  8
MY3DLAYER
10
31.2793909522551
20
8.16807990464981
30
-5.85759999999992
 70
     32
  0
VERTEX
  8
MY3DLAYER
10
31.26645
20
8.16637619596426
30
-5.85759999999993
 70
     32
  0
VERTEX
  8
MY3DLAYER
10
31.2535090477449
20
8.16807990464981
30
-5.85759999999992
 70
     32
  0
VERTEX
  8
MY3DLAYER
10
31.24145
20
8.17307492577504
30
-5.85759999999993
 70
     32
  0
VERTEX
  8
MY3DLAYER
10
31.2310946609407
20
8.18102085690493
30
-5.85759999999992
 70
     32
  0
VERTEX
  8
MY3DLAYER
10
31.2231487298108
20
8.19137619596426
30
-5.85759999999992
 70
     32
  0
VERTEX
  8
MY3DLAYER
10
30.7155847577293
20
7.89833400005208
30
-5.85759999999992
 70
     32
  0
VERTEX
  8
MY3DLAYER
10
30.7205797788546
20
7.88627495230721
30
-5.85759999999992
 70
     32
  0
VERTEX
  8
MY3DLAYER
10
30.7222834875401
20
7.87333400005208
30
-5.85759999999992
 70
     32
  0
VERTEX
  8
MY3DLAYER
10
30.7205797788546
20
7.86039304779695
30
-5.85759999999992
 70
     32
  0
VERTEX
  8
MY3DLAYER
10
30.7155847577293
20
7.84833400005208
30
-5.85759999999992
 70
     32
  0
VERTEX
  8
MY3DLAYER
10
30.7076388265994
20
7.83797866099276
30
-5.85759999999993
 70
     32
  0
VERTEX
  8
MY3DLAYER
10
30.6972834875401
20
7.83003272986286
30
-5.85759999999992
 70
     32
  0
VERTEX
  8
MY3DLAYER
10
30.6852244397952
20
7.82503770873763
30
-5.85759999999992
 70
     32
  0
VERTEX
  8
MY3DLAYER
10
30.6722834875401
20
7.82333400005208
30
-5.85759999999992
 70
     32
  0
VERTEX
  8
MY3DLAYER
10
30.659342535285
20
7.82503770873763
30
-5.85759999999993
 70
     32
  0
VERTEX
  8
MY3DLAYER
10
30.6472834875401
20
7.83003272986286
30
-5.85759999999992
 70
     32
  0
VERTEX
  8
MY3DLAYER
10
30.6369281484808
20
7.83797866099276
30
-5.85759999999992
 70
     32
  0
VERTEX
  8
MY3DLAYER
10
30.6289822173509
20
7.84833400005208
30
-5.85759999999992
 70
     32
  0
VERTEX
  8
MY3DLAYER
10
30.6239871962257
20
7.86039304779695
30
-5.85759999999992
 70
     32
  0
VERTEX
  8
MY3DLAYER
10
30.6222834875401
20
7.87333400005208
30
-5.85759999999992
 70
     32
  0
VERTEX
  8
MY3DLAYER
10
30.6239871962257
20
7.88627495230721
30
-5.85759999999992
 70
     32
  0
VERTEX
  8
MY3DLAYER
10
30.6289822173509
20
7.89833400005208
30
-5.85759999999992
 70
     32
  0
VERTEX
  8
MY3DLAYER
10
30.1214182452695
20
8.19137619596427
30
-5.85759999999992
 70
     32
  0
VERTEX
  8
MY3DLAYER
10
30.1134723141396
20
8.18102085690494
30
-5.85759999999992
 70
     32
  0
VERTEX
  8
MY3DLAYER
10
30.1031169750802
20
8.17307492577504
30
-5.85759999999992
 70
     32
  0
VERTEX
  8
MY3DLAYER
10
30.0910579273354
20
8.16807990464982
30
-5.85759999999992
 70
     32
  0
VERTEX
  8
MY3DLAYER
10
30.0781169750802
20
8.16637619596427
30
-5.85759999999993
 70
     32
  0
VERTEX
  8
MY3DLAYER
10
30.0651760228251
20
8.16807990464982
30
-5.85759999999993
 70
     32
  0
VERTEX
  8
MY3DLAYER
10
30.0531169750802
20
8.17307492577505
30
-5.85759999999993
 70
     32
  0
VERTEX
  8
MY3DLAYER
10
30.0427616360209
20
8.18102085690494
30
-5.85759999999992
 70
     32
  0
VERTEX
  8
MY3DLAYER
10
30.034815704891
20
8.19137619596427
30
-5.85759999999993
 70
     32
  0
VERTEX
  8
MY3DLAYER
10
30.0298206837658
20
8.20343524370915
30
-5.85759999999993
 70
     32
  0
VERTEX
  8
MY3DLAYER
10
30.0281169750802
20
8.21637619596427
30
-5.85759999999993
 70
     32
  0
VERTEX
  8
MY3DLAYER
10
30.0298206837658
20
8.2293171482194
30
-5.85759999999993
 70
     32
  0
VERTEX
  8
MY3DLAYER
10
30.034815704891
20
8.24137619596427
30
-5.85759999999993
 70
     32
  0
VERTEX
  8
MY3DLAYER
10
30.0427616360209
20
8.2517315350236
30
-5.85759999999993
 70
     32
  0
VERTEX
  8
MY3DLAYER
10
30.0531169750802
20
8.25967746615349
30
-5.85759999999993
 70
     32
  0
VERTEX
  8
MY3DLAYER
10
30.0651760228251
20
8.26467248727872
30
-5.85759999999993
 70
     32
  0
VERTEX
  8
MY3DLAYER
10
30.0781169750802
20
8.26637619596427
30
-5.85759999999993
 70
     32
  0
VERTEX
  8
MY3DLAYER
10
30.0781169750802
20
8.85246058778862
30
-5.85759999999992
 70
     32
  0
VERTEX
  8
MY3DLAYER
10
30.0651760228251
20
8.85416429647417
30
-5.85759999999993
 70
     32
  0
VERTEX
  8
MY3DLAYER
10
30.0531169750802
20
8.8591593175994
30
-5.85759999999992
 70
     32
  0
VERTEX
  8
MY3DLAYER
10
30.0427616360209
20
8.86710524872929
30
-5.85759999999993
 70
     32
  0
VERTEX
  8
MY3DLAYER
10
30.034815704891
20
8.87746058778862
30
-5.85759999999993
 70
     32
  0
VERTEX
  8
MY3DLAYER
10
30.0298206837658
20
8.88951963553349
30
-5.85759999999992
 70
     32
  0
VERTEX
  8
MY3DLAYER
10
30.0281169750802
20
8.90246058778862
30
-5.85759999999993
 70
     32
  0
VERTEX
  8
MY3DLAYER
10
30.0298206837658
20
8.91540154004374
30
-5.85759999999992
 70
     32
  0
VERTEX
  8
MY3DLAYER
10
30.034815704891
20
8.92746058778861
30
-5.85759999999993
 70
     32
  0
VERTEX
  8
MY3DLAYER
10
30.0427616360209
20
8.93781592684794
30
-5.85759999999993
 70
     32
  0
VERTEX
  8
MY3DLAYER
10
30.0531169750802
20
8.94576185797783
30
-5.85759999999993
 70
     32
  0
VERTEX
  8
MY3DLAYER
10
30.0651760228251
20
8.95075687910307
30
-5.85759999999993
 70
     32
  0
VERTEX
  8
MY3DLAYER
10
30.0781169750802
20
8.95246058778861
30
-5.85759999999993
 70
     32
  0
VERTEX
  8
MY3DLAYER
10
30.0910579273354
20
8.95075687910307
30
-5.85759999999993
 70
     32
  0
VERTEX
  8
MY3DLAYER
10
30.1031169750802
20
8.94576185797783
30
-5.85759999999992
 70
     32
  0
VERTEX
  8
MY3DLAYER
10
30.1134723141396
20
8.93781592684794
30
-5.85759999999993
 70
     32
  0
VERTEX
  8
MY3DLAYER
10
30.1214182452694
20
8.92746058778861
30
-5.85759999999992
 70
     32
  0
VERTEX
  8
MY3DLAYER
10
30.6289822173509
20
9.22050278370078
30
-5.85759999999992
 70
     32
  0
VERTEX
  8
MY3DLAYER
10
30.6239871962257
20
9.23256183144565
30
-5.85759999999992
 70
     32
  0
VERTEX
  8
MY3DLAYER
10
30.6222834875401
20
9.24550278370078
30
-5.85759999999992
 70
     32
  0
VERTEX
  8
MY3DLAYER
10
30.6239871962257
20
9.25844373595591
30
-5.85759999999992
 70
     32
  0
VERTEX
  8
MY3DLAYER
10
30.6289822173509
20
9.27050278370078
30
-5.85759999999992
 70
     32
  0
VERTEX
  8
MY3DLAYER
10
30.6369281484808
20
9.2808581227601
30
-5.85759999999992
 70
     32
  0
VERTEX
  8
MY3DLAYER
10
30.6472834875401
20
9.28880405389
30
-5.85759999999992
 70
     32
  0
VERTEX
  8
MY3DLAYER
10
30.659342535285
20
9.29379907501523
30
-5.85759999999993
 70
     32
  0
VERTEX
  8
MY3DLAYER
10
30.6722834875401
20
9.29550278370078
30
-5.85759999999992
 70
     32
  0
VERTEX
  8
MY3DLAYER
10
30.6852244397952
20
9.29379907501523
30
-5.85759999999992
 70
     32
  0
VERTEX
  8
MY3DLAYER
10
30.6972834875401
20
9.28880405389
30
-5.85759999999992
 70
     32
  0
VERTEX
  8
MY3DLAYER
10
30.7076388265994
20
9.2808581227601
30
-5.85759999999993
 70
     32
  0
VERTEX
  8
MY3DLAYER
10
30.7155847577293
20
9.27050278370078
30
-5.85759999999992
 70
     32
  0
VERTEX
  8
MY3DLAYER
10
30.7205797788546
20
9.25844373595591
30
-5.85759999999992
 70
     32
  0
VERTEX
  8
MY3DLAYER
10
30.7222834875401
20
9.24550278370078
30
-5.85759999999992
 70
     32
  0
VERTEX
  8
MY3DLAYER
10
30.7205797788546
20
9.23256183144565
30
-5.85759999999992
 70
     32
  0
VERTEX
  8
MY3DLAYER
10
30.7155847577293
20
9.22050278370078
30
-5.85759999999992
 70
     32
  0
VERTEX
  8
MY3DLAYER
10
31.2231487298108
20
8.9274605877886
30
-5.85759999999992
 70
     32
  0
VERTEX
  8
MY3DLAYER
10
31.2310946609407
20
8.93781592684793
30
-5.85759999999992
 70
     32
  0
VERTEX
  8
MY3DLAYER
10
31.24145
20
8.94576185797783
30
-5.85759999999993
 70
     32
  0
VERTEX
  8
MY3DLAYER
10
31.2535090477449
20
8.95075687910305
30
-5.85759999999992
 70
     32
  0
VERTEX
  8
MY3DLAYER
10
31.26645
20
8.9524605877886
30
-5.85759999999993
 70
     32
  0
VERTEX
  8
MY3DLAYER
10
31.2793909522551
20
8.95075687910305
30
-5.85759999999992
 70
     32
  0
VERTEX
  8
MY3DLAYER
10
31.29145
20
8.94576185797782
30
-5.85759999999993
 70
     32
  0
VERTEX
  8
MY3DLAYER
10
31.3018053390593
20
8.93781592684793
30
-5.85759999999992
 70
     32
  0
VERTEX
  8
MY3DLAYER
10
31.3097512701892
20
8.9274605877886
30
-5.85759999999992
 70
     32
  0
VERTEX
  8
MY3DLAYER
10
31.3147462913144
20
8.91540154004372
30
-5.85759999999992
 70
     32
  0
SEQEND
  0
POLYLINE
 8
Layer0
 66
     1
70
    8
 10
0.0
 20
 0.0
 30
0.0
  0
VERTEX
  8
MY3DLAYER
10
29.5030792913144
20
8.91540154004372
30
-5.85759999999992
 70
     32
  0
VERTEX
  8
MY3DLAYER
10
29.504783
20
8.9024605877886
30
-5.85759999999993
 70
     32
  0
VERTEX
  8
MY3DLAYER
10
29.5030792913144
20
8.88951963553347
30
-5.85759999999992
 70
     32
  0
VERTEX
  8
MY3DLAYER
10
29.4980842701892
20
8.8774605877886
30
-5.85759999999992
 70
     32
  0
VERTEX
  8
MY3DLAYER
10
29.4901383390593
20
8.86710524872927
30
-5.85759999999993
 70
     32
  0
VERTEX
  8
MY3DLAYER
10
29.479783
20
8.85915931759938
30
-5.85759999999992
 70
     32
  0
VERTEX
  8
MY3DLAYER
10
29.4677239522551
20
8.85416429647415
30
-5.85759999999992
 70
     32
  0
VERTEX
  8
MY3DLAYER
10
29.454783
20
8.8524605877886
30
-5.85759999999992
 70
     32
  0
VERTEX
  8
MY3DLAYER
10
29.454783
20
8.26637619596426
30
-5.85759999999992
 70
     32
  0
VERTEX
  8
MY3DLAYER
10
29.4677239522551
20
8.26467248727871
30
-5.85759999999992
 70
     32
  0
VERTEX
  8
MY3DLAYER
10
29.479783
20
8.25967746615348
30
-5.85759999999993
 70
     32
  0
VERTEX
  8
MY3DLAYER
10
29.4901383390593
20
8.25173153502359
30
-5.85759999999992
 70
     32
  0
VERTEX
  8
MY3DLAYER
10
29.4980842701892
20
8.24137619596426
30
-5.85759999999992
 70
     32
  0
VERTEX
  8
MY3DLAYER
10
29.5030792913144
20
8.22931714821939
30
-5.85759999999992
 70
     32
  0
VERTEX
  8
MY3DLAYER
10
29.504783
20
8.21637619596426
30
-5.85759999999993
 70
     32
  0
VERTEX
  8
MY3DLAYER
10
29.5030792913144
20
8.20343524370914
30
-5.85759999999992
 70
     32
  0
VERTEX
  8
MY3DLAYER
10
29.4980842701892
20
8.19137619596426
30
-5.85759999999992
 70
     32
  0
VERTEX
  8
MY3DLAYER
10
29.4901383390593
20
8.18102085690493
30
-5.85759999999992
 70
     32
  0
VERTEX
  8
MY3DLAYER
10
29.479783
20
8.17307492577504
30
-5.85759999999993
 70
     32
  0
VERTEX
  8
MY3DLAYER
10
29.4677239522551
20
8.16807990464981
30
-5.85759999999992
 70
     32
  0
VERTEX
  8
MY3DLAYER
10
29.454783
20
8.16637619596426
30
-5.85759999999993
 70
     32
  0
VERTEX
  8
MY3DLAYER
10
29.4418420477449
20
8.16807990464981
30
-5.85759999999992
 70
     32
  0
VERTEX
  8
MY3DLAYER
10
29.429783
20
8.17307492577504
30
-5.85759999999993
 70
     32
  0
VERTEX
  8
MY3DLAYER
10
29.4194276609407
20
8.18102085690493
30
-5.85759999999992
 70
     32
  0
VERTEX
  8
MY3DLAYER
10
29.4114817298108
20
8.19137619596426
30
-5.85759999999992
 70
     32
  0
VERTEX
  8
MY3DLAYER
10
28.9039177577293
20
7.89833400005208
30
-5.85759999999992
 70
     32
  0
VERTEX
  8
MY3DLAYER
10
28.9089127788546
20
7.88627495230721
30
-5.85759999999992
 70
     32
  0
VERTEX
  8
MY3DLAYER
10
28.9106164875401
20
7.87333400005208
30
-5.85759999999992
 70
     32
  0
VERTEX
  8
MY3DLAYER
10
28.9089127788546
20
7.86039304779695
30
-5.85759999999992
 70
     32
  0
VERTEX
  8
MY3DLAYER
10
28.9039177577293
20
7.84833400005208
30
-5.85759999999992
 70
     32
  0
VERTEX
  8
MY3DLAYER
10
28.8959718265994
20
7.83797866099276
30
-5.85759999999993
 70
     32
  0
VERTEX
  8
MY3DLAYER
10
28.8856164875401
20
7.83003272986286
30
-5.85759999999992
 70
     32
  0
VERTEX
  8
MY3DLAYER
10
28.8735574397952
20
7.82503770873763
30
-5.85759999999992
 70
     32
  0
VERTEX
  8
MY3DLAYER
10
28.8606164875401
20
7.82333400005208
30
-5.85759999999992
 70
     32
  0
VERTEX
  8
MY3DLAYER
10
28.847675535285
20
7.82503770873763
30
-5.85759999999993
 70
     32
  0
VERTEX
  8
MY3DLAYER
10
28.8356164875401
20
7.83003272986286
30
-5.85759999999992
 70
     32
  0
VERTEX
  8
MY3DLAYER
10
28.8252611484808
20
7.83797866099276
30
-5.85759999999992
 70
     32
  0
VERTEX
  8
MY3DLAYER
10
28.8173152173509
20
7.84833400005208
30
-5.85759999999992
 70
     32
  0
VERTEX
  8
MY3DLAYER
10
28.8123201962257
20
7.86039304779695
30
-5.85759999999992
 70
     32
  0
VERTEX
  8
MY3DLAYER
10
28.8106164875401
20
7.87333400005208
30
-5.85759999999992
 70
     32
  0
VERTEX
  8
MY3DLAYER
10
28.8123201962257
20
7.88627495230721
30
-5.85759999999992
 70
     32
  0
VERTEX
  8
MY3DLAYER
10
28.8173152173509
20
7.89833400005208
30
-5.85759999999992
 70
     32
  0
VERTEX
  8
MY3DLAYER
10
28.3097512452695
20
8.19137619596427
30
-5.85759999999992
 70
     32
  0
VERTEX
  8
MY3DLAYER
10
28.3018053141396
20
8.18102085690494
30
-5.85759999999992
 70
     32
  0
VERTEX
  8
MY3DLAYER
10
28.2914499750802
20
8.17307492577504
30
-5.85759999999992
 70
     32
  0
VERTEX
  8
MY3DLAYER
10
28.2793909273354
20
8.16807990464982
30
-5.85759999999992
 70
     32
  0
VERTEX
  8
MY3DLAYER
10
28.2664499750802
20
8.16637619596427
30
-5.85759999999993
 70
     32
  0
VERTEX
  8
MY3DLAYER
10
28.2535090228251
20
8.16807990464982
30
-5.85759999999993
 70
     32
  0
VERTEX
  8
MY3DLAYER
10
28.2414499750802
20
8.17307492577505
30
-5.85759999999993
 70
     32
  0
VERTEX
  8
MY3DLAYER
10
28.2310946360209
20
8.18102085690494
30
-5.85759999999992
 70
     32
  0
VERTEX
  8
MY3DLAYER
10
28.223148704891
20
8.19137619596427
30
-5.85759999999993
 70
     32
  0
VERTEX
  8
MY3DLAYER
10
28.2181536837658
20
8.20343524370915
30
-5.85759999999993
 70
     32
  0
VERTEX
  8
MY3DLAYER
10
28.2164499750802
20
8.21637619596427
30
-5.85759999999993
 70
     32
  0
VERTEX
  8
MY3DLAYER
10
28.2181536837658
20
8.2293171482194
30
-5.85759999999993
 70
     32
  0
VERTEX
  8
MY3DLAYER
10
28.223148704891
20
8.24137619596427
30
-5.85759999999993
 70
     32
  0
VERTEX
  8
MY3DLAYER
10
28.2310946360209
20
8.2517315350236
30
-5.85759999999993
 70
     32
  0
VERTEX
  8
MY3DLAYER
10
28.2414499750802
20
8.25967746615349
30
-5.85759999999993
 70
     32
  0
VERTEX
  8
MY3DLAYER
10
28.2535090228251
20
8.26467248727872
30
-5.85759999999993
 70
     32
  0
VERTEX
  8
MY3DLAYER
10
28.2664499750802
20
8.26637619596427
30
-5.85759999999993
 70
     32
  0
VERTEX
  8
MY3DLAYER
10
28.2664499750802
20
8.85246058778862
30
-5.85759999999992
 70
     32
  0
VERTEX
  8
MY3DLAYER
10
28.2535090228251
20
8.85416429647417
30
-5.85759999999993
 70
     32
  0
VERTEX
  8
MY3DLAYER
10
28.2414499750802
20
8.8591593175994
30
-5.85759999999992
 70
     32
  0
VERTEX
  8
MY3DLAYER
10
28.2310946360209
20
8.86710524872929
30
-5.85759999999993
 70
     32
  0
VERTEX
  8
MY3DLAYER
10
28.223148704891
20
8.87746058778862
30
-5.85759999999993
 70
     32
  0
VERTEX
  8
MY3DLAYER
10
28.2181536837658
20
8.88951963553349
30
-5.85759999999992
 70
     32
  0
VERTEX
  8
MY3DLAYER
10
28.2164499750802
20
8.90246058778862
30
-5.85759999999993
 70
     32
  0
VERTEX
  8
MY3DLAYER
10
28.2181536837658
20
8.91540154004374
30
-5.85759999999992
 70
     32
  0
VERTEX
  8
MY3DLAYER
10
28.223148704891
20
8.92746058778861
30
-5.85759999999993
 70
     32
  0
VERTEX
  8
MY3DLAYER
10
28.2310946360209
20
8.93781592684794
30
-5.85759999999993
 70
     32
  0
VERTEX
  8
MY3DLAYER
10
28.2414499750802
20
8.94576185797783
30
-5.85759999999993
 70
     32
  0
VERTEX
  8
MY3DLAYER
10
28.2535090228251
20
8.95075687910307
30
-5.85759999999993
 70
     32
  0
VERTEX
  8
MY3DLAYER
10
28.2664499750802
20
8.95246058778861
30
-5.85759999999993
 70
     32
  0
VERTEX
  8
MY3DLAYER
10
28.2793909273354
20
8.95075687910307
30
-5.85759999999993
 70
     32
  0
VERTEX
  8
MY3DLAYER
10
28.2914499750802
20
8.94576185797783
30
-5.85759999999992
 70
     32
  0
VERTEX
  8
MY3DLAYER
10
28.3018053141396
20
8.93781592684794
30
-5.85759999999993
 70
     32
  0
VERTEX
  8
MY3DLAYER
10
28.3097512452694
20
8.92746058778861
30
-5.85759999999992
 70
     32
  0
VERTEX
  8
MY3DLAYER
10
28.8173152173509
20
9.22050278370078
30
-5.85759999999992
 70
     32
  0
VERTEX
  8
MY3DLAYER
10
28.8123201962257
20
9.23256183144565
30
-5.85759999999992
 70
     32
  0
VERTEX
  8
MY3DLAYER
10
28.8106164875401
20
9.24550278370078
30
-5.85759999999992
 70
     32
  0
VERTEX
  8
MY3DLAYER
10
28.8123201962257
20
9.25844373595591
30
-5.85759999999992
 70
     32
  0
VERTEX
  8
MY3DLAYER
10
28.8173152173509
20
9.27050278370078
30
-5.85759999999992
 70
     32
  0
VERTEX
  8
MY3DLAYER
10
28.8252611484808
20
9.2808581227601
30
-5.85759999999992
 70
     32
  0
VERTEX
  8
MY3DLAYER
10
28.8356164875401
20
9.28880405389
30
-5.85759999999992
 70
     32
  0
VERTEX
  8
MY3DLAYER
10
28.847675535285
20
9.29379907501523
30
-5.85759999999993
 70
     32
  0
VERTEX
  8
MY3DLAYER
10
28.8606164875401
20
9.29550278370078
30
-5.85759999999992
 70
     32
  0
VERTEX
  8
MY3DLAYER
10
28.8735574397952
20
9.29379907501523
30
-5.85759999999992
 70
     32
  0
VERTEX
  8
MY3DLAYER
10
28.8856164875401
20
9.28880405389
30
-5.85759999999992
 70
     32
  0
VERTEX
  8
MY3DLAYER
10
28.8959718265994
20
9.2808581227601
30
-5.85759999999993
 70
     32
  0
VERTEX
  8
MY3DLAYER
10
28.9039177577293
20
9.27050278370078
30
-5.85759999999992
 70
     32
  0
VERTEX
  8
MY3DLAYER
10
28.9089127788546
20
9.25844373595591
30
-5.85759999999992
 70
     32
  0
VERTEX
  8
MY3DLAYER
10
28.9106164875401
20
9.24550278370078
30
-5.85759999999992
 70
     32
  0
VERTEX
  8
MY3DLAYER
10
28.9089127788546
20
9.23256183144565
30
-5.85759999999992
 70
     32
  0
VERTEX
  8
MY3DLAYER
10
28.9039177577293
20
9.22050278370078
30
-5.85759999999992
 70
     32
  0
VERTEX
  8
MY3DLAYER
10
29.4114817298108
20
8.9274605877886
30
-5.85759999999992
 70
     32
  0
VERTEX
  8
MY3DLAYER
10
29.4194276609407
20
8.93781592684793
30
-5.85759999999992
 70
     32
  0
VERTEX
  8
MY3DLAYER
10
29.429783
20
8.94576185797783
30
-5.85759999999993
 70
     32
  0
VERTEX
  8
MY3DLAYER
10
29.4418420477449
20
8.95075687910305
30
-5.85759999999992
 70
     32
  0
VERTEX
  8
MY3DLAYER
10
29.454783
20
8.9524605877886
30
-5.85759999999993
 70
     32
  0
VERTEX
  8
MY3DLAYER
10
29.4677239522551
20
8.95075687910305
30
-5.85759999999992
 70
     32
  0
VERTEX
  8
MY3DLAYER
10
29.479783
20
8.94576185797782
30
-5.85759999999993
 70
     32
  0
VERTEX
  8
MY3DLAYER
10
29.4901383390593
20
8.93781592684793
30
-5.85759999999992
 70
     32
  0
VERTEX
  8
MY3DLAYER
10
29.4980842701892
20
8.9274605877886
30
-5.85759999999992
 70
     32
  0
VERTEX
  8
MY3DLAYER
10
29.5030792913144
20
8.91540154004372
30
-5.85759999999992
 70
     32
  0
SEQEND
  0
POLYLINE
 8
Layer0
 66
     1
70
    8
 10
0.0
 20
 0.0
 30
0.0
  0
VERTEX
  8
MY3DLAYER
10
31.3147462913144
20
10.7270685400437
30
-5.85759999999992
 70
     32
  0
VERTEX
  8
MY3DLAYER
10
31.31645
20
10.7141275877886
30
-5.85759999999993
 70
     32
  0
VERTEX
  8
MY3DLAYER
10
31.3147462913144
20
10.7011866355335
30
-5.85759999999992
 70
     32
  0
VERTEX
  8
MY3DLAYER
10
31.3097512701892
20
10.6891275877886
30
-5.85759999999992
 70
     32
  0
VERTEX
  8
MY3DLAYER
10
31.3018053390593
20
10.6787722487293
30
-5.85759999999993
 70
     32
  0
VERTEX
  8
MY3DLAYER
10
31.29145
20
10.6708263175994
30
-5.85759999999992
 70
     32
  0
VERTEX
  8
MY3DLAYER
10
31.2793909522551
20
10.6658312964742
30
-5.85759999999992
 70
     32
  0
VERTEX
  8
MY3DLAYER
10
31.26645
20
10.6641275877886
30
-5.85759999999992
 70
     32
  0
VERTEX
  8
MY3DLAYER
10
31.26645
20
10.0780431959643
30
-5.85759999999992
 70
     32
  0
VERTEX
  8
MY3DLAYER
10
31.2793909522551
20
10.0763394872787
30
-5.85759999999992
 70
     32
  0
VERTEX
  8
MY3DLAYER
10
31.29145
20
10.0713444661535
30
-5.85759999999993
 70
     32
  0
VERTEX
  8
MY3DLAYER
10
31.3018053390593
20
10.0633985350236
30
-5.85759999999992
 70
     32
  0
VERTEX
  8
MY3DLAYER
10
31.3097512701892
20
10.0530431959643
30
-5.85759999999992
 70
     32
  0
VERTEX
  8
MY3DLAYER
10
31.3147462913144
20
10.0409841482194
30
-5.85759999999992
 70
     32
  0
VERTEX
  8
MY3DLAYER
10
31.31645
20
10.0280431959643
30
-5.85759999999993
 70
     32
  0
VERTEX
  8
MY3DLAYER
10
31.3147462913144
20
10.0151022437091
30
-5.85759999999992
 70
     32
  0
VERTEX
  8
MY3DLAYER
10
31.3097512701892
20
10.0030431959643
30
-5.85759999999992
 70
     32
  0
VERTEX
  8
MY3DLAYER
10
31.3018053390593
20
9.99268785690493
30
-5.85759999999992
 70
     32
  0
VERTEX
  8
MY3DLAYER
10
31.29145
20
9.98474192577504
30
-5.85759999999993
 70
     32
  0
VERTEX
  8
MY3DLAYER
10
31.2793909522551
20
9.97974690464981
30
-5.85759999999992
 70
     32
  0
VERTEX
  8
MY3DLAYER
10
31.26645
20
9.97804319596426
30
-5.85759999999993
 70
     32
  0
VERTEX
  8
MY3DLAYER
10
31.2535090477449
20
9.97974690464981
30
-5.85759999999992
 70
     32
  0
VERTEX
  8
MY3DLAYER
10
31.24145
20
9.98474192577504
30
-5.85759999999993
 70
     32
  0
VERTEX
  8
MY3DLAYER
10
31.2310946609407
20
9.99268785690493
30
-5.85759999999992
 70
     32
  0
VERTEX
  8
MY3DLAYER
10
31.2231487298108
20
10.0030431959643
30
-5.85759999999992
 70
     32
  0
VERTEX
  8
MY3DLAYER
10
30.7155847577293
20
9.71000100005208
30
-5.85759999999992
 70
     32
  0
VERTEX
  8
MY3DLAYER
10
30.7205797788546
20
9.69794195230721
30
-5.85759999999992
 70
     32
  0
VERTEX
  8
MY3DLAYER
10
30.7222834875401
20
9.68500100005208
30
-5.85759999999992
 70
     32
  0
VERTEX
  8
MY3DLAYER
10
30.7205797788546
20
9.67206004779695
30
-5.85759999999992
 70
     32
  0
VERTEX
  8
MY3DLAYER
10
30.7155847577293
20
9.66000100005208
30
-5.85759999999992
 70
     32
  0
VERTEX
  8
MY3DLAYER
10
30.7076388265994
20
9.64964566099276
30
-5.85759999999993
 70
     32
  0
VERTEX
  8
MY3DLAYER
10
30.6972834875401
20
9.64169972986286
30
-5.85759999999992
 70
     32
  0
VERTEX
  8
MY3DLAYER
10
30.6852244397952
20
9.63670470873763
30
-5.85759999999992
 70
     32
  0
VERTEX
  8
MY3DLAYER
10
30.6722834875401
20
9.63500100005208
30
-5.85759999999992
 70
     32
  0
VERTEX
  8
MY3DLAYER
10
30.659342535285
20
9.63670470873763
30
-5.85759999999993
 70
     32
  0
VERTEX
  8
MY3DLAYER
10
30.6472834875401
20
9.64169972986286
30
-5.85759999999992
 70
     32
  0
VERTEX
  8
MY3DLAYER
10
30.6369281484808
20
9.64964566099276
30
-5.85759999999992
 70
     32
  0
VERTEX
  8
MY3DLAYER
10
30.6289822173509
20
9.66000100005208
30
-5.85759999999992
 70
     32
  0
VERTEX
  8
MY3DLAYER
10
30.6239871962257
20
9.67206004779695
30
-5.85759999999992
 70
     32
  0
VERTEX
  8
MY3DLAYER
10
30.6222834875401
20
9.68500100005208
30
-5.85759999999992
 70
     32
  0
VERTEX
  8
MY3DLAYER
10
30.6239871962257
20
9.69794195230721
30
-5.85759999999992
 70
     32
  0
VERTEX
  8
MY3DLAYER
10
30.6289822173509
20
9.71000100005208
30
-5.85759999999992
 70
     32
  0
VERTEX
  8
MY3DLAYER
10
30.1214182452695
20
10.0030431959643
30
-5.85759999999992
 70
     32
  0
VERTEX
  8
MY3DLAYER
10
30.1134723141396
20
9.99268785690494
30
-5.85759999999992
 70
     32
  0
VERTEX
  8
MY3DLAYER
10
30.1031169750802
20
9.98474192577504
30
-5.85759999999992
 70
     32
  0
VERTEX
  8
MY3DLAYER
10
30.0910579273354
20
9.97974690464982
30
-5.85759999999992
 70
     32
  0
VERTEX
  8
MY3DLAYER
10
30.0781169750802
20
9.97804319596427
30
-5.85759999999993
 70
     32
  0
VERTEX
  8
MY3DLAYER
10
30.0651760228251
20
9.97974690464982
30
-5.85759999999993
 70
     32
  0
VERTEX
  8
MY3DLAYER
10
30.0531169750802
20
9.98474192577505
30
-5.85759999999993
 70
     32
  0
VERTEX
  8
MY3DLAYER
10
30.0427616360209
20
9.99268785690494
30
-5.85759999999992
 70
     32
  0
VERTEX
  8
MY3DLAYER
10
30.034815704891
20
10.0030431959643
30
-5.85759999999993
 70
     32
  0
VERTEX
  8
MY3DLAYER
10
30.0298206837658
20
10.0151022437091
30
-5.85759999999993
 70
     32
  0
VERTEX
  8
MY3DLAYER
10
30.0281169750802
20
10.0280431959643
30
-5.85759999999993
 70
     32
  0
VERTEX
  8
MY3DLAYER
10
30.0298206837658
20
10.0409841482194
30
-5.85759999999993
 70
     32
  0
VERTEX
  8
MY3DLAYER
10
30.034815704891
20
10.0530431959643
30
-5.85759999999993
 70
     32
  0
VERTEX
  8
MY3DLAYER
10
30.0427616360209
20
10.0633985350236
30
-5.85759999999993
 70
     32
  0
VERTEX
  8
MY3DLAYER
10
30.0531169750802
20
10.0713444661535
30
-5.85759999999993
 70
     32
  0
VERTEX
  8
MY3DLAYER
10
30.0651760228251
20
10.0763394872787
30
-5.85759999999993
 70
     32
  0
VERTEX
  8
MY3DLAYER
10
30.0781169750802
20
10.0780431959643
30
-5.85759999999993
 70
     32
  0
VERTEX
  8
MY3DLAYER
10
30.0781169750802
20
10.6641275877886
30
-5.85759999999992
 70
     32
  0
VERTEX
  8
MY3DLAYER
10
30.0651760228251
20
10.6658312964742
30
-5.85759999999993
 70
     32
  0
VERTEX
  8
MY3DLAYER
10
30.0531169750802
20
10.6708263175994
30
-5.85759999999992
 70
     32
  0
VERTEX
  8
MY3DLAYER
10
30.0427616360209
20
10.6787722487293
30
-5.85759999999993
 70
     32
  0
VERTEX
  8
MY3DLAYER
10
30.034815704891
20
10.6891275877886
30
-5.85759999999993
 70
     32
  0
VERTEX
  8
MY3DLAYER
10
30.0298206837658
20
10.7011866355335
30
-5.85759999999992
 70
     32
  0
VERTEX
  8
MY3DLAYER
10
30.0281169750802
20
10.7141275877886
30
-5.85759999999993
 70
     32
  0
VERTEX
  8
MY3DLAYER
10
30.0298206837658
20
10.7270685400437
30
-5.85759999999992
 70
     32
  0
VERTEX
  8
MY3DLAYER
10
30.034815704891
20
10.7391275877886
30
-5.85759999999993
 70
     32
  0
VERTEX
  8
MY3DLAYER
10
30.0427616360209
20
10.7494829268479
30
-5.85759999999993
 70
     32
  0
VERTEX
  8
MY3DLAYER
10
30.0531169750802
20
10.7574288579778
30
-5.85759999999993
 70
     32
  0
VERTEX
  8
MY3DLAYER
10
30.0651760228251
20
10.7624238791031
30
-5.85759999999993
 70
     32
  0
VERTEX
  8
MY3DLAYER
10
30.0781169750802
20
10.7641275877886
30
-5.85759999999993
 70
     32
  0
VERTEX
  8
MY3DLAYER
10
30.0910579273354
20
10.7624238791031
30
-5.85759999999993
 70
     32
  0
VERTEX
  8
MY3DLAYER
10
30.1031169750802
20
10.7574288579778
30
-5.85759999999992
 70
     32
  0
VERTEX
  8
MY3DLAYER
10
30.1134723141396
20
10.7494829268479
30
-5.85759999999993
 70
     32
  0
VERTEX
  8
MY3DLAYER
10
30.1214182452694
20
10.7391275877886
30
-5.85759999999992
 70
     32
  0
VERTEX
  8
MY3DLAYER
10
30.6289822173509
20
11.0321697837008
30
-5.85759999999992
 70
     32
  0
VERTEX
  8
MY3DLAYER
10
30.6239871962257
20
11.0442288314457
30
-5.85759999999992
 70
     32
  0
VERTEX
  8
MY3DLAYER
10
30.6222834875401
20
11.0571697837008
30
-5.85759999999992
 70
     32
  0
VERTEX
  8
MY3DLAYER
10
30.6239871962257
20
11.0701107359559
30
-5.85759999999992
 70
     32
  0
VERTEX
  8
MY3DLAYER
10
30.6289822173509
20
11.0821697837008
30
-5.85759999999992
 70
     32
  0
VERTEX
  8
MY3DLAYER
10
30.6369281484808
20
11.0925251227601
30
-5.85759999999992
 70
     32
  0
VERTEX
  8
MY3DLAYER
10
30.6472834875401
20
11.10047105389
30
-5.85759999999992
 70
     32
  0
VERTEX
  8
MY3DLAYER
10
30.659342535285
20
11.1054660750152
30
-5.85759999999993
 70
     32
  0
VERTEX
  8
MY3DLAYER
10
30.6722834875401
20
11.1071697837008
30
-5.85759999999992
 70
     32
  0
VERTEX
  8
MY3DLAYER
10
30.6852244397952
20
11.1054660750152
30
-5.85759999999992
 70
     32
  0
VERTEX
  8
MY3DLAYER
10
30.6972834875401
20
11.10047105389
30
-5.85759999999992
 70
     32
  0
VERTEX
  8
MY3DLAYER
10
30.7076388265994
20
11.0925251227601
30
-5.85759999999993
 70
     32
  0
VERTEX
  8
MY3DLAYER
10
30.7155847577293
20
11.0821697837008
30
-5.85759999999992
 70
     32
  0
VERTEX
  8
MY3DLAYER
10
30.7205797788546
20
11.0701107359559
30
-5.85759999999992
 70
     32
  0
VERTEX
  8
MY3DLAYER
10
30.7222834875401
20
11.0571697837008
30
-5.85759999999992
 70
     32
  0
VERTEX
  8
MY3DLAYER
10
30.7205797788546
20
11.0442288314457
30
-5.85759999999992
 70
     32
  0
VERTEX
  8
MY3DLAYER
10
30.7155847577293
20
11.0321697837008
30
-5.85759999999992
 70
     32
  0
VERTEX
  8
MY3DLAYER
10
31.2231487298108
20
10.7391275877886
30
-5.85759999999992
 70
     32
  0
VERTEX
  8
MY3DLAYER
10
31.2310946609407
20
10.7494829268479
30
-5.85759999999992
 70
     32
  0
VERTEX
  8
MY3DLAYER
10
31.24145
20
10.7574288579778
30
-5.85759999999993
 70
     32
  0
VERTEX
  8
MY3DLAYER
10
31.2535090477449
20
10.7624238791031
30
-5.85759999999992
 70
     32
  0
VERTEX
  8
MY3DLAYER
10
31.26645
20
10.7641275877886
30
-5.85759999999993
 70
     32
  0
VERTEX
  8
MY3DLAYER
10
31.2793909522551
20
10.7624238791031
30
-5.85759999999992
 70
     32
  0
VERTEX
  8
MY3DLAYER
10
31.29145
20
10.7574288579778
30
-5.85759999999993
 70
     32
  0
VERTEX
  8
MY3DLAYER
10
31.3018053390593
20
10.7494829268479
30
-5.85759999999992
 70
     32
  0
VERTEX
  8
MY3DLAYER
10
31.3097512701892
20
10.7391275877886
30
-5.85759999999992
 70
     32
  0
VERTEX
  8
MY3DLAYER
10
31.3147462913144
20
10.7270685400437
30
-5.85759999999992
 70
     32
  0
SEQEND
  0
POLYLINE
 8
Layer0
 66
     1
70
    8
 10
0.0
 20
 0.0
 30
0.0
  0
VERTEX
  8
MY3DLAYER
10
29.5030792913144
20
10.7270685400437
30
-5.85759999999992
 70
     32
  0
VERTEX
  8
MY3DLAYER
10
29.504783
20
10.7141275877886
30
-5.85759999999993
 70
     32
  0
VERTEX
  8
MY3DLAYER
10
29.5030792913144
20
10.7011866355335
30
-5.85759999999992
 70
     32
  0
VERTEX
  8
MY3DLAYER
10
29.4980842701892
20
10.6891275877886
30
-5.85759999999992
 70
     32
  0
VERTEX
  8
MY3DLAYER
10
29.4901383390593
20
10.6787722487293
30
-5.85759999999993
 70
     32
  0
VERTEX
  8
MY3DLAYER
10
29.479783
20
10.6708263175994
30
-5.85759999999992
 70
     32
  0
VERTEX
  8
MY3DLAYER
10
29.4677239522551
20
10.6658312964742
30
-5.85759999999992
 70
     32
  0
VERTEX
  8
MY3DLAYER
10
29.454783
20
10.6641275877886
30
-5.85759999999992
 70
     32
  0
VERTEX
  8
MY3DLAYER
10
29.454783
20
10.0780431959643
30
-5.85759999999992
 70
     32
  0
VERTEX
  8
MY3DLAYER
10
29.4677239522551
20
10.0763394872787
30
-5.85759999999992
 70
     32
  0
VERTEX
  8
MY3DLAYER
10
29.479783
20
10.0713444661535
30
-5.85759999999993
 70
     32
  0
VERTEX
  8
MY3DLAYER
10
29.4901383390593
20
10.0633985350236
30
-5.85759999999992
 70
     32
  0
VERTEX
  8
MY3DLAYER
10
29.4980842701892
20
10.0530431959643
30
-5.85759999999992
 70
     32
  0
VERTEX
  8
MY3DLAYER
10
29.5030792913144
20
10.0409841482194
30
-5.85759999999992
 70
     32
  0
VERTEX
  8
MY3DLAYER
10
29.504783
20
10.0280431959643
30
-5.85759999999993
 70
     32
  0
VERTEX
  8
MY3DLAYER
10
29.5030792913144
20
10.0151022437091
30
-5.85759999999992
 70
     32
  0
VERTEX
  8
MY3DLAYER
10
29.4980842701892
20
10.0030431959643
30
-5.85759999999992
 70
     32
  0
VERTEX
  8
MY3DLAYER
10
29.4901383390593
20
9.99268785690493
30
-5.85759999999992
 70
     32
  0
VERTEX
  8
MY3DLAYER
10
29.479783
20
9.98474192577504
30
-5.85759999999993
 70
     32
  0
VERTEX
  8
MY3DLAYER
10
29.4677239522551
20
9.97974690464981
30
-5.85759999999992
 70
     32
  0
VERTEX
  8
MY3DLAYER
10
29.454783
20
9.97804319596426
30
-5.85759999999993
 70
     32
  0
VERTEX
  8
MY3DLAYER
10
29.4418420477449
20
9.97974690464981
30
-5.85759999999992
 70
     32
  0
VERTEX
  8
MY3DLAYER
10
29.429783
20
9.98474192577504
30
-5.85759999999993
 70
     32
  0
VERTEX
  8
MY3DLAYER
10
29.4194276609407
20
9.99268785690493
30
-5.85759999999992
 70
     32
  0
VERTEX
  8
MY3DLAYER
10
29.4114817298108
20
10.0030431959643
30
-5.85759999999992
 70
     32
  0
VERTEX
  8
MY3DLAYER
10
28.9039177577293
20
9.71000100005208
30
-5.85759999999992
 70
     32
  0
VERTEX
  8
MY3DLAYER
10
28.9089127788546
20
9.69794195230721
30
-5.85759999999992
 70
     32
  0
VERTEX
  8
MY3DLAYER
10
28.9106164875401
20
9.68500100005208
30
-5.85759999999992
 70
     32
  0
VERTEX
  8
MY3DLAYER
10
28.9089127788546
20
9.67206004779695
30
-5.85759999999992
 70
     32
  0
VERTEX
  8
MY3DLAYER
10
28.9039177577293
20
9.66000100005208
30
-5.85759999999992
 70
     32
  0
VERTEX
  8
MY3DLAYER
10
28.8959718265994
20
9.64964566099276
30
-5.85759999999993
 70
     32
  0
VERTEX
  8
MY3DLAYER
10
28.8856164875401
20
9.64169972986286
30
-5.85759999999992
 70
     32
  0
VERTEX
  8
MY3DLAYER
10
28.8735574397952
20
9.63670470873763
30
-5.85759999999992
 70
     32
  0
VERTEX
  8
MY3DLAYER
10
28.8606164875401
20
9.63500100005208
30
-5.85759999999992
 70
     32
  0
VERTEX
  8
MY3DLAYER
10
28.847675535285
20
9.63670470873763
30
-5.85759999999993
 70
     32
  0
VERTEX
  8
MY3DLAYER
10
28.8356164875401
20
9.64169972986286
30
-5.85759999999992
 70
     32
  0
VERTEX
  8
MY3DLAYER
10
28.8252611484808
20
9.64964566099276
30
-5.85759999999992
 70
     32
  0
VERTEX
  8
MY3DLAYER
10
28.8173152173509
20
9.66000100005208
30
-5.85759999999992
 70
     32
  0
VERTEX
  8
MY3DLAYER
10
28.8123201962257
20
9.67206004779695
30
-5.85759999999992
 70
     32
  0
VERTEX
  8
MY3DLAYER
10
28.8106164875401
20
9.68500100005208
30
-5.85759999999992
 70
     32
  0
VERTEX
  8
MY3DLAYER
10
28.8123201962257
20
9.69794195230721
30
-5.85759999999992
 70
     32
  0
VERTEX
  8
MY3DLAYER
10
28.8173152173509
20
9.71000100005208
30
-5.85759999999992
 70
     32
  0
VERTEX
  8
MY3DLAYER
10
28.3097512452695
20
10.0030431959643
30
-5.85759999999992
 70
     32
  0
VERTEX
  8
MY3DLAYER
10
28.3018053141396
20
9.99268785690494
30
-5.85759999999992
 70
     32
  0
VERTEX
  8
MY3DLAYER
10
28.2914499750802
20
9.98474192577504
30
-5.85759999999992
 70
     32
  0
VERTEX
  8
MY3DLAYER
10
28.2793909273354
20
9.97974690464982
30
-5.85759999999992
 70
     32
  0
VERTEX
  8
MY3DLAYER
10
28.2664499750802
20
9.97804319596427
30
-5.85759999999993
 70
     32
  0
VERTEX
  8
MY3DLAYER
10
28.2535090228251
20
9.97974690464982
30
-5.85759999999993
 70
     32
  0
VERTEX
  8
MY3DLAYER
10
28.2414499750802
20
9.98474192577505
30
-5.85759999999993
 70
     32
  0
VERTEX
  8
MY3DLAYER
10
28.2310946360209
20
9.99268785690494
30
-5.85759999999992
 70
     32
  0
VERTEX
  8
MY3DLAYER
10
28.223148704891
20
10.0030431959643
30
-5.85759999999993
 70
     32
  0
VERTEX
  8
MY3DLAYER
10
28.2181536837658
20
10.0151022437091
30
-5.85759999999993
 70
     32
  0
VERTEX
  8
MY3DLAYER
10
28.2164499750802
20
10.0280431959643
30
-5.85759999999993
 70
     32
  0
VERTEX
  8
MY3DLAYER
10
28.2181536837658
20
10.0409841482194
30
-5.85759999999993
 70
     32
  0
VERTEX
  8
MY3DLAYER
10
28.223148704891
20
10.0530431959643
30
-5.85759999999993
 70
     32
  0
VERTEX
  8
MY3DLAYER
10
28.2310946360209
20
10.0633985350236
30
-5.85759999999993
 70
     32
  0
VERTEX
  8
MY3DLAYER
10
28.2414499750802
20
10.0713444661535
30
-5.85759999999993
 70
     32
  0
VERTEX
  8
MY3DLAYER
10
28.2535090228251
20
10.0763394872787
30
-5.85759999999993
 70
     32
  0
VERTEX
  8
MY3DLAYER
10
28.2664499750802
20
10.0780431959643
30
-5.85759999999993
 70
     32
  0
VERTEX
  8
MY3DLAYER
10
28.2664499750802
20
10.6641275877886
30
-5.85759999999992
 70
     32
  0
VERTEX
  8
MY3DLAYER
10
28.2535090228251
20
10.6658312964742
30
-5.85759999999993
 70
     32
  0
VERTEX
  8
MY3DLAYER
10
28.2414499750802
20
10.6708263175994
30
-5.85759999999992
 70
     32
  0
VERTEX
  8
MY3DLAYER
10
28.2310946360209
20
10.6787722487293
30
-5.85759999999993
 70
     32
  0
VERTEX
  8
MY3DLAYER
10
28.223148704891
20
10.6891275877886
30
-5.85759999999993
 70
     32
  0
VERTEX
  8
MY3DLAYER
10
28.2181536837658
20
10.7011866355335
30
-5.85759999999992
 70
     32
  0
VERTEX
  8
MY3DLAYER
10
28.2164499750802
20
10.7141275877886
30
-5.85759999999993
 70
     32
  0
VERTEX
  8
MY3DLAYER
10
28.2181536837658
20
10.7270685400437
30
-5.85759999999992
 70
     32
  0
VERTEX
  8
MY3DLAYER
10
28.223148704891
20
10.7391275877886
30
-5.85759999999993
 70
     32
  0
VERTEX
  8
MY3DLAYER
10
28.2310946360209
20
10.7494829268479
30
-5.85759999999993
 70
     32
  0
VERTEX
  8
MY3DLAYER
10
28.2414499750802
20
10.7574288579778
30
-5.85759999999993
 70
     32
  0
VERTEX
  8
MY3DLAYER
10
28.2535090228251
20
10.7624238791031
30
-5.85759999999993
 70
     32
  0
VERTEX
  8
MY3DLAYER
10
28.2664499750802
20
10.7641275877886
30
-5.85759999999993
 70
     32
  0
VERTEX
  8
MY3DLAYER
10
28.2793909273354
20
10.7624238791031
30
-5.85759999999993
 70
     32
  0
VERTEX
  8
MY3DLAYER
10
28.2914499750802
20
10.7574288579778
30
-5.85759999999992
 70
     32
  0
VERTEX
  8
MY3DLAYER
10
28.3018053141396
20
10.7494829268479
30
-5.85759999999993
 70
     32
  0
VERTEX
  8
MY3DLAYER
10
28.3097512452694
20
10.7391275877886
30
-5.85759999999992
 70
     32
  0
VERTEX
  8
MY3DLAYER
10
28.8173152173509
20
11.0321697837008
30
-5.85759999999992
 70
     32
  0
VERTEX
  8
MY3DLAYER
10
28.8123201962257
20
11.0442288314457
30
-5.85759999999992
 70
     32
  0
VERTEX
  8
MY3DLAYER
10
28.8106164875401
20
11.0571697837008
30
-5.85759999999992
 70
     32
  0
VERTEX
  8
MY3DLAYER
10
28.8123201962257
20
11.0701107359559
30
-5.85759999999992
 70
     32
  0
VERTEX
  8
MY3DLAYER
10
28.8173152173509
20
11.0821697837008
30
-5.85759999999992
 70
     32
  0
VERTEX
  8
MY3DLAYER
10
28.8252611484808
20
11.0925251227601
30
-5.85759999999992
 70
     32
  0
VERTEX
  8
MY3DLAYER
10
28.8356164875401
20
11.10047105389
30
-5.85759999999992
 70
     32
  0
VERTEX
  8
MY3DLAYER
10
28.847675535285
20
11.1054660750152
30
-5.85759999999993
 70
     32
  0
VERTEX
  8
MY3DLAYER
10
28.8606164875401
20
11.1071697837008
30
-5.85759999999992
 70
     32
  0
VERTEX
  8
MY3DLAYER
10
28.8735574397952
20
11.1054660750152
30
-5.85759999999992
 70
     32
  0
VERTEX
  8
MY3DLAYER
10
28.8856164875401
20
11.10047105389
30
-5.85759999999992
 70
     32
  0
VERTEX
  8
MY3DLAYER
10
28.8959718265994
20
11.0925251227601
30
-5.85759999999993
 70
     32
  0
VERTEX
  8
MY3DLAYER
10
28.9039177577293
20
11.0821697837008
30
-5.85759999999992
 70
     32
  0
VERTEX
  8
MY3DLAYER
10
28.9089127788546
20
11.0701107359559
30
-5.85759999999992
 70
     32
  0
VERTEX
  8
MY3DLAYER
10
28.9106164875401
20
11.0571697837008
30
-5.85759999999992
 70
     32
  0
VERTEX
  8
MY3DLAYER
10
28.9089127788546
20
11.0442288314457
30
-5.85759999999992
 70
     32
  0
VERTEX
  8
MY3DLAYER
10
28.9039177577293
20
11.0321697837008
30
-5.85759999999992
 70
     32
  0
VERTEX
  8
MY3DLAYER
10
29.4114817298108
20
10.7391275877886
30
-5.85759999999992
 70
     32
  0
VERTEX
  8
MY3DLAYER
10
29.4194276609407
20
10.7494829268479
30
-5.85759999999992
 70
     32
  0
VERTEX
  8
MY3DLAYER
10
29.429783
20
10.7574288579778
30
-5.85759999999993
 70
     32
  0
VERTEX
  8
MY3DLAYER
10
29.4418420477449
20
10.7624238791031
30
-5.85759999999992
 70
     32
  0
VERTEX
  8
MY3DLAYER
10
29.454783
20
10.7641275877886
30
-5.85759999999993
 70
     32
  0
VERTEX
  8
MY3DLAYER
10
29.4677239522551
20
10.7624238791031
30
-5.85759999999992
 70
     32
  0
VERTEX
  8
MY3DLAYER
10
29.479783
20
10.7574288579778
30
-5.85759999999993
 70
     32
  0
VERTEX
  8
MY3DLAYER
10
29.4901383390593
20
10.7494829268479
30
-5.85759999999992
 70
     32
  0
VERTEX
  8
MY3DLAYER
10
29.4980842701892
20
10.7391275877886
30
-5.85759999999992
 70
     32
  0
VERTEX
  8
MY3DLAYER
10
29.5030792913144
20
10.7270685400437
30
-5.85759999999992
 70
     32
  0
SEQEND
  0
POLYLINE
 8
Layer0
 66
     1
70
    8
 10
0.0
 20
 0.0
 30
0.0
  0
VERTEX
  8
MY3DLAYER
10
31.3147462913144
20
12.5387355400437
30
-5.85759999999992
 70
     32
  0
VERTEX
  8
MY3DLAYER
10
31.31645
20
12.5257945877886
30
-5.85759999999993
 70
     32
  0
VERTEX
  8
MY3DLAYER
10
31.3147462913144
20
12.5128536355335
30
-5.85759999999992
 70
     32
  0
VERTEX
  8
MY3DLAYER
10
31.3097512701892
20
12.5007945877886
30
-5.85759999999992
 70
     32
  0
VERTEX
  8
MY3DLAYER
10
31.3018053390593
20
12.4904392487293
30
-5.85759999999993
 70
     32
  0
VERTEX
  8
MY3DLAYER
10
31.29145
20
12.4824933175994
30
-5.85759999999992
 70
     32
  0
VERTEX
  8
MY3DLAYER
10
31.2793909522551
20
12.4774982964742
30
-5.85759999999992
 70
     32
  0
VERTEX
  8
MY3DLAYER
10
31.26645
20
12.4757945877886
30
-5.85759999999992
 70
     32
  0
VERTEX
  8
MY3DLAYER
10
31.26645
20
11.8897101959643
30
-5.85759999999992
 70
     32
  0
VERTEX
  8
MY3DLAYER
10
31.2793909522551
20
11.8880064872787
30
-5.85759999999992
 70
     32
  0
VERTEX
  8
MY3DLAYER
10
31.29145
20
11.8830114661535
30
-5.85759999999993
 70
     32
  0
VERTEX
  8
MY3DLAYER
10
31.3018053390593
20
11.8750655350236
30
-5.85759999999992
 70
     32
  0
VERTEX
  8
MY3DLAYER
10
31.3097512701892
20
11.8647101959643
30
-5.85759999999992
 70
     32
  0
VERTEX
  8
MY3DLAYER
10
31.3147462913144
20
11.8526511482194
30
-5.85759999999992
 70
     32
  0
VERTEX
  8
MY3DLAYER
10
31.31645
20
11.8397101959643
30
-5.85759999999993
 70
     32
  0
VERTEX
  8
MY3DLAYER
10
31.3147462913144
20
11.8267692437091
30
-5.85759999999992
 70
     32
  0
VERTEX
  8
MY3DLAYER
10
31.3097512701892
20
11.8147101959643
30
-5.85759999999992
 70
     32
  0
VERTEX
  8
MY3DLAYER
10
31.3018053390593
20
11.8043548569049
30
-5.85759999999992
 70
     32
  0
VERTEX
  8
MY3DLAYER
10
31.29145
20
11.796408925775
30
-5.85759999999993
 70
     32
  0
VERTEX
  8
MY3DLAYER
10
31.2793909522551
20
11.7914139046498
30
-5.85759999999992
 70
     32
  0
VERTEX
  8
MY3DLAYER
10
31.26645
20
11.7897101959643
30
-5.85759999999993
 70
     32
  0
VERTEX
  8
MY3DLAYER
10
31.2535090477449
20
11.7914139046498
30
-5.85759999999992
 70
     32
  0
VERTEX
  8
MY3DLAYER
10
31.24145
20
11.796408925775
30
-5.85759999999993
 70
     32
  0
VERTEX
  8
MY3DLAYER
10
31.2310946609407
20
11.8043548569049
30
-5.85759999999992
 70
     32
  0
VERTEX
  8
MY3DLAYER
10
31.2231487298108
20
11.8147101959643
30
-5.85759999999992
 70
     32
  0
VERTEX
  8
MY3DLAYER
10
30.7155847577293
20
11.5216680000521
30
-5.85759999999992
 70
     32
  0
VERTEX
  8
MY3DLAYER
10
30.7205797788546
20
11.5096089523072
30
-5.85759999999992
 70
     32
  0
VERTEX
  8
MY3DLAYER
10
30.7222834875401
20
11.4966680000521
30
-5.85759999999992
 70
     32
  0
VERTEX
  8
MY3DLAYER
10
30.7205797788546
20
11.483727047797
30
-5.85759999999992
 70
     32
  0
VERTEX
  8
MY3DLAYER
10
30.7155847577293
20
11.4716680000521
30
-5.85759999999992
 70
     32
  0
VERTEX
  8
MY3DLAYER
10
30.7076388265994
20
11.4613126609928
30
-5.85759999999993
 70
     32
  0
VERTEX
  8
MY3DLAYER
10
30.6972834875401
20
11.4533667298629
30
-5.85759999999992
 70
     32
  0
VERTEX
  8
MY3DLAYER
10
30.6852244397952
20
11.4483717087376
30
-5.85759999999992
 70
     32
  0
VERTEX
  8
MY3DLAYER
10
30.6722834875401
20
11.4466680000521
30
-5.85759999999992
 70
     32
  0
VERTEX
  8
MY3DLAYER
10
30.659342535285
20
11.4483717087376
30
-5.85759999999993
 70
     32
  0
VERTEX
  8
MY3DLAYER
10
30.6472834875401
20
11.4533667298629
30
-5.85759999999992
 70
     32
  0
VERTEX
  8
MY3DLAYER
10
30.6369281484808
20
11.4613126609928
30
-5.85759999999992
 70
     32
  0
VERTEX
  8
MY3DLAYER
10
30.6289822173509
20
11.4716680000521
30
-5.85759999999992
 70
     32
  0
VERTEX
  8
MY3DLAYER
10
30.6239871962257
20
11.483727047797
30
-5.85759999999992
 70
     32
  0
VERTEX
  8
MY3DLAYER
10
30.6222834875401
20
11.4966680000521
30
-5.85759999999992
 70
     32
  0
VERTEX
  8
MY3DLAYER
10
30.6239871962257
20
11.5096089523072
30
-5.85759999999992
 70
     32
  0
VERTEX
  8
MY3DLAYER
10
30.6289822173509
20
11.5216680000521
30
-5.85759999999992
 70
     32
  0
VERTEX
  8
MY3DLAYER
10
30.1214182452695
20
11.8147101959643
30
-5.85759999999992
 70
     32
  0
VERTEX
  8
MY3DLAYER
10
30.1134723141396
20
11.8043548569049
30
-5.85759999999992
 70
     32
  0
VERTEX
  8
MY3DLAYER
10
30.1031169750802
20
11.796408925775
30
-5.85759999999992
 70
     32
  0
VERTEX
  8
MY3DLAYER
10
30.0910579273354
20
11.7914139046498
30
-5.85759999999992
 70
     32
  0
VERTEX
  8
MY3DLAYER
10
30.0781169750802
20
11.7897101959643
30
-5.85759999999993
 70
     32
  0
VERTEX
  8
MY3DLAYER
10
30.0651760228251
20
11.7914139046498
30
-5.85759999999993
 70
     32
  0
VERTEX
  8
MY3DLAYER
10
30.0531169750802
20
11.7964089257751
30
-5.85759999999993
 70
     32
  0
VERTEX
  8
MY3DLAYER
10
30.0427616360209
20
11.8043548569049
30
-5.85759999999992
 70
     32
  0
VERTEX
  8
MY3DLAYER
10
30.034815704891
20
11.8147101959643
30
-5.85759999999993
 70
     32
  0
VERTEX
  8
MY3DLAYER
10
30.0298206837658
20
11.8267692437091
30
-5.85759999999993
 70
     32
  0
VERTEX
  8
MY3DLAYER
10
30.0281169750802
20
11.8397101959643
30
-5.85759999999993
 70
     32
  0
VERTEX
  8
MY3DLAYER
10
30.0298206837658
20
11.8526511482194
30
-5.85759999999993
 70
     32
  0
VERTEX
  8
MY3DLAYER
10
30.034815704891
20
11.8647101959643
30
-5.85759999999993
 70
     32
  0
VERTEX
  8
MY3DLAYER
10
30.0427616360209
20
11.8750655350236
30
-5.85759999999993
 70
     32
  0
VERTEX
  8
MY3DLAYER
10
30.0531169750802
20
11.8830114661535
30
-5.85759999999993
 70
     32
  0
VERTEX
  8
MY3DLAYER
10
30.0651760228251
20
11.8880064872787
30
-5.85759999999993
 70
     32
  0
VERTEX
  8
MY3DLAYER
10
30.0781169750802
20
11.8897101959643
30
-5.85759999999993
 70
     32
  0
VERTEX
  8
MY3DLAYER
10
30.0781169750802
20
12.4757945877886
30
-5.85759999999992
 70
     32
  0
VERTEX
  8
MY3DLAYER
10
30.0651760228251
20
12.4774982964742
30
-5.85759999999993
 70
     32
  0
VERTEX
  8
MY3DLAYER
10
30.0531169750802
20
12.4824933175994
30
-5.85759999999992
 70
     32
  0
VERTEX
  8
MY3DLAYER
10
30.0427616360209
20
12.4904392487293
30
-5.85759999999993
 70
     32
  0
VERTEX
  8
MY3DLAYER
10
30.034815704891
20
12.5007945877886
30
-5.85759999999993
 70
     32
  0
VERTEX
  8
MY3DLAYER
10
30.0298206837658
20
12.5128536355335
30
-5.85759999999992
 70
     32
  0
VERTEX
  8
MY3DLAYER
10
30.0281169750802
20
12.5257945877886
30
-5.85759999999993
 70
     32
  0
VERTEX
  8
MY3DLAYER
10
30.0298206837658
20
12.5387355400437
30
-5.85759999999992
 70
     32
  0
VERTEX
  8
MY3DLAYER
10
30.034815704891
20
12.5507945877886
30
-5.85759999999993
 70
     32
  0
VERTEX
  8
MY3DLAYER
10
30.0427616360209
20
12.5611499268479
30
-5.85759999999993
 70
     32
  0
VERTEX
  8
MY3DLAYER
10
30.0531169750802
20
12.5690958579778
30
-5.85759999999993
 70
     32
  0
VERTEX
  8
MY3DLAYER
10
30.0651760228251
20
12.5740908791031
30
-5.85759999999993
 70
     32
  0
VERTEX
  8
MY3DLAYER
10
30.0781169750802
20
12.5757945877886
30
-5.85759999999993
 70
     32
  0
VERTEX
  8
MY3DLAYER
10
30.0910579273354
20
12.5740908791031
30
-5.85759999999993
 70
     32
  0
VERTEX
  8
MY3DLAYER
10
30.1031169750802
20
12.5690958579778
30
-5.85759999999992
 70
     32
  0
VERTEX
  8
MY3DLAYER
10
30.1134723141396
20
12.5611499268479
30
-5.85759999999993
 70
     32
  0
VERTEX
  8
MY3DLAYER
10
30.1214182452694
20
12.5507945877886
30
-5.85759999999992
 70
     32
  0
VERTEX
  8
MY3DLAYER
10
30.6289822173509
20
12.8438367837008
30
-5.85759999999992
 70
     32
  0
VERTEX
  8
MY3DLAYER
10
30.6239871962257
20
12.8558958314457
30
-5.85759999999992
 70
     32
  0
VERTEX
  8
MY3DLAYER
10
30.6222834875401
20
12.8688367837008
30
-5.85759999999992
 70
     32
  0
VERTEX
  8
MY3DLAYER
10
30.6239871962257
20
12.8817777359559
30
-5.85759999999992
 70
     32
  0
VERTEX
  8
MY3DLAYER
10
30.6289822173509
20
12.8938367837008
30
-5.85759999999992
 70
     32
  0
VERTEX
  8
MY3DLAYER
10
30.6369281484808
20
12.9041921227601
30
-5.85759999999992
 70
     32
  0
VERTEX
  8
MY3DLAYER
10
30.6472834875401
20
12.91213805389
30
-5.85759999999992
 70
     32
  0
VERTEX
  8
MY3DLAYER
10
30.659342535285
20
12.9171330750152
30
-5.85759999999993
 70
     32
  0
VERTEX
  8
MY3DLAYER
10
30.6722834875401
20
12.9188367837008
30
-5.85759999999992
 70
     32
  0
VERTEX
  8
MY3DLAYER
10
30.6852244397952
20
12.9171330750152
30
-5.85759999999992
 70
     32
  0
VERTEX
  8
MY3DLAYER
10
30.6972834875401
20
12.91213805389
30
-5.85759999999992
 70
     32
  0
VERTEX
  8
MY3DLAYER
10
30.7076388265994
20
12.9041921227601
30
-5.85759999999993
 70
     32
  0
VERTEX
  8
MY3DLAYER
10
30.7155847577293
20
12.8938367837008
30
-5.85759999999992
 70
     32
  0
VERTEX
  8
MY3DLAYER
10
30.7205797788546
20
12.8817777359559
30
-5.85759999999992
 70
     32
  0
VERTEX
  8
MY3DLAYER
10
30.7222834875401
20
12.8688367837008
30
-5.85759999999992
 70
     32
  0
VERTEX
  8
MY3DLAYER
10
30.7205797788546
20
12.8558958314457
30
-5.85759999999992
 70
     32
  0
VERTEX
  8
MY3DLAYER
10
30.7155847577293
20
12.8438367837008
30
-5.85759999999992
 70
     32
  0
VERTEX
  8
MY3DLAYER
10
31.2231487298108
20
12.5507945877886
30
-5.85759999999992
 70
     32
  0
VERTEX
  8
MY3DLAYER
10
31.2310946609407
20
12.5611499268479
30
-5.85759999999992
 70
     32
  0
VERTEX
  8
MY3DLAYER
10
31.24145
20
12.5690958579778
30
-5.85759999999993
 70
     32
  0
VERTEX
  8
MY3DLAYER
10
31.2535090477449
20
12.5740908791031
30
-5.85759999999992
 70
     32
  0
VERTEX
  8
MY3DLAYER
10
31.26645
20
12.5757945877886
30
-5.85759999999993
 70
     32
  0
VERTEX
  8
MY3DLAYER
10
31.2793909522551
20
12.5740908791031
30
-5.85759999999992
 70
     32
  0
VERTEX
  8
MY3DLAYER
10
31.29145
20
12.5690958579778
30
-5.85759999999993
 70
     32
  0
VERTEX
  8
MY3DLAYER
10
31.3018053390593
20
12.5611499268479
30
-5.85759999999992
 70
     32
  0
VERTEX
  8
MY3DLAYER
10
31.3097512701892
20
12.5507945877886
30
-5.85759999999992
 70
     32
  0
VERTEX
  8
MY3DLAYER
10
31.3147462913144
20
12.5387355400437
30
-5.85759999999992
 70
     32
  0
SEQEND
  0
POLYLINE
 8
Layer0
 66
     1
70
    8
 10
0.0
 20
 0.0
 30
0.0
  0
VERTEX
  8
MY3DLAYER
10
29.5030792913144
20
12.5387355400437
30
-5.85759999999992
 70
     32
  0
VERTEX
  8
MY3DLAYER
10
29.504783
20
12.5257945877886
30
-5.85759999999993
 70
     32
  0
VERTEX
  8
MY3DLAYER
10
29.5030792913144
20
12.5128536355335
30
-5.85759999999992
 70
     32
  0
VERTEX
  8
MY3DLAYER
10
29.4980842701892
20
12.5007945877886
30
-5.85759999999992
 70
     32
  0
VERTEX
  8
MY3DLAYER
10
29.4901383390593
20
12.4904392487293
30
-5.85759999999993
 70
     32
  0
VERTEX
  8
MY3DLAYER
10
29.479783
20
12.4824933175994
30
-5.85759999999992
 70
     32
  0
VERTEX
  8
MY3DLAYER
10
29.4677239522551
20
12.4774982964742
30
-5.85759999999992
 70
     32
  0
VERTEX
  8
MY3DLAYER
10
29.454783
20
12.4757945877886
30
-5.85759999999992
 70
     32
  0
VERTEX
  8
MY3DLAYER
10
29.454783
20
11.8897101959643
30
-5.85759999999992
 70
     32
  0
VERTEX
  8
MY3DLAYER
10
29.4677239522551
20
11.8880064872787
30
-5.85759999999992
 70
     32
  0
VERTEX
  8
MY3DLAYER
10
29.479783
20
11.8830114661535
30
-5.85759999999993
 70
     32
  0
VERTEX
  8
MY3DLAYER
10
29.4901383390593
20
11.8750655350236
30
-5.85759999999992
 70
     32
  0
VERTEX
  8
MY3DLAYER
10
29.4980842701892
20
11.8647101959643
30
-5.85759999999992
 70
     32
  0
VERTEX
  8
MY3DLAYER
10
29.5030792913144
20
11.8526511482194
30
-5.85759999999992
 70
     32
  0
VERTEX
  8
MY3DLAYER
10
29.504783
20
11.8397101959643
30
-5.85759999999993
 70
     32
  0
VERTEX
  8
MY3DLAYER
10
29.5030792913144
20
11.8267692437091
30
-5.85759999999992
 70
     32
  0
VERTEX
  8
MY3DLAYER
10
29.4980842701892
20
11.8147101959643
30
-5.85759999999992
 70
     32
  0
VERTEX
  8
MY3DLAYER
10
29.4901383390593
20
11.8043548569049
30
-5.85759999999992
 70
     32
  0
VERTEX
  8
MY3DLAYER
10
29.479783
20
11.796408925775
30
-5.85759999999993
 70
     32
  0
VERTEX
  8
MY3DLAYER
10
29.4677239522551
20
11.7914139046498
30
-5.85759999999992
 70
     32
  0
VERTEX
  8
MY3DLAYER
10
29.454783
20
11.7897101959643
30
-5.85759999999993
 70
     32
  0
VERTEX
  8
MY3DLAYER
10
29.4418420477449
20
11.7914139046498
30
-5.85759999999992
 70
     32
  0
VERTEX
  8
MY3DLAYER
10
29.429783
20
11.796408925775
30
-5.85759999999993
 70
     32
  0
VERTEX
  8
MY3DLAYER
10
29.4194276609407
20
11.8043548569049
30
-5.85759999999992
 70
     32
  0
VERTEX
  8
MY3DLAYER
10
29.4114817298108
20
11.8147101959643
30
-5.85759999999992
 70
     32
  0
VERTEX
  8
MY3DLAYER
10
28.9039177577293
20
11.5216680000521
30
-5.85759999999992
 70
     32
  0
VERTEX
  8
MY3DLAYER
10
28.9089127788546
20
11.5096089523072
30
-5.85759999999992
 70
     32
  0
VERTEX
  8
MY3DLAYER
10
28.9106164875401
20
11.4966680000521
30
-5.85759999999992
 70
     32
  0
VERTEX
  8
MY3DLAYER
10
28.9089127788546
20
11.483727047797
30
-5.85759999999992
 70
     32
  0
VERTEX
  8
MY3DLAYER
10
28.9039177577293
20
11.4716680000521
30
-5.85759999999992
 70
     32
  0
VERTEX
  8
MY3DLAYER
10
28.8959718265994
20
11.4613126609928
30
-5.85759999999993
 70
     32
  0
VERTEX
  8
MY3DLAYER
10
28.8856164875401
20
11.4533667298629
30
-5.85759999999992
 70
     32
  0
VERTEX
  8
MY3DLAYER
10
28.8735574397952
20
11.4483717087376
30
-5.85759999999992
 70
     32
  0
VERTEX
  8
MY3DLAYER
10
28.8606164875401
20
11.4466680000521
30
-5.85759999999992
 70
     32
  0
VERTEX
  8
MY3DLAYER
10
28.847675535285
20
11.4483717087376
30
-5.85759999999993
 70
     32
  0
VERTEX
  8
MY3DLAYER
10
28.8356164875401
20
11.4533667298629
30
-5.85759999999992
 70
     32
  0
VERTEX
  8
MY3DLAYER
10
28.8252611484808
20
11.4613126609928
30
-5.85759999999992
 70
     32
  0
VERTEX
  8
MY3DLAYER
10
28.8173152173509
20
11.4716680000521
30
-5.85759999999992
 70
     32
  0
VERTEX
  8
MY3DLAYER
10
28.8123201962257
20
11.483727047797
30
-5.85759999999992
 70
     32
  0
VERTEX
  8
MY3DLAYER
10
28.8106164875401
20
11.4966680000521
30
-5.85759999999992
 70
     32
  0
VERTEX
  8
MY3DLAYER
10
28.8123201962257
20
11.5096089523072
30
-5.85759999999992
 70
     32
  0
VERTEX
  8
MY3DLAYER
10
28.8173152173509
20
11.5216680000521
30
-5.85759999999992
 70
     32
  0
VERTEX
  8
MY3DLAYER
10
28.3097512452695
20
11.8147101959643
30
-5.85759999999992
 70
     32
  0
VERTEX
  8
MY3DLAYER
10
28.3018053141396
20
11.8043548569049
30
-5.85759999999992
 70
     32
  0
VERTEX
  8
MY3DLAYER
10
28.2914499750802
20
11.796408925775
30
-5.85759999999992
 70
     32
  0
VERTEX
  8
MY3DLAYER
10
28.2793909273354
20
11.7914139046498
30
-5.85759999999992
 70
     32
  0
VERTEX
  8
MY3DLAYER
10
28.2664499750802
20
11.7897101959643
30
-5.85759999999993
 70
     32
  0
VERTEX
  8
MY3DLAYER
10
28.2535090228251
20
11.7914139046498
30
-5.85759999999993
 70
     32
  0
VERTEX
  8
MY3DLAYER
10
28.2414499750802
20
11.7964089257751
30
-5.85759999999993
 70
     32
  0
VERTEX
  8
MY3DLAYER
10
28.2310946360209
20
11.8043548569049
30
-5.85759999999992
 70
     32
  0
VERTEX
  8
MY3DLAYER
10
28.223148704891
20
11.8147101959643
30
-5.85759999999993
 70
     32
  0
VERTEX
  8
MY3DLAYER
10
28.2181536837658
20
11.8267692437091
30
-5.85759999999993
 70
     32
  0
VERTEX
  8
MY3DLAYER
10
28.2164499750802
20
11.8397101959643
30
-5.85759999999993
 70
     32
  0
VERTEX
  8
MY3DLAYER
10
28.2181536837658
20
11.8526511482194
30
-5.85759999999993
 70
     32
  0
VERTEX
  8
MY3DLAYER
10
28.223148704891
20
11.8647101959643
30
-5.85759999999993
 70
     32
  0
VERTEX
  8
MY3DLAYER
10
28.2310946360209
20
11.8750655350236
30
-5.85759999999993
 70
     32
  0
VERTEX
  8
MY3DLAYER
10
28.2414499750802
20
11.8830114661535
30
-5.85759999999993
 70
     32
  0
VERTEX
  8
MY3DLAYER
10
28.2535090228251
20
11.8880064872787
30
-5.85759999999993
 70
     32
  0
VERTEX
  8
MY3DLAYER
10
28.2664499750802
20
11.8897101959643
30
-5.85759999999993
 70
     32
  0
VERTEX
  8
MY3DLAYER
10
28.2664499750802
20
12.4757945877886
30
-5.85759999999992
 70
     32
  0
VERTEX
  8
MY3DLAYER
10
28.2535090228251
20
12.4774982964742
30
-5.85759999999993
 70
     32
  0
VERTEX
  8
MY3DLAYER
10
28.2414499750802
20
12.4824933175994
30
-5.85759999999992
 70
     32
  0
VERTEX
  8
MY3DLAYER
10
28.2310946360209
20
12.4904392487293
30
-5.85759999999993
 70
     32
  0
VERTEX
  8
MY3DLAYER
10
28.223148704891
20
12.5007945877886
30
-5.85759999999993
 70
     32
  0
VERTEX
  8
MY3DLAYER
10
28.2181536837658
20
12.5128536355335
30
-5.85759999999992
 70
     32
  0
VERTEX
  8
MY3DLAYER
10
28.2164499750802
20
12.5257945877886
30
-5.85759999999993
 70
     32
  0
VERTEX
  8
MY3DLAYER
10
28.2181536837658
20
12.5387355400437
30
-5.85759999999992
 70
     32
  0
VERTEX
  8
MY3DLAYER
10
28.223148704891
20
12.5507945877886
30
-5.85759999999993
 70
     32
  0
VERTEX
  8
MY3DLAYER
10
28.2310946360209
20
12.5611499268479
30
-5.85759999999993
 70
     32
  0
VERTEX
  8
MY3DLAYER
10
28.2414499750802
20
12.5690958579778
30
-5.85759999999993
 70
     32
  0
VERTEX
  8
MY3DLAYER
10
28.2535090228251
20
12.5740908791031
30
-5.85759999999993
 70
     32
  0
VERTEX
  8
MY3DLAYER
10
28.2664499750802
20
12.5757945877886
30
-5.85759999999993
 70
     32
  0
VERTEX
  8
MY3DLAYER
10
28.2793909273354
20
12.5740908791031
30
-5.85759999999993
 70
     32
  0
VERTEX
  8
MY3DLAYER
10
28.2914499750802
20
12.5690958579778
30
-5.85759999999992
 70
     32
  0
VERTEX
  8
MY3DLAYER
10
28.3018053141396
20
12.5611499268479
30
-5.85759999999993
 70
     32
  0
VERTEX
  8
MY3DLAYER
10
28.3097512452694
20
12.5507945877886
30
-5.85759999999992
 70
     32
  0
VERTEX
  8
MY3DLAYER
10
28.8173152173509
20
12.8438367837008
30
-5.85759999999992
 70
     32
  0
VERTEX
  8
MY3DLAYER
10
28.8123201962257
20
12.8558958314457
30
-5.85759999999992
 70
     32
  0
VERTEX
  8
MY3DLAYER
10
28.8106164875401
20
12.8688367837008
30
-5.85759999999992
 70
     32
  0
VERTEX
  8
MY3DLAYER
10
28.8123201962257
20
12.8817777359559
30
-5.85759999999992
 70
     32
  0
VERTEX
  8
MY3DLAYER
10
28.8173152173509
20
12.8938367837008
30
-5.85759999999992
 70
     32
  0
VERTEX
  8
MY3DLAYER
10
28.8252611484808
20
12.9041921227601
30
-5.85759999999992
 70
     32
  0
VERTEX
  8
MY3DLAYER
10
28.8356164875401
20
12.91213805389
30
-5.85759999999992
 70
     32
  0
VERTEX
  8
MY3DLAYER
10
28.847675535285
20
12.9171330750152
30
-5.85759999999993
 70
     32
  0
VERTEX
  8
MY3DLAYER
10
28.8606164875401
20
12.9188367837008
30
-5.85759999999992
 70
     32
  0
VERTEX
  8
MY3DLAYER
10
28.8735574397952
20
12.9171330750152
30
-5.85759999999992
 70
     32
  0
VERTEX
  8
MY3DLAYER
10
28.8856164875401
20
12.91213805389
30
-5.85759999999992
 70
     32
  0
VERTEX
  8
MY3DLAYER
10
28.8959718265994
20
12.9041921227601
30
-5.85759999999993
 70
     32
  0
VERTEX
  8
MY3DLAYER
10
28.9039177577293
20
12.8938367837008
30
-5.85759999999992
 70
     32
  0
VERTEX
  8
MY3DLAYER
10
28.9089127788546
20
12.8817777359559
30
-5.85759999999992
 70
     32
  0
VERTEX
  8
MY3DLAYER
10
28.9106164875401
20
12.8688367837008
30
-5.85759999999992
 70
     32
  0
VERTEX
  8
MY3DLAYER
10
28.9089127788546
20
12.8558958314457
30
-5.85759999999992
 70
     32
  0
VERTEX
  8
MY3DLAYER
10
28.9039177577293
20
12.8438367837008
30
-5.85759999999992
 70
     32
  0
VERTEX
  8
MY3DLAYER
10
29.4114817298108
20
12.5507945877886
30
-5.85759999999992
 70
     32
  0
VERTEX
  8
MY3DLAYER
10
29.4194276609407
20
12.5611499268479
30
-5.85759999999992
 70
     32
  0
VERTEX
  8
MY3DLAYER
10
29.429783
20
12.5690958579778
30
-5.85759999999993
 70
     32
  0
VERTEX
  8
MY3DLAYER
10
29.4418420477449
20
12.5740908791031
30
-5.85759999999992
 70
     32
  0
VERTEX
  8
MY3DLAYER
10
29.454783
20
12.5757945877886
30
-5.85759999999993
 70
     32
  0
VERTEX
  8
MY3DLAYER
10
29.4677239522551
20
12.5740908791031
30
-5.85759999999992
 70
     32
  0
VERTEX
  8
MY3DLAYER
10
29.479783
20
12.5690958579778
30
-5.85759999999993
 70
     32
  0
VERTEX
  8
MY3DLAYER
10
29.4901383390593
20
12.5611499268479
30
-5.85759999999992
 70
     32
  0
VERTEX
  8
MY3DLAYER
10
29.4980842701892
20
12.5507945877886
30
-5.85759999999992
 70
     32
  0
VERTEX
  8
MY3DLAYER
10
29.5030792913144
20
12.5387355400437
30
-5.85759999999992
 70
     32
  0
SEQEND
  0
POLYLINE
 8
Layer0
 66
     1
70
    8
 10
0.0
 20
 0.0
 30
0.0
  0
VERTEX
  8
MY3DLAYER
10
31.3147462913144
20
14.3504025400437
30
-5.85759999999992
 70
     32
  0
VERTEX
  8
MY3DLAYER
10
31.31645
20
14.3374615877886
30
-5.85759999999993
 70
     32
  0
VERTEX
  8
MY3DLAYER
10
31.3147462913144
20
14.3245206355335
30
-5.85759999999992
 70
     32
  0
VERTEX
  8
MY3DLAYER
10
31.3097512701892
20
14.3124615877886
30
-5.85759999999992
 70
     32
  0
VERTEX
  8
MY3DLAYER
10
31.3018053390593
20
14.3021062487293
30
-5.85759999999993
 70
     32
  0
VERTEX
  8
MY3DLAYER
10
31.29145
20
14.2941603175994
30
-5.85759999999992
 70
     32
  0
VERTEX
  8
MY3DLAYER
10
31.2793909522551
20
14.2891652964742
30
-5.85759999999992
 70
     32
  0
VERTEX
  8
MY3DLAYER
10
31.26645
20
14.2874615877886
30
-5.85759999999992
 70
     32
  0
VERTEX
  8
MY3DLAYER
10
31.26645
20
13.7013771959643
30
-5.85759999999992
 70
     32
  0
VERTEX
  8
MY3DLAYER
10
31.2793909522551
20
13.6996734872787
30
-5.85759999999992
 70
     32
  0
VERTEX
  8
MY3DLAYER
10
31.29145
20
13.6946784661535
30
-5.85759999999993
 70
     32
  0
VERTEX
  8
MY3DLAYER
10
31.3018053390593
20
13.6867325350236
30
-5.85759999999992
 70
     32
  0
VERTEX
  8
MY3DLAYER
10
31.3097512701892
20
13.6763771959643
30
-5.85759999999992
 70
     32
  0
VERTEX
  8
MY3DLAYER
10
31.3147462913144
20
13.6643181482194
30
-5.85759999999992
 70
     32
  0
VERTEX
  8
MY3DLAYER
10
31.31645
20
13.6513771959643
30
-5.85759999999993
 70
     32
  0
VERTEX
  8
MY3DLAYER
10
31.3147462913144
20
13.6384362437091
30
-5.85759999999992
 70
     32
  0
VERTEX
  8
MY3DLAYER
10
31.3097512701892
20
13.6263771959643
30
-5.85759999999992
 70
     32
  0
VERTEX
  8
MY3DLAYER
10
31.3018053390593
20
13.6160218569049
30
-5.85759999999992
 70
     32
  0
VERTEX
  8
MY3DLAYER
10
31.29145
20
13.608075925775
30
-5.85759999999993
 70
     32
  0
VERTEX
  8
MY3DLAYER
10
31.2793909522551
20
13.6030809046498
30
-5.85759999999992
 70
     32
  0
VERTEX
  8
MY3DLAYER
10
31.26645
20
13.6013771959643
30
-5.85759999999993
 70
     32
  0
VERTEX
  8
MY3DLAYER
10
31.2535090477449
20
13.6030809046498
30
-5.85759999999992
 70
     32
  0
VERTEX
  8
MY3DLAYER
10
31.24145
20
13.608075925775
30
-5.85759999999993
 70
     32
  0
VERTEX
  8
MY3DLAYER
10
31.2310946609407
20
13.6160218569049
30
-5.85759999999992
 70
     32
  0
VERTEX
  8
MY3DLAYER
10
31.2231487298108
20
13.6263771959643
30
-5.85759999999992
 70
     32
  0
VERTEX
  8
MY3DLAYER
10
30.7155847577293
20
13.3333350000521
30
-5.85759999999992
 70
     32
  0
VERTEX
  8
MY3DLAYER
10
30.7205797788546
20
13.3212759523072
30
-5.85759999999992
 70
     32
  0
VERTEX
  8
MY3DLAYER
10
30.7222834875401
20
13.3083350000521
30
-5.85759999999992
 70
     32
  0
VERTEX
  8
MY3DLAYER
10
30.7205797788546
20
13.295394047797
30
-5.85759999999992
 70
     32
  0
VERTEX
  8
MY3DLAYER
10
30.7155847577293
20
13.2833350000521
30
-5.85759999999992
 70
     32
  0
VERTEX
  8
MY3DLAYER
10
30.7076388265994
20
13.2729796609928
30
-5.85759999999993
 70
     32
  0
VERTEX
  8
MY3DLAYER
10
30.6972834875401
20
13.2650337298629
30
-5.85759999999992
 70
     32
  0
VERTEX
  8
MY3DLAYER
10
30.6852244397952
20
13.2600387087376
30
-5.85759999999992
 70
     32
  0
VERTEX
  8
MY3DLAYER
10
30.6722834875401
20
13.2583350000521
30
-5.85759999999992
 70
     32
  0
VERTEX
  8
MY3DLAYER
10
30.659342535285
20
13.2600387087376
30
-5.85759999999993
 70
     32
  0
VERTEX
  8
MY3DLAYER
10
30.6472834875401
20
13.2650337298629
30
-5.85759999999992
 70
     32
  0
VERTEX
  8
MY3DLAYER
10
30.6369281484808
20
13.2729796609928
30
-5.85759999999992
 70
     32
  0
VERTEX
  8
MY3DLAYER
10
30.6289822173509
20
13.2833350000521
30
-5.85759999999992
 70
     32
  0
VERTEX
  8
MY3DLAYER
10
30.6239871962257
20
13.295394047797
30
-5.85759999999992
 70
     32
  0
VERTEX
  8
MY3DLAYER
10
30.6222834875401
20
13.3083350000521
30
-5.85759999999992
 70
     32
  0
VERTEX
  8
MY3DLAYER
10
30.6239871962257
20
13.3212759523072
30
-5.85759999999992
 70
     32
  0
VERTEX
  8
MY3DLAYER
10
30.6289822173509
20
13.3333350000521
30
-5.85759999999992
 70
     32
  0
VERTEX
  8
MY3DLAYER
10
30.1214182452695
20
13.6263771959643
30
-5.85759999999992
 70
     32
  0
VERTEX
  8
MY3DLAYER
10
30.1134723141396
20
13.6160218569049
30
-5.85759999999992
 70
     32
  0
VERTEX
  8
MY3DLAYER
10
30.1031169750802
20
13.608075925775
30
-5.85759999999992
 70
     32
  0
VERTEX
  8
MY3DLAYER
10
30.0910579273354
20
13.6030809046498
30
-5.85759999999992
 70
     32
  0
VERTEX
  8
MY3DLAYER
10
30.0781169750802
20
13.6013771959643
30
-5.85759999999993
 70
     32
  0
VERTEX
  8
MY3DLAYER
10
30.0651760228251
20
13.6030809046498
30
-5.85759999999993
 70
     32
  0
VERTEX
  8
MY3DLAYER
10
30.0531169750802
20
13.6080759257751
30
-5.85759999999993
 70
     32
  0
VERTEX
  8
MY3DLAYER
10
30.0427616360209
20
13.6160218569049
30
-5.85759999999992
 70
     32
  0
VERTEX
  8
MY3DLAYER
10
30.034815704891
20
13.6263771959643
30
-5.85759999999993
 70
     32
  0
VERTEX
  8
MY3DLAYER
10
30.0298206837658
20
13.6384362437091
30
-5.85759999999993
 70
     32
  0
VERTEX
  8
MY3DLAYER
10
30.0281169750802
20
13.6513771959643
30
-5.85759999999993
 70
     32
  0
VERTEX
  8
MY3DLAYER
10
30.0298206837658
20
13.6643181482194
30
-5.85759999999993
 70
     32
  0
VERTEX
  8
MY3DLAYER
10
30.034815704891
20
13.6763771959643
30
-5.85759999999993
 70
     32
  0
VERTEX
  8
MY3DLAYER
10
30.0427616360209
20
13.6867325350236
30
-5.85759999999993
 70
     32
  0
VERTEX
  8
MY3DLAYER
10
30.0531169750802
20
13.6946784661535
30
-5.85759999999993
 70
     32
  0
VERTEX
  8
MY3DLAYER
10
30.0651760228251
20
13.6996734872787
30
-5.85759999999993
 70
     32
  0
VERTEX
  8
MY3DLAYER
10
30.0781169750802
20
13.7013771959643
30
-5.85759999999993
 70
     32
  0
VERTEX
  8
MY3DLAYER
10
30.0781169750802
20
14.2874615877886
30
-5.85759999999992
 70
     32
  0
VERTEX
  8
MY3DLAYER
10
30.0651760228251
20
14.2891652964742
30
-5.85759999999993
 70
     32
  0
VERTEX
  8
MY3DLAYER
10
30.0531169750802
20
14.2941603175994
30
-5.85759999999992
 70
     32
  0
VERTEX
  8
MY3DLAYER
10
30.0427616360209
20
14.3021062487293
30
-5.85759999999993
 70
     32
  0
VERTEX
  8
MY3DLAYER
10
30.034815704891
20
14.3124615877886
30
-5.85759999999993
 70
     32
  0
VERTEX
  8
MY3DLAYER
10
30.0298206837658
20
14.3245206355335
30
-5.85759999999992
 70
     32
  0
VERTEX
  8
MY3DLAYER
10
30.0281169750802
20
14.3374615877886
30
-5.85759999999993
 70
     32
  0
VERTEX
  8
MY3DLAYER
10
30.0298206837658
20
14.3504025400437
30
-5.85759999999992
 70
     32
  0
VERTEX
  8
MY3DLAYER
10
30.034815704891
20
14.3624615877886
30
-5.85759999999993
 70
     32
  0
VERTEX
  8
MY3DLAYER
10
30.0427616360209
20
14.3728169268479
30
-5.85759999999993
 70
     32
  0
VERTEX
  8
MY3DLAYER
10
30.0531169750802
20
14.3807628579778
30
-5.85759999999993
 70
     32
  0
VERTEX
  8
MY3DLAYER
10
30.0651760228251
20
14.3857578791031
30
-5.85759999999993
 70
     32
  0
VERTEX
  8
MY3DLAYER
10
30.0781169750802
20
14.3874615877886
30
-5.85759999999993
 70
     32
  0
VERTEX
  8
MY3DLAYER
10
30.0910579273354
20
14.3857578791031
30
-5.85759999999993
 70
     32
  0
VERTEX
  8
MY3DLAYER
10
30.1031169750802
20
14.3807628579778
30
-5.85759999999992
 70
     32
  0
VERTEX
  8
MY3DLAYER
10
30.1134723141396
20
14.3728169268479
30
-5.85759999999993
 70
     32
  0
VERTEX
  8
MY3DLAYER
10
30.1214182452694
20
14.3624615877886
30
-5.85759999999992
 70
     32
  0
VERTEX
  8
MY3DLAYER
10
30.6289822173509
20
14.6555037837008
30
-5.85759999999992
 70
     32
  0
VERTEX
  8
MY3DLAYER
10
30.6239871962257
20
14.6675628314457
30
-5.85759999999992
 70
     32
  0
VERTEX
  8
MY3DLAYER
10
30.6222834875401
20
14.6805037837008
30
-5.85759999999992
 70
     32
  0
VERTEX
  8
MY3DLAYER
10
30.6239871962257
20
14.6934447359559
30
-5.85759999999992
 70
     32
  0
VERTEX
  8
MY3DLAYER
10
30.6289822173509
20
14.7055037837008
30
-5.85759999999992
 70
     32
  0
VERTEX
  8
MY3DLAYER
10
30.6369281484808
20
14.7158591227601
30
-5.85759999999992
 70
     32
  0
VERTEX
  8
MY3DLAYER
10
30.6472834875401
20
14.72380505389
30
-5.85759999999992
 70
     32
  0
VERTEX
  8
MY3DLAYER
10
30.659342535285
20
14.7288000750152
30
-5.85759999999993
 70
     32
  0
VERTEX
  8
MY3DLAYER
10
30.6722834875401
20
14.7305037837008
30
-5.85759999999992
 70
     32
  0
VERTEX
  8
MY3DLAYER
10
30.6852244397952
20
14.7288000750152
30
-5.85759999999992
 70
     32
  0
VERTEX
  8
MY3DLAYER
10
30.6972834875401
20
14.72380505389
30
-5.85759999999992
 70
     32
  0
VERTEX
  8
MY3DLAYER
10
30.7076388265994
20
14.7158591227601
30
-5.85759999999993
 70
     32
  0
VERTEX
  8
MY3DLAYER
10
30.7155847577293
20
14.7055037837008
30
-5.85759999999992
 70
     32
  0
VERTEX
  8
MY3DLAYER
10
30.7205797788546
20
14.6934447359559
30
-5.85759999999992
 70
     32
  0
VERTEX
  8
MY3DLAYER
10
30.7222834875401
20
14.6805037837008
30
-5.85759999999992
 70
     32
  0
VERTEX
  8
MY3DLAYER
10
30.7205797788546
20
14.6675628314457
30
-5.85759999999992
 70
     32
  0
VERTEX
  8
MY3DLAYER
10
30.7155847577293
20
14.6555037837008
30
-5.85759999999992
 70
     32
  0
VERTEX
  8
MY3DLAYER
10
31.2231487298108
20
14.3624615877886
30
-5.85759999999992
 70
     32
  0
VERTEX
  8
MY3DLAYER
10
31.2310946609407
20
14.3728169268479
30
-5.85759999999992
 70
     32
  0
VERTEX
  8
MY3DLAYER
10
31.24145
20
14.3807628579778
30
-5.85759999999993
 70
     32
  0
VERTEX
  8
MY3DLAYER
10
31.2535090477449
20
14.3857578791031
30
-5.85759999999992
 70
     32
  0
VERTEX
  8
MY3DLAYER
10
31.26645
20
14.3874615877886
30
-5.85759999999993
 70
     32
  0
VERTEX
  8
MY3DLAYER
10
31.2793909522551
20
14.3857578791031
30
-5.85759999999992
 70
     32
  0
VERTEX
  8
MY3DLAYER
10
31.29145
20
14.3807628579778
30
-5.85759999999993
 70
     32
  0
VERTEX
  8
MY3DLAYER
10
31.3018053390593
20
14.3728169268479
30
-5.85759999999992
 70
     32
  0
VERTEX
  8
MY3DLAYER
10
31.3097512701892
20
14.3624615877886
30
-5.85759999999992
 70
     32
  0
VERTEX
  8
MY3DLAYER
10
31.3147462913144
20
14.3504025400437
30
-5.85759999999992
 70
     32
  0
SEQEND
  0
POLYLINE
 8
Layer0
 66
     1
70
    8
 10
0.0
 20
 0.0
 30
0.0
  0
VERTEX
  8
MY3DLAYER
10
29.5030792913144
20
14.3504025400437
30
-5.85759999999992
 70
     32
  0
VERTEX
  8
MY3DLAYER
10
29.504783
20
14.3374615877886
30
-5.85759999999993
 70
     32
  0
VERTEX
  8
MY3DLAYER
10
29.5030792913144
20
14.3245206355335
30
-5.85759999999992
 70
     32
  0
VERTEX
  8
MY3DLAYER
10
29.4980842701892
20
14.3124615877886
30
-5.85759999999992
 70
     32
  0
VERTEX
  8
MY3DLAYER
10
29.4901383390593
20
14.3021062487293
30
-5.85759999999993
 70
     32
  0
VERTEX
  8
MY3DLAYER
10
29.479783
20
14.2941603175994
30
-5.85759999999992
 70
     32
  0
VERTEX
  8
MY3DLAYER
10
29.4677239522551
20
14.2891652964742
30
-5.85759999999992
 70
     32
  0
VERTEX
  8
MY3DLAYER
10
29.454783
20
14.2874615877886
30
-5.85759999999992
 70
     32
  0
VERTEX
  8
MY3DLAYER
10
29.454783
20
13.7013771959643
30
-5.85759999999992
 70
     32
  0
VERTEX
  8
MY3DLAYER
10
29.4677239522551
20
13.6996734872787
30
-5.85759999999992
 70
     32
  0
VERTEX
  8
MY3DLAYER
10
29.479783
20
13.6946784661535
30
-5.85759999999993
 70
     32
  0
VERTEX
  8
MY3DLAYER
10
29.4901383390593
20
13.6867325350236
30
-5.85759999999992
 70
     32
  0
VERTEX
  8
MY3DLAYER
10
29.4980842701892
20
13.6763771959643
30
-5.85759999999992
 70
     32
  0
VERTEX
  8
MY3DLAYER
10
29.5030792913144
20
13.6643181482194
30
-5.85759999999992
 70
     32
  0
VERTEX
  8
MY3DLAYER
10
29.504783
20
13.6513771959643
30
-5.85759999999993
 70
     32
  0
VERTEX
  8
MY3DLAYER
10
29.5030792913144
20
13.6384362437091
30
-5.85759999999992
 70
     32
  0
VERTEX
  8
MY3DLAYER
10
29.4980842701892
20
13.6263771959643
30
-5.85759999999992
 70
     32
  0
VERTEX
  8
MY3DLAYER
10
29.4901383390593
20
13.6160218569049
30
-5.85759999999992
 70
     32
  0
VERTEX
  8
MY3DLAYER
10
29.479783
20
13.608075925775
30
-5.85759999999993
 70
     32
  0
VERTEX
  8
MY3DLAYER
10
29.4677239522551
20
13.6030809046498
30
-5.85759999999992
 70
     32
  0
VERTEX
  8
MY3DLAYER
10
29.454783
20
13.6013771959643
30
-5.85759999999993
 70
     32
  0
VERTEX
  8
MY3DLAYER
10
29.4418420477449
20
13.6030809046498
30
-5.85759999999992
 70
     32
  0
VERTEX
  8
MY3DLAYER
10
29.429783
20
13.608075925775
30
-5.85759999999993
 70
     32
  0
VERTEX
  8
MY3DLAYER
10
29.4194276609407
20
13.6160218569049
30
-5.85759999999992
 70
     32
  0
VERTEX
  8
MY3DLAYER
10
29.4114817298108
20
13.6263771959643
30
-5.85759999999992
 70
     32
  0
VERTEX
  8
MY3DLAYER
10
28.9039177577293
20
13.3333350000521
30
-5.85759999999992
 70
     32
  0
VERTEX
  8
MY3DLAYER
10
28.9089127788546
20
13.3212759523072
30
-5.85759999999992
 70
     32
  0
VERTEX
  8
MY3DLAYER
10
28.9106164875401
20
13.3083350000521
30
-5.85759999999992
 70
     32
  0
VERTEX
  8
MY3DLAYER
10
28.9089127788546
20
13.295394047797
30
-5.85759999999992
 70
     32
  0
VERTEX
  8
MY3DLAYER
10
28.9039177577293
20
13.2833350000521
30
-5.85759999999992
 70
     32
  0
VERTEX
  8
MY3DLAYER
10
28.8959718265994
20
13.2729796609928
30
-5.85759999999993
 70
     32
  0
VERTEX
  8
MY3DLAYER
10
28.8856164875401
20
13.2650337298629
30
-5.85759999999992
 70
     32
  0
VERTEX
  8
MY3DLAYER
10
28.8735574397952
20
13.2600387087376
30
-5.85759999999992
 70
     32
  0
VERTEX
  8
MY3DLAYER
10
28.8606164875401
20
13.2583350000521
30
-5.85759999999992
 70
     32
  0
VERTEX
  8
MY3DLAYER
10
28.847675535285
20
13.2600387087376
30
-5.85759999999993
 70
     32
  0
VERTEX
  8
MY3DLAYER
10
28.8356164875401
20
13.2650337298629
30
-5.85759999999992
 70
     32
  0
VERTEX
  8
MY3DLAYER
10
28.8252611484808
20
13.2729796609928
30
-5.85759999999992
 70
     32
  0
VERTEX
  8
MY3DLAYER
10
28.8173152173509
20
13.2833350000521
30
-5.85759999999992
 70
     32
  0
VERTEX
  8
MY3DLAYER
10
28.8123201962257
20
13.295394047797
30
-5.85759999999992
 70
     32
  0
VERTEX
  8
MY3DLAYER
10
28.8106164875401
20
13.3083350000521
30
-5.85759999999992
 70
     32
  0
VERTEX
  8
MY3DLAYER
10
28.8123201962257
20
13.3212759523072
30
-5.85759999999992
 70
     32
  0
VERTEX
  8
MY3DLAYER
10
28.8173152173509
20
13.3333350000521
30
-5.85759999999992
 70
     32
  0
VERTEX
  8
MY3DLAYER
10
28.3097512452695
20
13.6263771959643
30
-5.85759999999992
 70
     32
  0
VERTEX
  8
MY3DLAYER
10
28.3018053141396
20
13.6160218569049
30
-5.85759999999992
 70
     32
  0
VERTEX
  8
MY3DLAYER
10
28.2914499750802
20
13.608075925775
30
-5.85759999999992
 70
     32
  0
VERTEX
  8
MY3DLAYER
10
28.2793909273354
20
13.6030809046498
30
-5.85759999999992
 70
     32
  0
VERTEX
  8
MY3DLAYER
10
28.2664499750802
20
13.6013771959643
30
-5.85759999999993
 70
     32
  0
VERTEX
  8
MY3DLAYER
10
28.2535090228251
20
13.6030809046498
30
-5.85759999999993
 70
     32
  0
VERTEX
  8
MY3DLAYER
10
28.2414499750802
20
13.6080759257751
30
-5.85759999999993
 70
     32
  0
VERTEX
  8
MY3DLAYER
10
28.2310946360209
20
13.6160218569049
30
-5.85759999999992
 70
     32
  0
VERTEX
  8
MY3DLAYER
10
28.223148704891
20
13.6263771959643
30
-5.85759999999993
 70
     32
  0
VERTEX
  8
MY3DLAYER
10
28.2181536837658
20
13.6384362437091
30
-5.85759999999993
 70
     32
  0
VERTEX
  8
MY3DLAYER
10
28.2164499750802
20
13.6513771959643
30
-5.85759999999993
 70
     32
  0
VERTEX
  8
MY3DLAYER
10
28.2181536837658
20
13.6643181482194
30
-5.85759999999993
 70
     32
  0
VERTEX
  8
MY3DLAYER
10
28.223148704891
20
13.6763771959643
30
-5.85759999999993
 70
     32
  0
VERTEX
  8
MY3DLAYER
10
28.2310946360209
20
13.6867325350236
30
-5.85759999999993
 70
     32
  0
VERTEX
  8
MY3DLAYER
10
28.2414499750802
20
13.6946784661535
30
-5.85759999999993
 70
     32
  0
VERTEX
  8
MY3DLAYER
10
28.2535090228251
20
13.6996734872787
30
-5.85759999999993
 70
     32
  0
VERTEX
  8
MY3DLAYER
10
28.2664499750802
20
13.7013771959643
30
-5.85759999999993
 70
     32
  0
VERTEX
  8
MY3DLAYER
10
28.2664499750802
20
14.2874615877886
30
-5.85759999999992
 70
     32
  0
VERTEX
  8
MY3DLAYER
10
28.2535090228251
20
14.2891652964742
30
-5.85759999999993
 70
     32
  0
VERTEX
  8
MY3DLAYER
10
28.2414499750802
20
14.2941603175994
30
-5.85759999999992
 70
     32
  0
VERTEX
  8
MY3DLAYER
10
28.2310946360209
20
14.3021062487293
30
-5.85759999999993
 70
     32
  0
VERTEX
  8
MY3DLAYER
10
28.223148704891
20
14.3124615877886
30
-5.85759999999993
 70
     32
  0
VERTEX
  8
MY3DLAYER
10
28.2181536837658
20
14.3245206355335
30
-5.85759999999992
 70
     32
  0
VERTEX
  8
MY3DLAYER
10
28.2164499750802
20
14.3374615877886
30
-5.85759999999993
 70
     32
  0
VERTEX
  8
MY3DLAYER
10
28.2181536837658
20
14.3504025400437
30
-5.85759999999992
 70
     32
  0
VERTEX
  8
MY3DLAYER
10
28.223148704891
20
14.3624615877886
30
-5.85759999999993
 70
     32
  0
VERTEX
  8
MY3DLAYER
10
28.2310946360209
20
14.3728169268479
30
-5.85759999999993
 70
     32
  0
VERTEX
  8
MY3DLAYER
10
28.2414499750802
20
14.3807628579778
30
-5.85759999999993
 70
     32
  0
VERTEX
  8
MY3DLAYER
10
28.2535090228251
20
14.3857578791031
30
-5.85759999999993
 70
     32
  0
VERTEX
  8
MY3DLAYER
10
28.2664499750802
20
14.3874615877886
30
-5.85759999999993
 70
     32
  0
VERTEX
  8
MY3DLAYER
10
28.2793909273354
20
14.3857578791031
30
-5.85759999999993
 70
     32
  0
VERTEX
  8
MY3DLAYER
10
28.2914499750802
20
14.3807628579778
30
-5.85759999999992
 70
     32
  0
VERTEX
  8
MY3DLAYER
10
28.3018053141396
20
14.3728169268479
30
-5.85759999999993
 70
     32
  0
VERTEX
  8
MY3DLAYER
10
28.3097512452694
20
14.3624615877886
30
-5.85759999999992
 70
     32
  0
VERTEX
  8
MY3DLAYER
10
28.8173152173509
20
14.6555037837008
30
-5.85759999999992
 70
     32
  0
VERTEX
  8
MY3DLAYER
10
28.8123201962257
20
14.6675628314457
30
-5.85759999999992
 70
     32
  0
VERTEX
  8
MY3DLAYER
10
28.8106164875401
20
14.6805037837008
30
-5.85759999999992
 70
     32
  0
VERTEX
  8
MY3DLAYER
10
28.8123201962257
20
14.6934447359559
30
-5.85759999999992
 70
     32
  0
VERTEX
  8
MY3DLAYER
10
28.8173152173509
20
14.7055037837008
30
-5.85759999999992
 70
     32
  0
VERTEX
  8
MY3DLAYER
10
28.8252611484808
20
14.7158591227601
30
-5.85759999999992
 70
     32
  0
VERTEX
  8
MY3DLAYER
10
28.8356164875401
20
14.72380505389
30
-5.85759999999992
 70
     32
  0
VERTEX
  8
MY3DLAYER
10
28.847675535285
20
14.7288000750152
30
-5.85759999999993
 70
     32
  0
VERTEX
  8
MY3DLAYER
10
28.8606164875401
20
14.7305037837008
30
-5.85759999999992
 70
     32
  0
VERTEX
  8
MY3DLAYER
10
28.8735574397952
20
14.7288000750152
30
-5.85759999999992
 70
     32
  0
VERTEX
  8
MY3DLAYER
10
28.8856164875401
20
14.72380505389
30
-5.85759999999992
 70
     32
  0
VERTEX
  8
MY3DLAYER
10
28.8959718265994
20
14.7158591227601
30
-5.85759999999993
 70
     32
  0
VERTEX
  8
MY3DLAYER
10
28.9039177577293
20
14.7055037837008
30
-5.85759999999992
 70
     32
  0
VERTEX
  8
MY3DLAYER
10
28.9089127788546
20
14.6934447359559
30
-5.85759999999992
 70
     32
  0
VERTEX
  8
MY3DLAYER
10
28.9106164875401
20
14.6805037837008
30
-5.85759999999992
 70
     32
  0
VERTEX
  8
MY3DLAYER
10
28.9089127788546
20
14.6675628314457
30
-5.85759999999992
 70
     32
  0
VERTEX
  8
MY3DLAYER
10
28.9039177577293
20
14.6555037837008
30
-5.85759999999992
 70
     32
  0
VERTEX
  8
MY3DLAYER
10
29.4114817298108
20
14.3624615877886
30
-5.85759999999992
 70
     32
  0
VERTEX
  8
MY3DLAYER
10
29.4194276609407
20
14.3728169268479
30
-5.85759999999992
 70
     32
  0
VERTEX
  8
MY3DLAYER
10
29.429783
20
14.3807628579778
30
-5.85759999999993
 70
     32
  0
VERTEX
  8
MY3DLAYER
10
29.4418420477449
20
14.3857578791031
30
-5.85759999999992
 70
     32
  0
VERTEX
  8
MY3DLAYER
10
29.454783
20
14.3874615877886
30
-5.85759999999993
 70
     32
  0
VERTEX
  8
MY3DLAYER
10
29.4677239522551
20
14.3857578791031
30
-5.85759999999992
 70
     32
  0
VERTEX
  8
MY3DLAYER
10
29.479783
20
14.3807628579778
30
-5.85759999999993
 70
     32
  0
VERTEX
  8
MY3DLAYER
10
29.4901383390593
20
14.3728169268479
30
-5.85759999999992
 70
     32
  0
VERTEX
  8
MY3DLAYER
10
29.4980842701892
20
14.3624615877886
30
-5.85759999999992
 70
     32
  0
VERTEX
  8
MY3DLAYER
10
29.5030792913144
20
14.3504025400437
30
-5.85759999999992
 70
     32
  0
SEQEND
  0
POLYLINE
 8
Layer0
 66
     1
70
    8
 10
0.0
 20
 0.0
 30
0.0
  0
VERTEX
  8
MY3DLAYER
10
31.3147462913144
20
16.1620695400437
30
-5.85759999999992
 70
     32
  0
VERTEX
  8
MY3DLAYER
10
31.31645
20
16.1491285877886
30
-5.85759999999993
 70
     32
  0
VERTEX
  8
MY3DLAYER
10
31.3147462913144
20
16.1361876355335
30
-5.85759999999992
 70
     32
  0
VERTEX
  8
MY3DLAYER
10
31.3097512701892
20
16.1241285877886
30
-5.85759999999992
 70
     32
  0
VERTEX
  8
MY3DLAYER
10
31.3018053390593
20
16.1137732487293
30
-5.85759999999993
 70
     32
  0
VERTEX
  8
MY3DLAYER
10
31.29145
20
16.1058273175994
30
-5.85759999999992
 70
     32
  0
VERTEX
  8
MY3DLAYER
10
31.2793909522551
20
16.1008322964742
30
-5.85759999999992
 70
     32
  0
VERTEX
  8
MY3DLAYER
10
31.26645
20
16.0991285877886
30
-5.85759999999992
 70
     32
  0
VERTEX
  8
MY3DLAYER
10
31.26645
20
15.5130441959643
30
-5.85759999999992
 70
     32
  0
VERTEX
  8
MY3DLAYER
10
31.2793909522551
20
15.5113404872787
30
-5.85759999999992
 70
     32
  0
VERTEX
  8
MY3DLAYER
10
31.29145
20
15.5063454661535
30
-5.85759999999993
 70
     32
  0
VERTEX
  8
MY3DLAYER
10
31.3018053390593
20
15.4983995350236
30
-5.85759999999992
 70
     32
  0
VERTEX
  8
MY3DLAYER
10
31.3097512701892
20
15.4880441959643
30
-5.85759999999992
 70
     32
  0
VERTEX
  8
MY3DLAYER
10
31.3147462913144
20
15.4759851482194
30
-5.85759999999992
 70
     32
  0
VERTEX
  8
MY3DLAYER
10
31.31645
20
15.4630441959643
30
-5.85759999999993
 70
     32
  0
VERTEX
  8
MY3DLAYER
10
31.3147462913144
20
15.4501032437091
30
-5.85759999999992
 70
     32
  0
VERTEX
  8
MY3DLAYER
10
31.3097512701892
20
15.4380441959643
30
-5.85759999999992
 70
     32
  0
VERTEX
  8
MY3DLAYER
10
31.3018053390593
20
15.4276888569049
30
-5.85759999999992
 70
     32
  0
VERTEX
  8
MY3DLAYER
10
31.29145
20
15.419742925775
30
-5.85759999999993
 70
     32
  0
VERTEX
  8
MY3DLAYER
10
31.2793909522551
20
15.4147479046498
30
-5.85759999999992
 70
     32
  0
VERTEX
  8
MY3DLAYER
10
31.26645
20
15.4130441959643
30
-5.85759999999993
 70
     32
  0
VERTEX
  8
MY3DLAYER
10
31.2535090477449
20
15.4147479046498
30
-5.85759999999992
 70
     32
  0
VERTEX
  8
MY3DLAYER
10
31.24145
20
15.419742925775
30
-5.85759999999993
 70
     32
  0
VERTEX
  8
MY3DLAYER
10
31.2310946609407
20
15.4276888569049
30
-5.85759999999992
 70
     32
  0
VERTEX
  8
MY3DLAYER
10
31.2231487298108
20
15.4380441959643
30
-5.85759999999992
 70
     32
  0
VERTEX
  8
MY3DLAYER
10
30.7155847577293
20
15.1450020000521
30
-5.85759999999992
 70
     32
  0
VERTEX
  8
MY3DLAYER
10
30.7205797788546
20
15.1329429523072
30
-5.85759999999992
 70
     32
  0
VERTEX
  8
MY3DLAYER
10
30.7222834875401
20
15.1200020000521
30
-5.85759999999992
 70
     32
  0
VERTEX
  8
MY3DLAYER
10
30.7205797788546
20
15.107061047797
30
-5.85759999999992
 70
     32
  0
VERTEX
  8
MY3DLAYER
10
30.7155847577293
20
15.0950020000521
30
-5.85759999999992
 70
     32
  0
VERTEX
  8
MY3DLAYER
10
30.7076388265994
20
15.0846466609928
30
-5.85759999999993
 70
     32
  0
VERTEX
  8
MY3DLAYER
10
30.6972834875401
20
15.0767007298629
30
-5.85759999999992
 70
     32
  0
VERTEX
  8
MY3DLAYER
10
30.6852244397952
20
15.0717057087376
30
-5.85759999999992
 70
     32
  0
VERTEX
  8
MY3DLAYER
10
30.6722834875401
20
15.0700020000521
30
-5.85759999999992
 70
     32
  0
VERTEX
  8
MY3DLAYER
10
30.659342535285
20
15.0717057087376
30
-5.85759999999993
 70
     32
  0
VERTEX
  8
MY3DLAYER
10
30.6472834875401
20
15.0767007298629
30
-5.85759999999992
 70
     32
  0
VERTEX
  8
MY3DLAYER
10
30.6369281484808
20
15.0846466609928
30
-5.85759999999992
 70
     32
  0
VERTEX
  8
MY3DLAYER
10
30.6289822173509
20
15.0950020000521
30
-5.85759999999992
 70
     32
  0
VERTEX
  8
MY3DLAYER
10
30.6239871962257
20
15.107061047797
30
-5.85759999999992
 70
     32
  0
VERTEX
  8
MY3DLAYER
10
30.6222834875401
20
15.1200020000521
30
-5.85759999999992
 70
     32
  0
VERTEX
  8
MY3DLAYER
10
30.6239871962257
20
15.1329429523072
30
-5.85759999999992
 70
     32
  0
VERTEX
  8
MY3DLAYER
10
30.6289822173509
20
15.1450020000521
30
-5.85759999999992
 70
     32
  0
VERTEX
  8
MY3DLAYER
10
30.1214182452695
20
15.4380441959643
30
-5.85759999999992
 70
     32
  0
VERTEX
  8
MY3DLAYER
10
30.1134723141396
20
15.4276888569049
30
-5.85759999999992
 70
     32
  0
VERTEX
  8
MY3DLAYER
10
30.1031169750802
20
15.419742925775
30
-5.85759999999992
 70
     32
  0
VERTEX
  8
MY3DLAYER
10
30.0910579273354
20
15.4147479046498
30
-5.85759999999992
 70
     32
  0
VERTEX
  8
MY3DLAYER
10
30.0781169750802
20
15.4130441959643
30
-5.85759999999993
 70
     32
  0
VERTEX
  8
MY3DLAYER
10
30.0651760228251
20
15.4147479046498
30
-5.85759999999993
 70
     32
  0
VERTEX
  8
MY3DLAYER
10
30.0531169750802
20
15.4197429257751
30
-5.85759999999993
 70
     32
  0
VERTEX
  8
MY3DLAYER
10
30.0427616360209
20
15.4276888569049
30
-5.85759999999992
 70
     32
  0
VERTEX
  8
MY3DLAYER
10
30.034815704891
20
15.4380441959643
30
-5.85759999999993
 70
     32
  0
VERTEX
  8
MY3DLAYER
10
30.0298206837658
20
15.4501032437091
30
-5.85759999999993
 70
     32
  0
VERTEX
  8
MY3DLAYER
10
30.0281169750802
20
15.4630441959643
30
-5.85759999999993
 70
     32
  0
VERTEX
  8
MY3DLAYER
10
30.0298206837658
20
15.4759851482194
30
-5.85759999999993
 70
     32
  0
VERTEX
  8
MY3DLAYER
10
30.034815704891
20
15.4880441959643
30
-5.85759999999993
 70
     32
  0
VERTEX
  8
MY3DLAYER
10
30.0427616360209
20
15.4983995350236
30
-5.85759999999993
 70
     32
  0
VERTEX
  8
MY3DLAYER
10
30.0531169750802
20
15.5063454661535
30
-5.85759999999993
 70
     32
  0
VERTEX
  8
MY3DLAYER
10
30.0651760228251
20
15.5113404872787
30
-5.85759999999993
 70
     32
  0
VERTEX
  8
MY3DLAYER
10
30.0781169750802
20
15.5130441959643
30
-5.85759999999993
 70
     32
  0
VERTEX
  8
MY3DLAYER
10
30.0781169750802
20
16.0991285877886
30
-5.85759999999992
 70
     32
  0
VERTEX
  8
MY3DLAYER
10
30.0651760228251
20
16.1008322964742
30
-5.85759999999993
 70
     32
  0
VERTEX
  8
MY3DLAYER
10
30.0531169750802
20
16.1058273175994
30
-5.85759999999992
 70
     32
  0
VERTEX
  8
MY3DLAYER
10
30.0427616360209
20
16.1137732487293
30
-5.85759999999993
 70
     32
  0
VERTEX
  8
MY3DLAYER
10
30.034815704891
20
16.1241285877886
30
-5.85759999999993
 70
     32
  0
VERTEX
  8
MY3DLAYER
10
30.0298206837658
20
16.1361876355335
30
-5.85759999999992
 70
     32
  0
VERTEX
  8
MY3DLAYER
10
30.0281169750802
20
16.1491285877886
30
-5.85759999999993
 70
     32
  0
VERTEX
  8
MY3DLAYER
10
30.0298206837658
20
16.1620695400437
30
-5.85759999999992
 70
     32
  0
VERTEX
  8
MY3DLAYER
10
30.034815704891
20
16.1741285877886
30
-5.85759999999993
 70
     32
  0
VERTEX
  8
MY3DLAYER
10
30.0427616360209
20
16.1844839268479
30
-5.85759999999993
 70
     32
  0
VERTEX
  8
MY3DLAYER
10
30.0531169750802
20
16.1924298579778
30
-5.85759999999993
 70
     32
  0
VERTEX
  8
MY3DLAYER
10
30.0651760228251
20
16.1974248791031
30
-5.85759999999993
 70
     32
  0
VERTEX
  8
MY3DLAYER
10
30.0781169750802
20
16.1991285877886
30
-5.85759999999993
 70
     32
  0
VERTEX
  8
MY3DLAYER
10
30.0910579273354
20
16.1974248791031
30
-5.85759999999993
 70
     32
  0
VERTEX
  8
MY3DLAYER
10
30.1031169750802
20
16.1924298579778
30
-5.85759999999992
 70
     32
  0
VERTEX
  8
MY3DLAYER
10
30.1134723141396
20
16.1844839268479
30
-5.85759999999993
 70
     32
  0
VERTEX
  8
MY3DLAYER
10
30.1214182452694
20
16.1741285877886
30
-5.85759999999992
 70
     32
  0
VERTEX
  8
MY3DLAYER
10
30.6289822173509
20
16.4671707837008
30
-5.85759999999992
 70
     32
  0
VERTEX
  8
MY3DLAYER
10
30.6239871962257
20
16.4792298314457
30
-5.85759999999992
 70
     32
  0
VERTEX
  8
MY3DLAYER
10
30.6222834875401
20
16.4921707837008
30
-5.85759999999992
 70
     32
  0
VERTEX
  8
MY3DLAYER
10
30.6239871962257
20
16.5051117359559
30
-5.85759999999992
 70
     32
  0
VERTEX
  8
MY3DLAYER
10
30.6289822173509
20
16.5171707837008
30
-5.85759999999992
 70
     32
  0
VERTEX
  8
MY3DLAYER
10
30.6369281484808
20
16.5275261227601
30
-5.85759999999992
 70
     32
  0
VERTEX
  8
MY3DLAYER
10
30.6472834875401
20
16.53547205389
30
-5.85759999999992
 70
     32
  0
VERTEX
  8
MY3DLAYER
10
30.659342535285
20
16.5404670750152
30
-5.85759999999993
 70
     32
  0
VERTEX
  8
MY3DLAYER
10
30.6722834875401
20
16.5421707837008
30
-5.85759999999992
 70
     32
  0
VERTEX
  8
MY3DLAYER
10
30.6852244397952
20
16.5404670750152
30
-5.85759999999992
 70
     32
  0
VERTEX
  8
MY3DLAYER
10
30.6972834875401
20
16.53547205389
30
-5.85759999999992
 70
     32
  0
VERTEX
  8
MY3DLAYER
10
30.7076388265994
20
16.5275261227601
30
-5.85759999999993
 70
     32
  0
VERTEX
  8
MY3DLAYER
10
30.7155847577293
20
16.5171707837008
30
-5.85759999999992
 70
     32
  0
VERTEX
  8
MY3DLAYER
10
30.7205797788546
20
16.5051117359559
30
-5.85759999999992
 70
     32
  0
VERTEX
  8
MY3DLAYER
10
30.7222834875401
20
16.4921707837008
30
-5.85759999999992
 70
     32
  0
VERTEX
  8
MY3DLAYER
10
30.7205797788546
20
16.4792298314457
30
-5.85759999999992
 70
     32
  0
VERTEX
  8
MY3DLAYER
10
30.7155847577293
20
16.4671707837008
30
-5.85759999999992
 70
     32
  0
VERTEX
  8
MY3DLAYER
10
31.2231487298108
20
16.1741285877886
30
-5.85759999999992
 70
     32
  0
VERTEX
  8
MY3DLAYER
10
31.2310946609407
20
16.1844839268479
30
-5.85759999999992
 70
     32
  0
VERTEX
  8
MY3DLAYER
10
31.24145
20
16.1924298579778
30
-5.85759999999993
 70
     32
  0
VERTEX
  8
MY3DLAYER
10
31.2535090477449
20
16.1974248791031
30
-5.85759999999992
 70
     32
  0
VERTEX
  8
MY3DLAYER
10
31.26645
20
16.1991285877886
30
-5.85759999999993
 70
     32
  0
VERTEX
  8
MY3DLAYER
10
31.2793909522551
20
16.1974248791031
30
-5.85759999999992
 70
     32
  0
VERTEX
  8
MY3DLAYER
10
31.29145
20
16.1924298579778
30
-5.85759999999993
 70
     32
  0
VERTEX
  8
MY3DLAYER
10
31.3018053390593
20
16.1844839268479
30
-5.85759999999992
 70
     32
  0
VERTEX
  8
MY3DLAYER
10
31.3097512701892
20
16.1741285877886
30
-5.85759999999992
 70
     32
  0
VERTEX
  8
MY3DLAYER
10
31.3147462913144
20
16.1620695400437
30
-5.85759999999992
 70
     32
  0
SEQEND
  0
POLYLINE
 8
Layer0
 66
     1
70
    8
 10
0.0
 20
 0.0
 30
0.0
  0
VERTEX
  8
MY3DLAYER
10
29.5030792913144
20
16.1620695400437
30
-5.85759999999992
 70
     32
  0
VERTEX
  8
MY3DLAYER
10
29.504783
20
16.1491285877886
30
-5.85759999999993
 70
     32
  0
VERTEX
  8
MY3DLAYER
10
29.5030792913144
20
16.1361876355335
30
-5.85759999999992
 70
     32
  0
VERTEX
  8
MY3DLAYER
10
29.4980842701892
20
16.1241285877886
30
-5.85759999999992
 70
     32
  0
VERTEX
  8
MY3DLAYER
10
29.4901383390593
20
16.1137732487293
30
-5.85759999999993
 70
     32
  0
VERTEX
  8
MY3DLAYER
10
29.479783
20
16.1058273175994
30
-5.85759999999992
 70
     32
  0
VERTEX
  8
MY3DLAYER
10
29.4677239522551
20
16.1008322964742
30
-5.85759999999992
 70
     32
  0
VERTEX
  8
MY3DLAYER
10
29.454783
20
16.0991285877886
30
-5.85759999999992
 70
     32
  0
VERTEX
  8
MY3DLAYER
10
29.454783
20
15.5130441959643
30
-5.85759999999992
 70
     32
  0
VERTEX
  8
MY3DLAYER
10
29.4677239522551
20
15.5113404872787
30
-5.85759999999992
 70
     32
  0
VERTEX
  8
MY3DLAYER
10
29.479783
20
15.5063454661535
30
-5.85759999999993
 70
     32
  0
VERTEX
  8
MY3DLAYER
10
29.4901383390593
20
15.4983995350236
30
-5.85759999999992
 70
     32
  0
VERTEX
  8
MY3DLAYER
10
29.4980842701892
20
15.4880441959643
30
-5.85759999999992
 70
     32
  0
VERTEX
  8
MY3DLAYER
10
29.5030792913144
20
15.4759851482194
30
-5.85759999999992
 70
     32
  0
VERTEX
  8
MY3DLAYER
10
29.504783
20
15.4630441959643
30
-5.85759999999993
 70
     32
  0
VERTEX
  8
MY3DLAYER
10
29.5030792913144
20
15.4501032437091
30
-5.85759999999992
 70
     32
  0
VERTEX
  8
MY3DLAYER
10
29.4980842701892
20
15.4380441959643
30
-5.85759999999992
 70
     32
  0
VERTEX
  8
MY3DLAYER
10
29.4901383390593
20
15.4276888569049
30
-5.85759999999992
 70
     32
  0
VERTEX
  8
MY3DLAYER
10
29.479783
20
15.419742925775
30
-5.85759999999993
 70
     32
  0
VERTEX
  8
MY3DLAYER
10
29.4677239522551
20
15.4147479046498
30
-5.85759999999992
 70
     32
  0
VERTEX
  8
MY3DLAYER
10
29.454783
20
15.4130441959643
30
-5.85759999999993
 70
     32
  0
VERTEX
  8
MY3DLAYER
10
29.4418420477449
20
15.4147479046498
30
-5.85759999999992
 70
     32
  0
VERTEX
  8
MY3DLAYER
10
29.429783
20
15.419742925775
30
-5.85759999999993
 70
     32
  0
VERTEX
  8
MY3DLAYER
10
29.4194276609407
20
15.4276888569049
30
-5.85759999999992
 70
     32
  0
VERTEX
  8
MY3DLAYER
10
29.4114817298108
20
15.4380441959643
30
-5.85759999999992
 70
     32
  0
VERTEX
  8
MY3DLAYER
10
28.9039177577293
20
15.1450020000521
30
-5.85759999999992
 70
     32
  0
VERTEX
  8
MY3DLAYER
10
28.9089127788546
20
15.1329429523072
30
-5.85759999999992
 70
     32
  0
VERTEX
  8
MY3DLAYER
10
28.9106164875401
20
15.1200020000521
30
-5.85759999999992
 70
     32
  0
VERTEX
  8
MY3DLAYER
10
28.9089127788546
20
15.107061047797
30
-5.85759999999992
 70
     32
  0
VERTEX
  8
MY3DLAYER
10
28.9039177577293
20
15.0950020000521
30
-5.85759999999992
 70
     32
  0
VERTEX
  8
MY3DLAYER
10
28.8959718265994
20
15.0846466609928
30
-5.85759999999993
 70
     32
  0
VERTEX
  8
MY3DLAYER
10
28.8856164875401
20
15.0767007298629
30
-5.85759999999992
 70
     32
  0
VERTEX
  8
MY3DLAYER
10
28.8735574397952
20
15.0717057087376
30
-5.85759999999992
 70
     32
  0
VERTEX
  8
MY3DLAYER
10
28.8606164875401
20
15.0700020000521
30
-5.85759999999992
 70
     32
  0
VERTEX
  8
MY3DLAYER
10
28.847675535285
20
15.0717057087376
30
-5.85759999999993
 70
     32
  0
VERTEX
  8
MY3DLAYER
10
28.8356164875401
20
15.0767007298629
30
-5.85759999999992
 70
     32
  0
VERTEX
  8
MY3DLAYER
10
28.8252611484808
20
15.0846466609928
30
-5.85759999999992
 70
     32
  0
VERTEX
  8
MY3DLAYER
10
28.8173152173509
20
15.0950020000521
30
-5.85759999999992
 70
     32
  0
VERTEX
  8
MY3DLAYER
10
28.8123201962257
20
15.107061047797
30
-5.85759999999992
 70
     32
  0
VERTEX
  8
MY3DLAYER
10
28.8106164875401
20
15.1200020000521
30
-5.85759999999992
 70
     32
  0
VERTEX
  8
MY3DLAYER
10
28.8123201962257
20
15.1329429523072
30
-5.85759999999992
 70
     32
  0
VERTEX
  8
MY3DLAYER
10
28.8173152173509
20
15.1450020000521
30
-5.85759999999992
 70
     32
  0
VERTEX
  8
MY3DLAYER
10
28.3097512452695
20
15.4380441959643
30
-5.85759999999992
 70
     32
  0
VERTEX
  8
MY3DLAYER
10
28.3018053141396
20
15.4276888569049
30
-5.85759999999992
 70
     32
  0
VERTEX
  8
MY3DLAYER
10
28.2914499750802
20
15.419742925775
30
-5.85759999999992
 70
     32
  0
VERTEX
  8
MY3DLAYER
10
28.2793909273354
20
15.4147479046498
30
-5.85759999999992
 70
     32
  0
VERTEX
  8
MY3DLAYER
10
28.2664499750802
20
15.4130441959643
30
-5.85759999999993
 70
     32
  0
VERTEX
  8
MY3DLAYER
10
28.2535090228251
20
15.4147479046498
30
-5.85759999999993
 70
     32
  0
VERTEX
  8
MY3DLAYER
10
28.2414499750802
20
15.4197429257751
30
-5.85759999999993
 70
     32
  0
VERTEX
  8
MY3DLAYER
10
28.2310946360209
20
15.4276888569049
30
-5.85759999999992
 70
     32
  0
VERTEX
  8
MY3DLAYER
10
28.223148704891
20
15.4380441959643
30
-5.85759999999993
 70
     32
  0
VERTEX
  8
MY3DLAYER
10
28.2181536837658
20
15.4501032437091
30
-5.85759999999993
 70
     32
  0
VERTEX
  8
MY3DLAYER
10
28.2164499750802
20
15.4630441959643
30
-5.85759999999993
 70
     32
  0
VERTEX
  8
MY3DLAYER
10
28.2181536837658
20
15.4759851482194
30
-5.85759999999993
 70
     32
  0
VERTEX
  8
MY3DLAYER
10
28.223148704891
20
15.4880441959643
30
-5.85759999999993
 70
     32
  0
VERTEX
  8
MY3DLAYER
10
28.2310946360209
20
15.4983995350236
30
-5.85759999999993
 70
     32
  0
VERTEX
  8
MY3DLAYER
10
28.2414499750802
20
15.5063454661535
30
-5.85759999999993
 70
     32
  0
VERTEX
  8
MY3DLAYER
10
28.2535090228251
20
15.5113404872787
30
-5.85759999999993
 70
     32
  0
VERTEX
  8
MY3DLAYER
10
28.2664499750802
20
15.5130441959643
30
-5.85759999999993
 70
     32
  0
VERTEX
  8
MY3DLAYER
10
28.2664499750802
20
16.0991285877886
30
-5.85759999999992
 70
     32
  0
VERTEX
  8
MY3DLAYER
10
28.2535090228251
20
16.1008322964742
30
-5.85759999999993
 70
     32
  0
VERTEX
  8
MY3DLAYER
10
28.2414499750802
20
16.1058273175994
30
-5.85759999999992
 70
     32
  0
VERTEX
  8
MY3DLAYER
10
28.2310946360209
20
16.1137732487293
30
-5.85759999999993
 70
     32
  0
VERTEX
  8
MY3DLAYER
10
28.223148704891
20
16.1241285877886
30
-5.85759999999993
 70
     32
  0
VERTEX
  8
MY3DLAYER
10
28.2181536837658
20
16.1361876355335
30
-5.85759999999992
 70
     32
  0
VERTEX
  8
MY3DLAYER
10
28.2164499750802
20
16.1491285877886
30
-5.85759999999993
 70
     32
  0
VERTEX
  8
MY3DLAYER
10
28.2181536837658
20
16.1620695400437
30
-5.85759999999992
 70
     32
  0
VERTEX
  8
MY3DLAYER
10
28.223148704891
20
16.1741285877886
30
-5.85759999999993
 70
     32
  0
VERTEX
  8
MY3DLAYER
10
28.2310946360209
20
16.1844839268479
30
-5.85759999999993
 70
     32
  0
VERTEX
  8
MY3DLAYER
10
28.2414499750802
20
16.1924298579778
30
-5.85759999999993
 70
     32
  0
VERTEX
  8
MY3DLAYER
10
28.2535090228251
20
16.1974248791031
30
-5.85759999999993
 70
     32
  0
VERTEX
  8
MY3DLAYER
10
28.2664499750802
20
16.1991285877886
30
-5.85759999999993
 70
     32
  0
VERTEX
  8
MY3DLAYER
10
28.2793909273354
20
16.1974248791031
30
-5.85759999999993
 70
     32
  0
VERTEX
  8
MY3DLAYER
10
28.2914499750802
20
16.1924298579778
30
-5.85759999999992
 70
     32
  0
VERTEX
  8
MY3DLAYER
10
28.3018053141396
20
16.1844839268479
30
-5.85759999999993
 70
     32
  0
VERTEX
  8
MY3DLAYER
10
28.3097512452694
20
16.1741285877886
30
-5.85759999999992
 70
     32
  0
VERTEX
  8
MY3DLAYER
10
28.8173152173509
20
16.4671707837008
30
-5.85759999999992
 70
     32
  0
VERTEX
  8
MY3DLAYER
10
28.8123201962257
20
16.4792298314457
30
-5.85759999999992
 70
     32
  0
VERTEX
  8
MY3DLAYER
10
28.8106164875401
20
16.4921707837008
30
-5.85759999999992
 70
     32
  0
VERTEX
  8
MY3DLAYER
10
28.8123201962257
20
16.5051117359559
30
-5.85759999999992
 70
     32
  0
VERTEX
  8
MY3DLAYER
10
28.8173152173509
20
16.5171707837008
30
-5.85759999999992
 70
     32
  0
VERTEX
  8
MY3DLAYER
10
28.8252611484808
20
16.5275261227601
30
-5.85759999999992
 70
     32
  0
VERTEX
  8
MY3DLAYER
10
28.8356164875401
20
16.53547205389
30
-5.85759999999992
 70
     32
  0
VERTEX
  8
MY3DLAYER
10
28.847675535285
20
16.5404670750152
30
-5.85759999999993
 70
     32
  0
VERTEX
  8
MY3DLAYER
10
28.8606164875401
20
16.5421707837008
30
-5.85759999999992
 70
     32
  0
VERTEX
  8
MY3DLAYER
10
28.8735574397952
20
16.5404670750152
30
-5.85759999999992
 70
     32
  0
VERTEX
  8
MY3DLAYER
10
28.8856164875401
20
16.53547205389
30
-5.85759999999992
 70
     32
  0
VERTEX
  8
MY3DLAYER
10
28.8959718265994
20
16.5275261227601
30
-5.85759999999993
 70
     32
  0
VERTEX
  8
MY3DLAYER
10
28.9039177577293
20
16.5171707837008
30
-5.85759999999992
 70
     32
  0
VERTEX
  8
MY3DLAYER
10
28.9089127788546
20
16.5051117359559
30
-5.85759999999992
 70
     32
  0
VERTEX
  8
MY3DLAYER
10
28.9106164875401
20
16.4921707837008
30
-5.85759999999992
 70
     32
  0
VERTEX
  8
MY3DLAYER
10
28.9089127788546
20
16.4792298314457
30
-5.85759999999992
 70
     32
  0
VERTEX
  8
MY3DLAYER
10
28.9039177577293
20
16.4671707837008
30
-5.85759999999992
 70
     32
  0
VERTEX
  8
MY3DLAYER
10
29.4114817298108
20
16.1741285877886
30
-5.85759999999992
 70
     32
  0
VERTEX
  8
MY3DLAYER
10
29.4194276609407
20
16.1844839268479
30
-5.85759999999992
 70
     32
  0
VERTEX
  8
MY3DLAYER
10
29.429783
20
16.1924298579778
30
-5.85759999999993
 70
     32
  0
VERTEX
  8
MY3DLAYER
10
29.4418420477449
20
16.1974248791031
30
-5.85759999999992
 70
     32
  0
VERTEX
  8
MY3DLAYER
10
29.454783
20
16.1991285877886
30
-5.85759999999993
 70
     32
  0
VERTEX
  8
MY3DLAYER
10
29.4677239522551
20
16.1974248791031
30
-5.85759999999992
 70
     32
  0
VERTEX
  8
MY3DLAYER
10
29.479783
20
16.1924298579778
30
-5.85759999999993
 70
     32
  0
VERTEX
  8
MY3DLAYER
10
29.4901383390593
20
16.1844839268479
30
-5.85759999999992
 70
     32
  0
VERTEX
  8
MY3DLAYER
10
29.4980842701892
20
16.1741285877886
30
-5.85759999999992
 70
     32
  0
VERTEX
  8
MY3DLAYER
10
29.5030792913144
20
16.1620695400437
30
-5.85759999999992
 70
     32
  0
SEQEND
  0
POLYLINE
 8
Layer0
 66
     1
70
    8
 10
0.0
 20
 0.0
 30
0.0
  0
VERTEX
  8
MY3DLAYER
10
31.3147462913144
20
17.9737365400437
30
-5.85759999999992
 70
     32
  0
VERTEX
  8
MY3DLAYER
10
31.31645
20
17.9607955877886
30
-5.85759999999993
 70
     32
  0
VERTEX
  8
MY3DLAYER
10
31.3147462913144
20
17.9478546355335
30
-5.85759999999992
 70
     32
  0
VERTEX
  8
MY3DLAYER
10
31.3097512701892
20
17.9357955877886
30
-5.85759999999992
 70
     32
  0
VERTEX
  8
MY3DLAYER
10
31.3018053390593
20
17.9254402487293
30
-5.85759999999993
 70
     32
  0
VERTEX
  8
MY3DLAYER
10
31.29145
20
17.9174943175994
30
-5.85759999999992
 70
     32
  0
VERTEX
  8
MY3DLAYER
10
31.2793909522551
20
17.9124992964742
30
-5.85759999999992
 70
     32
  0
VERTEX
  8
MY3DLAYER
10
31.26645
20
17.9107955877886
30
-5.85759999999992
 70
     32
  0
VERTEX
  8
MY3DLAYER
10
31.26645
20
17.3247111959643
30
-5.85759999999992
 70
     32
  0
VERTEX
  8
MY3DLAYER
10
31.2793909522551
20
17.3230074872787
30
-5.85759999999992
 70
     32
  0
VERTEX
  8
MY3DLAYER
10
31.29145
20
17.3180124661535
30
-5.85759999999993
 70
     32
  0
VERTEX
  8
MY3DLAYER
10
31.3018053390593
20
17.3100665350236
30
-5.85759999999992
 70
     32
  0
VERTEX
  8
MY3DLAYER
10
31.3097512701892
20
17.2997111959643
30
-5.85759999999992
 70
     32
  0
VERTEX
  8
MY3DLAYER
10
31.3147462913144
20
17.2876521482194
30
-5.85759999999992
 70
     32
  0
VERTEX
  8
MY3DLAYER
10
31.31645
20
17.2747111959643
30
-5.85759999999993
 70
     32
  0
VERTEX
  8
MY3DLAYER
10
31.3147462913144
20
17.2617702437091
30
-5.85759999999992
 70
     32
  0
VERTEX
  8
MY3DLAYER
10
31.3097512701892
20
17.2497111959643
30
-5.85759999999992
 70
     32
  0
VERTEX
  8
MY3DLAYER
10
31.3018053390593
20
17.2393558569049
30
-5.85759999999992
 70
     32
  0
VERTEX
  8
MY3DLAYER
10
31.29145
20
17.231409925775
30
-5.85759999999993
 70
     32
  0
VERTEX
  8
MY3DLAYER
10
31.2793909522551
20
17.2264149046498
30
-5.85759999999992
 70
     32
  0
VERTEX
  8
MY3DLAYER
10
31.26645
20
17.2247111959643
30
-5.85759999999993
 70
     32
  0
VERTEX
  8
MY3DLAYER
10
31.2535090477449
20
17.2264149046498
30
-5.85759999999992
 70
     32
  0
VERTEX
  8
MY3DLAYER
10
31.24145
20
17.231409925775
30
-5.85759999999993
 70
     32
  0
VERTEX
  8
MY3DLAYER
10
31.2310946609407
20
17.2393558569049
30
-5.85759999999992
 70
     32
  0
VERTEX
  8
MY3DLAYER
10
31.2231487298108
20
17.2497111959643
30
-5.85759999999992
 70
     32
  0
VERTEX
  8
MY3DLAYER
10
30.7155847577293
20
16.9566690000521
30
-5.85759999999992
 70
     32
  0
VERTEX
  8
MY3DLAYER
10
30.7205797788546
20
16.9446099523072
30
-5.85759999999992
 70
     32
  0
VERTEX
  8
MY3DLAYER
10
30.7222834875401
20
16.9316690000521
30
-5.85759999999992
 70
     32
  0
VERTEX
  8
MY3DLAYER
10
30.7205797788546
20
16.918728047797
30
-5.85759999999992
 70
     32
  0
VERTEX
  8
MY3DLAYER
10
30.7155847577293
20
16.9066690000521
30
-5.85759999999992
 70
     32
  0
VERTEX
  8
MY3DLAYER
10
30.7076388265994
20
16.8963136609928
30
-5.85759999999993
 70
     32
  0
VERTEX
  8
MY3DLAYER
10
30.6972834875401
20
16.8883677298629
30
-5.85759999999992
 70
     32
  0
VERTEX
  8
MY3DLAYER
10
30.6852244397952
20
16.8833727087376
30
-5.85759999999992
 70
     32
  0
VERTEX
  8
MY3DLAYER
10
30.6722834875401
20
16.8816690000521
30
-5.85759999999992
 70
     32
  0
VERTEX
  8
MY3DLAYER
10
30.659342535285
20
16.8833727087376
30
-5.85759999999993
 70
     32
  0
VERTEX
  8
MY3DLAYER
10
30.6472834875401
20
16.8883677298629
30
-5.85759999999992
 70
     32
  0
VERTEX
  8
MY3DLAYER
10
30.6369281484808
20
16.8963136609928
30
-5.85759999999992
 70
     32
  0
VERTEX
  8
MY3DLAYER
10
30.6289822173509
20
16.9066690000521
30
-5.85759999999992
 70
     32
  0
VERTEX
  8
MY3DLAYER
10
30.6239871962257
20
16.918728047797
30
-5.85759999999992
 70
     32
  0
VERTEX
  8
MY3DLAYER
10
30.6222834875401
20
16.9316690000521
30
-5.85759999999992
 70
     32
  0
VERTEX
  8
MY3DLAYER
10
30.6239871962257
20
16.9446099523072
30
-5.85759999999992
 70
     32
  0
VERTEX
  8
MY3DLAYER
10
30.6289822173509
20
16.9566690000521
30
-5.85759999999992
 70
     32
  0
VERTEX
  8
MY3DLAYER
10
30.1214182452695
20
17.2497111959643
30
-5.85759999999992
 70
     32
  0
VERTEX
  8
MY3DLAYER
10
30.1134723141396
20
17.2393558569049
30
-5.85759999999992
 70
     32
  0
VERTEX
  8
MY3DLAYER
10
30.1031169750802
20
17.231409925775
30
-5.85759999999992
 70
     32
  0
VERTEX
  8
MY3DLAYER
10
30.0910579273354
20
17.2264149046498
30
-5.85759999999992
 70
     32
  0
VERTEX
  8
MY3DLAYER
10
30.0781169750802
20
17.2247111959643
30
-5.85759999999993
 70
     32
  0
VERTEX
  8
MY3DLAYER
10
30.0651760228251
20
17.2264149046498
30
-5.85759999999993
 70
     32
  0
VERTEX
  8
MY3DLAYER
10
30.0531169750802
20
17.2314099257751
30
-5.85759999999993
 70
     32
  0
VERTEX
  8
MY3DLAYER
10
30.0427616360209
20
17.2393558569049
30
-5.85759999999992
 70
     32
  0
VERTEX
  8
MY3DLAYER
10
30.034815704891
20
17.2497111959643
30
-5.85759999999993
 70
     32
  0
VERTEX
  8
MY3DLAYER
10
30.0298206837658
20
17.2617702437091
30
-5.85759999999993
 70
     32
  0
VERTEX
  8
MY3DLAYER
10
30.0281169750802
20
17.2747111959643
30
-5.85759999999993
 70
     32
  0
VERTEX
  8
MY3DLAYER
10
30.0298206837658
20
17.2876521482194
30
-5.85759999999993
 70
     32
  0
VERTEX
  8
MY3DLAYER
10
30.034815704891
20
17.2997111959643
30
-5.85759999999993
 70
     32
  0
VERTEX
  8
MY3DLAYER
10
30.0427616360209
20
17.3100665350236
30
-5.85759999999993
 70
     32
  0
VERTEX
  8
MY3DLAYER
10
30.0531169750802
20
17.3180124661535
30
-5.85759999999993
 70
     32
  0
VERTEX
  8
MY3DLAYER
10
30.0651760228251
20
17.3230074872787
30
-5.85759999999993
 70
     32
  0
VERTEX
  8
MY3DLAYER
10
30.0781169750802
20
17.3247111959643
30
-5.85759999999993
 70
     32
  0
VERTEX
  8
MY3DLAYER
10
30.0781169750802
20
17.9107955877886
30
-5.85759999999992
 70
     32
  0
VERTEX
  8
MY3DLAYER
10
30.0651760228251
20
17.9124992964742
30
-5.85759999999993
 70
     32
  0
VERTEX
  8
MY3DLAYER
10
30.0531169750802
20
17.9174943175994
30
-5.85759999999992
 70
     32
  0
VERTEX
  8
MY3DLAYER
10
30.0427616360209
20
17.9254402487293
30
-5.85759999999993
 70
     32
  0
VERTEX
  8
MY3DLAYER
10
30.034815704891
20
17.9357955877886
30
-5.85759999999993
 70
     32
  0
VERTEX
  8
MY3DLAYER
10
30.0298206837658
20
17.9478546355335
30
-5.85759999999992
 70
     32
  0
VERTEX
  8
MY3DLAYER
10
30.0281169750802
20
17.9607955877886
30
-5.85759999999993
 70
     32
  0
VERTEX
  8
MY3DLAYER
10
30.0298206837658
20
17.9737365400437
30
-5.85759999999992
 70
     32
  0
VERTEX
  8
MY3DLAYER
10
30.034815704891
20
17.9857955877886
30
-5.85759999999993
 70
     32
  0
VERTEX
  8
MY3DLAYER
10
30.0427616360209
20
17.9961509268479
30
-5.85759999999993
 70
     32
  0
VERTEX
  8
MY3DLAYER
10
30.0531169750802
20
18.0040968579778
30
-5.85759999999993
 70
     32
  0
VERTEX
  8
MY3DLAYER
10
30.0651760228251
20
18.0090918791031
30
-5.85759999999993
 70
     32
  0
VERTEX
  8
MY3DLAYER
10
30.0781169750802
20
18.0107955877886
30
-5.85759999999993
 70
     32
  0
VERTEX
  8
MY3DLAYER
10
30.0910579273354
20
18.0090918791031
30
-5.85759999999993
 70
     32
  0
VERTEX
  8
MY3DLAYER
10
30.1031169750802
20
18.0040968579778
30
-5.85759999999992
 70
     32
  0
VERTEX
  8
MY3DLAYER
10
30.1134723141396
20
17.9961509268479
30
-5.85759999999993
 70
     32
  0
VERTEX
  8
MY3DLAYER
10
30.1214182452694
20
17.9857955877886
30
-5.85759999999992
 70
     32
  0
VERTEX
  8
MY3DLAYER
10
30.6289822173509
20
18.2788377837008
30
-5.85759999999992
 70
     32
  0
VERTEX
  8
MY3DLAYER
10
30.6239871962257
20
18.2908968314457
30
-5.85759999999992
 70
     32
  0
VERTEX
  8
MY3DLAYER
10
30.6222834875401
20
18.3038377837008
30
-5.85759999999992
 70
     32
  0
VERTEX
  8
MY3DLAYER
10
30.6239871962257
20
18.3167787359559
30
-5.85759999999992
 70
     32
  0
VERTEX
  8
MY3DLAYER
10
30.6289822173509
20
18.3288377837008
30
-5.85759999999992
 70
     32
  0
VERTEX
  8
MY3DLAYER
10
30.6369281484808
20
18.3391931227601
30
-5.85759999999992
 70
     32
  0
VERTEX
  8
MY3DLAYER
10
30.6472834875401
20
18.34713905389
30
-5.85759999999992
 70
     32
  0
VERTEX
  8
MY3DLAYER
10
30.659342535285
20
18.3521340750152
30
-5.85759999999993
 70
     32
  0
VERTEX
  8
MY3DLAYER
10
30.6722834875401
20
18.3538377837008
30
-5.85759999999992
 70
     32
  0
VERTEX
  8
MY3DLAYER
10
30.6852244397952
20
18.3521340750152
30
-5.85759999999992
 70
     32
  0
VERTEX
  8
MY3DLAYER
10
30.6972834875401
20
18.34713905389
30
-5.85759999999992
 70
     32
  0
VERTEX
  8
MY3DLAYER
10
30.7076388265994
20
18.3391931227601
30
-5.85759999999993
 70
     32
  0
VERTEX
  8
MY3DLAYER
10
30.7155847577293
20
18.3288377837008
30
-5.85759999999992
 70
     32
  0
VERTEX
  8
MY3DLAYER
10
30.7205797788546
20
18.3167787359559
30
-5.85759999999992
 70
     32
  0
VERTEX
  8
MY3DLAYER
10
30.7222834875401
20
18.3038377837008
30
-5.85759999999992
 70
     32
  0
VERTEX
  8
MY3DLAYER
10
30.7205797788546
20
18.2908968314457
30
-5.85759999999992
 70
     32
  0
VERTEX
  8
MY3DLAYER
10
30.7155847577293
20
18.2788377837008
30
-5.85759999999992
 70
     32
  0
VERTEX
  8
MY3DLAYER
10
31.2231487298108
20
17.9857955877886
30
-5.85759999999992
 70
     32
  0
VERTEX
  8
MY3DLAYER
10
31.2310946609407
20
17.9961509268479
30
-5.85759999999992
 70
     32
  0
VERTEX
  8
MY3DLAYER
10
31.24145
20
18.0040968579778
30
-5.85759999999993
 70
     32
  0
VERTEX
  8
MY3DLAYER
10
31.2535090477449
20
18.0090918791031
30
-5.85759999999992
 70
     32
  0
VERTEX
  8
MY3DLAYER
10
31.26645
20
18.0107955877886
30
-5.85759999999993
 70
     32
  0
VERTEX
  8
MY3DLAYER
10
31.2793909522551
20
18.0090918791031
30
-5.85759999999992
 70
     32
  0
VERTEX
  8
MY3DLAYER
10
31.29145
20
18.0040968579778
30
-5.85759999999993
 70
     32
  0
VERTEX
  8
MY3DLAYER
10
31.3018053390593
20
17.9961509268479
30
-5.85759999999992
 70
     32
  0
VERTEX
  8
MY3DLAYER
10
31.3097512701892
20
17.9857955877886
30
-5.85759999999992
 70
     32
  0
VERTEX
  8
MY3DLAYER
10
31.3147462913144
20
17.9737365400437
30
-5.85759999999992
 70
     32
  0
SEQEND
  0
POLYLINE
 8
Layer0
 66
     1
70
    8
 10
0.0
 20
 0.0
 30
0.0
  0
VERTEX
  8
MY3DLAYER
10
29.5030792913144
20
17.9737365400437
30
-5.85759999999992
 70
     32
  0
VERTEX
  8
MY3DLAYER
10
29.504783
20
17.9607955877886
30
-5.85759999999993
 70
     32
  0
VERTEX
  8
MY3DLAYER
10
29.5030792913144
20
17.9478546355335
30
-5.85759999999992
 70
     32
  0
VERTEX
  8
MY3DLAYER
10
29.4980842701892
20
17.9357955877886
30
-5.85759999999992
 70
     32
  0
VERTEX
  8
MY3DLAYER
10
29.4901383390593
20
17.9254402487293
30
-5.85759999999993
 70
     32
  0
VERTEX
  8
MY3DLAYER
10
29.479783
20
17.9174943175994
30
-5.85759999999992
 70
     32
  0
VERTEX
  8
MY3DLAYER
10
29.4677239522551
20
17.9124992964742
30
-5.85759999999992
 70
     32
  0
VERTEX
  8
MY3DLAYER
10
29.454783
20
17.9107955877886
30
-5.85759999999992
 70
     32
  0
VERTEX
  8
MY3DLAYER
10
29.454783
20
17.3247111959643
30
-5.85759999999992
 70
     32
  0
VERTEX
  8
MY3DLAYER
10
29.4677239522551
20
17.3230074872787
30
-5.85759999999992
 70
     32
  0
VERTEX
  8
MY3DLAYER
10
29.479783
20
17.3180124661535
30
-5.85759999999993
 70
     32
  0
VERTEX
  8
MY3DLAYER
10
29.4901383390593
20
17.3100665350236
30
-5.85759999999992
 70
     32
  0
VERTEX
  8
MY3DLAYER
10
29.4980842701892
20
17.2997111959643
30
-5.85759999999992
 70
     32
  0
VERTEX
  8
MY3DLAYER
10
29.5030792913144
20
17.2876521482194
30
-5.85759999999992
 70
     32
  0
VERTEX
  8
MY3DLAYER
10
29.504783
20
17.2747111959643
30
-5.85759999999993
 70
     32
  0
VERTEX
  8
MY3DLAYER
10
29.5030792913144
20
17.2617702437091
30
-5.85759999999992
 70
     32
  0
VERTEX
  8
MY3DLAYER
10
29.4980842701892
20
17.2497111959643
30
-5.85759999999992
 70
     32
  0
VERTEX
  8
MY3DLAYER
10
29.4901383390593
20
17.2393558569049
30
-5.85759999999992
 70
     32
  0
VERTEX
  8
MY3DLAYER
10
29.479783
20
17.231409925775
30
-5.85759999999993
 70
     32
  0
VERTEX
  8
MY3DLAYER
10
29.4677239522551
20
17.2264149046498
30
-5.85759999999992
 70
     32
  0
VERTEX
  8
MY3DLAYER
10
29.454783
20
17.2247111959643
30
-5.85759999999993
 70
     32
  0
VERTEX
  8
MY3DLAYER
10
29.4418420477449
20
17.2264149046498
30
-5.85759999999992
 70
     32
  0
VERTEX
  8
MY3DLAYER
10
29.429783
20
17.231409925775
30
-5.85759999999993
 70
     32
  0
VERTEX
  8
MY3DLAYER
10
29.4194276609407
20
17.2393558569049
30
-5.85759999999992
 70
     32
  0
VERTEX
  8
MY3DLAYER
10
29.4114817298108
20
17.2497111959643
30
-5.85759999999992
 70
     32
  0
VERTEX
  8
MY3DLAYER
10
28.9039177577293
20
16.9566690000521
30
-5.85759999999992
 70
     32
  0
VERTEX
  8
MY3DLAYER
10
28.9089127788546
20
16.9446099523072
30
-5.85759999999992
 70
     32
  0
VERTEX
  8
MY3DLAYER
10
28.9106164875401
20
16.9316690000521
30
-5.85759999999992
 70
     32
  0
VERTEX
  8
MY3DLAYER
10
28.9089127788546
20
16.918728047797
30
-5.85759999999992
 70
     32
  0
VERTEX
  8
MY3DLAYER
10
28.9039177577293
20
16.9066690000521
30
-5.85759999999992
 70
     32
  0
VERTEX
  8
MY3DLAYER
10
28.8959718265994
20
16.8963136609928
30
-5.85759999999993
 70
     32
  0
VERTEX
  8
MY3DLAYER
10
28.8856164875401
20
16.8883677298629
30
-5.85759999999992
 70
     32
  0
VERTEX
  8
MY3DLAYER
10
28.8735574397952
20
16.8833727087376
30
-5.85759999999992
 70
     32
  0
VERTEX
  8
MY3DLAYER
10
28.8606164875401
20
16.8816690000521
30
-5.85759999999992
 70
     32
  0
VERTEX
  8
MY3DLAYER
10
28.847675535285
20
16.8833727087376
30
-5.85759999999993
 70
     32
  0
VERTEX
  8
MY3DLAYER
10
28.8356164875401
20
16.8883677298629
30
-5.85759999999992
 70
     32
  0
VERTEX
  8
MY3DLAYER
10
28.8252611484808
20
16.8963136609928
30
-5.85759999999992
 70
     32
  0
VERTEX
  8
MY3DLAYER
10
28.8173152173509
20
16.9066690000521
30
-5.85759999999992
 70
     32
  0
VERTEX
  8
MY3DLAYER
10
28.8123201962257
20
16.918728047797
30
-5.85759999999992
 70
     32
  0
VERTEX
  8
MY3DLAYER
10
28.8106164875401
20
16.9316690000521
30
-5.85759999999992
 70
     32
  0
VERTEX
  8
MY3DLAYER
10
28.8123201962257
20
16.9446099523072
30
-5.85759999999992
 70
     32
  0
VERTEX
  8
MY3DLAYER
10
28.8173152173509
20
16.9566690000521
30
-5.85759999999992
 70
     32
  0
VERTEX
  8
MY3DLAYER
10
28.3097512452695
20
17.2497111959643
30
-5.85759999999992
 70
     32
  0
VERTEX
  8
MY3DLAYER
10
28.3018053141396
20
17.2393558569049
30
-5.85759999999992
 70
     32
  0
VERTEX
  8
MY3DLAYER
10
28.2914499750802
20
17.231409925775
30
-5.85759999999992
 70
     32
  0
VERTEX
  8
MY3DLAYER
10
28.2793909273354
20
17.2264149046498
30
-5.85759999999992
 70
     32
  0
VERTEX
  8
MY3DLAYER
10
28.2664499750802
20
17.2247111959643
30
-5.85759999999993
 70
     32
  0
VERTEX
  8
MY3DLAYER
10
28.2535090228251
20
17.2264149046498
30
-5.85759999999993
 70
     32
  0
VERTEX
  8
MY3DLAYER
10
28.2414499750802
20
17.2314099257751
30
-5.85759999999993
 70
     32
  0
VERTEX
  8
MY3DLAYER
10
28.2310946360209
20
17.2393558569049
30
-5.85759999999992
 70
     32
  0
VERTEX
  8
MY3DLAYER
10
28.223148704891
20
17.2497111959643
30
-5.85759999999993
 70
     32
  0
VERTEX
  8
MY3DLAYER
10
28.2181536837658
20
17.2617702437091
30
-5.85759999999993
 70
     32
  0
VERTEX
  8
MY3DLAYER
10
28.2164499750802
20
17.2747111959643
30
-5.85759999999993
 70
     32
  0
VERTEX
  8
MY3DLAYER
10
28.2181536837658
20
17.2876521482194
30
-5.85759999999993
 70
     32
  0
VERTEX
  8
MY3DLAYER
10
28.223148704891
20
17.2997111959643
30
-5.85759999999993
 70
     32
  0
VERTEX
  8
MY3DLAYER
10
28.2310946360209
20
17.3100665350236
30
-5.85759999999993
 70
     32
  0
VERTEX
  8
MY3DLAYER
10
28.2414499750802
20
17.3180124661535
30
-5.85759999999993
 70
     32
  0
VERTEX
  8
MY3DLAYER
10
28.2535090228251
20
17.3230074872787
30
-5.85759999999993
 70
     32
  0
VERTEX
  8
MY3DLAYER
10
28.2664499750802
20
17.3247111959643
30
-5.85759999999993
 70
     32
  0
VERTEX
  8
MY3DLAYER
10
28.2664499750802
20
17.9107955877886
30
-5.85759999999992
 70
     32
  0
VERTEX
  8
MY3DLAYER
10
28.2535090228251
20
17.9124992964742
30
-5.85759999999993
 70
     32
  0
VERTEX
  8
MY3DLAYER
10
28.2414499750802
20
17.9174943175994
30
-5.85759999999992
 70
     32
  0
VERTEX
  8
MY3DLAYER
10
28.2310946360209
20
17.9254402487293
30
-5.85759999999993
 70
     32
  0
VERTEX
  8
MY3DLAYER
10
28.223148704891
20
17.9357955877886
30
-5.85759999999993
 70
     32
  0
VERTEX
  8
MY3DLAYER
10
28.2181536837658
20
17.9478546355335
30
-5.85759999999992
 70
     32
  0
VERTEX
  8
MY3DLAYER
10
28.2164499750802
20
17.9607955877886
30
-5.85759999999993
 70
     32
  0
VERTEX
  8
MY3DLAYER
10
28.2181536837658
20
17.9737365400437
30
-5.85759999999992
 70
     32
  0
VERTEX
  8
MY3DLAYER
10
28.223148704891
20
17.9857955877886
30
-5.85759999999993
 70
     32
  0
VERTEX
  8
MY3DLAYER
10
28.2310946360209
20
17.9961509268479
30
-5.85759999999993
 70
     32
  0
VERTEX
  8
MY3DLAYER
10
28.2414499750802
20
18.0040968579778
30
-5.85759999999993
 70
     32
  0
VERTEX
  8
MY3DLAYER
10
28.2535090228251
20
18.0090918791031
30
-5.85759999999993
 70
     32
  0
VERTEX
  8
MY3DLAYER
10
28.2664499750802
20
18.0107955877886
30
-5.85759999999993
 70
     32
  0
VERTEX
  8
MY3DLAYER
10
28.2793909273354
20
18.0090918791031
30
-5.85759999999993
 70
     32
  0
VERTEX
  8
MY3DLAYER
10
28.2914499750802
20
18.0040968579778
30
-5.85759999999992
 70
     32
  0
VERTEX
  8
MY3DLAYER
10
28.3018053141396
20
17.9961509268479
30
-5.85759999999993
 70
     32
  0
VERTEX
  8
MY3DLAYER
10
28.3097512452694
20
17.9857955877886
30
-5.85759999999992
 70
     32
  0
VERTEX
  8
MY3DLAYER
10
28.8173152173509
20
18.2788377837008
30
-5.85759999999992
 70
     32
  0
VERTEX
  8
MY3DLAYER
10
28.8123201962257
20
18.2908968314457
30
-5.85759999999992
 70
     32
  0
VERTEX
  8
MY3DLAYER
10
28.8106164875401
20
18.3038377837008
30
-5.85759999999992
 70
     32
  0
VERTEX
  8
MY3DLAYER
10
28.8123201962257
20
18.3167787359559
30
-5.85759999999992
 70
     32
  0
VERTEX
  8
MY3DLAYER
10
28.8173152173509
20
18.3288377837008
30
-5.85759999999992
 70
     32
  0
VERTEX
  8
MY3DLAYER
10
28.8252611484808
20
18.3391931227601
30
-5.85759999999992
 70
     32
  0
VERTEX
  8
MY3DLAYER
10
28.8356164875401
20
18.34713905389
30
-5.85759999999992
 70
     32
  0
VERTEX
  8
MY3DLAYER
10
28.847675535285
20
18.3521340750152
30
-5.85759999999993
 70
     32
  0
VERTEX
  8
MY3DLAYER
10
28.8606164875401
20
18.3538377837008
30
-5.85759999999992
 70
     32
  0
VERTEX
  8
MY3DLAYER
10
28.8735574397952
20
18.3521340750152
30
-5.85759999999992
 70
     32
  0
VERTEX
  8
MY3DLAYER
10
28.8856164875401
20
18.34713905389
30
-5.85759999999992
 70
     32
  0
VERTEX
  8
MY3DLAYER
10
28.8959718265994
20
18.3391931227601
30
-5.85759999999993
 70
     32
  0
VERTEX
  8
MY3DLAYER
10
28.9039177577293
20
18.3288377837008
30
-5.85759999999992
 70
     32
  0
VERTEX
  8
MY3DLAYER
10
28.9089127788546
20
18.3167787359559
30
-5.85759999999992
 70
     32
  0
VERTEX
  8
MY3DLAYER
10
28.9106164875401
20
18.3038377837008
30
-5.85759999999992
 70
     32
  0
VERTEX
  8
MY3DLAYER
10
28.9089127788546
20
18.2908968314457
30
-5.85759999999992
 70
     32
  0
VERTEX
  8
MY3DLAYER
10
28.9039177577293
20
18.2788377837008
30
-5.85759999999992
 70
     32
  0
VERTEX
  8
MY3DLAYER
10
29.4114817298108
20
17.9857955877886
30
-5.85759999999992
 70
     32
  0
VERTEX
  8
MY3DLAYER
10
29.4194276609407
20
17.9961509268479
30
-5.85759999999992
 70
     32
  0
VERTEX
  8
MY3DLAYER
10
29.429783
20
18.0040968579778
30
-5.85759999999993
 70
     32
  0
VERTEX
  8
MY3DLAYER
10
29.4418420477449
20
18.0090918791031
30
-5.85759999999992
 70
     32
  0
VERTEX
  8
MY3DLAYER
10
29.454783
20
18.0107955877886
30
-5.85759999999993
 70
     32
  0
VERTEX
  8
MY3DLAYER
10
29.4677239522551
20
18.0090918791031
30
-5.85759999999992
 70
     32
  0
VERTEX
  8
MY3DLAYER
10
29.479783
20
18.0040968579778
30
-5.85759999999993
 70
     32
  0
VERTEX
  8
MY3DLAYER
10
29.4901383390593
20
17.9961509268479
30
-5.85759999999992
 70
     32
  0
VERTEX
  8
MY3DLAYER
10
29.4980842701892
20
17.9857955877886
30
-5.85759999999992
 70
     32
  0
VERTEX
  8
MY3DLAYER
10
29.5030792913144
20
17.9737365400437
30
-5.85759999999992
 70
     32
  0
SEQEND
  0
POLYLINE
 8
Layer0
 66
     1
70
    8
 10
0.0
 20
 0.0
 30
0.0
  0
VERTEX
  8
MY3DLAYER
10
31.3147462913144
20
33.4971072377045
30
-5.85759999999993
 70
     32
  0
VERTEX
  8
MY3DLAYER
10
31.31645
20
33.4841662854493
30
-5.85759999999993
 70
     32
  0
VERTEX
  8
MY3DLAYER
10
31.3147462913144
20
33.4712253331942
30
-5.85759999999993
 70
     32
  0
VERTEX
  8
MY3DLAYER
10
31.3097512701892
20
33.4591662854493
30
-5.85759999999993
 70
     32
  0
VERTEX
  8
MY3DLAYER
10
31.3018053390593
20
33.44881094639
30
-5.85759999999993
 70
     32
  0
VERTEX
  8
MY3DLAYER
10
31.29145
20
33.4408650152601
30
-5.85759999999993
 70
     32
  0
VERTEX
  8
MY3DLAYER
10
31.2793909522551
20
33.4358699941349
30
-5.85759999999993
 70
     32
  0
VERTEX
  8
MY3DLAYER
10
31.26645
20
33.4341662854493
30
-5.85759999999993
 70
     32
  0
VERTEX
  8
MY3DLAYER
10
31.26645
20
33.0024988563093
30
-5.85759999999993
 70
     32
  0
VERTEX
  8
MY3DLAYER
10
31.2793909522551
20
33.0007951476238
30
-5.85759999999993
 70
     32
  0
VERTEX
  8
MY3DLAYER
10
31.29145
20
32.9958001264986
30
-5.85759999999993
 70
     32
  0
VERTEX
  8
MY3DLAYER
10
31.3018053390593
20
32.9878541953687
30
-5.85759999999993
 70
     32
  0
VERTEX
  8
MY3DLAYER
10
31.3097512701892
20
32.9774988563093
30
-5.85759999999993
 70
     32
  0
VERTEX
  8
MY3DLAYER
10
31.3147462913144
20
32.9654398085645
30
-5.85759999999993
 70
     32
  0
VERTEX
  8
MY3DLAYER
10
31.31645
20
32.9524988563093
30
-5.85759999999993
 70
     32
  0
VERTEX
  8
MY3DLAYER
10
31.3147462913144
20
32.9395579040542
30
-5.85759999999993
 70
     32
  0
VERTEX
  8
MY3DLAYER
10
31.3097512701892
20
32.9274988563093
30
-5.85759999999993
 70
     32
  0
VERTEX
  8
MY3DLAYER
10
31.3018053390593
20
32.91714351725
30
-5.85759999999993
 70
     32
  0
VERTEX
  8
MY3DLAYER
10
31.29145
20
32.9091975861201
30
-5.85759999999993
 70
     32
  0
VERTEX
  8
MY3DLAYER
10
31.2793909522551
20
32.9042025649949
30
-5.85759999999993
 70
     32
  0
VERTEX
  8
MY3DLAYER
10
31.26645
20
32.9024988563093
30
-5.85759999999993
 70
     32
  0
VERTEX
  8
MY3DLAYER
10
31.2535090477449
20
32.9042025649949
30
-5.85759999999993
 70
     32
  0
VERTEX
  8
MY3DLAYER
10
31.24145
20
32.9091975861201
30
-5.85759999999993
 70
     32
  0
VERTEX
  8
MY3DLAYER
10
31.2310946609407
20
32.91714351725
30
-5.85759999999993
 70
     32
  0
VERTEX
  8
MY3DLAYER
10
31.2231487298108
20
32.9274988563093
30
-5.85759999999993
 70
     32
  0
VERTEX
  8
MY3DLAYER
10
30.8493137701892
20
32.7116651417393
30
-5.85759999999993
 70
     32
  0
VERTEX
  8
MY3DLAYER
10
30.8543087913144
20
32.6996060939945
30
-5.85759999999993
 70
     32
  0
VERTEX
  8
MY3DLAYER
10
30.8560125
20
32.6866651417393
30
-5.85759999999993
 70
     32
  0
VERTEX
  8
MY3DLAYER
10
30.8543087913144
20
32.6737241894842
30
-5.85759999999993
 70
     32
  0
VERTEX
  8
MY3DLAYER
10
30.8493137701892
20
32.6616651417393
30
-5.85759999999993
 70
     32
  0
VERTEX
  8
MY3DLAYER
10
30.8413678390593
20
32.65130980268
30
-5.85759999999993
 70
     32
  0
VERTEX
  8
MY3DLAYER
10
30.8310125
20
32.6433638715501
30
-5.85759999999993
 70
     32
  0
VERTEX
  8
MY3DLAYER
10
30.8189534522551
20
32.6383688504249
30
-5.85759999999993
 70
     32
  0
VERTEX
  8
MY3DLAYER
10
30.8060125
20
32.6366651417393
30
-5.85759999999993
 70
     32
  0
VERTEX
  8
MY3DLAYER
10
30.7930715477449
20
32.6383688504249
30
-5.85759999999993
 70
     32
  0
VERTEX
  8
MY3DLAYER
10
30.7810125
20
32.6433638715501
30
-5.85759999999993
 70
     32
  0
VERTEX
  8
MY3DLAYER
10
30.7706571609407
20
32.65130980268
30
-5.85759999999993
 70
     32
  0
VERTEX
  8
MY3DLAYER
10
30.7627112298108
20
32.6616651417393
30
-5.85759999999993
 70
     32
  0
VERTEX
  8
MY3DLAYER
10
30.7577162086855
20
32.6737241894842
30
-5.85759999999993
 70
     32
  0
VERTEX
  8
MY3DLAYER
10
30.7560125
20
32.6866651417393
30
-5.85759999999993
 70
     32
  0
VERTEX
  8
MY3DLAYER
10
30.7577162086855
20
32.6996060939945
30
-5.85759999999993
 70
     32
  0
VERTEX
  8
MY3DLAYER
10
30.7627112298108
20
32.7116651417393
30
-5.85759999999993
 70
     32
  0
VERTEX
  8
MY3DLAYER
10
30.3888762701892
20
32.9274988563093
30
-5.85759999999993
 70
     32
  0
VERTEX
  8
MY3DLAYER
10
30.3809303390593
20
32.91714351725
30
-5.85759999999993
 70
     32
  0
VERTEX
  8
MY3DLAYER
10
30.370575
20
32.9091975861201
30
-5.85759999999993
 70
     32
  0
VERTEX
  8
MY3DLAYER
10
30.3585159522551
20
32.9042025649949
30
-5.85759999999993
 70
     32
  0
VERTEX
  8
MY3DLAYER
10
30.345575
20
32.9024988563093
30
-5.85759999999993
 70
     32
  0
VERTEX
  8
MY3DLAYER
10
30.3326340477449
20
32.9042025649949
30
-5.85759999999993
 70
     32
  0
VERTEX
  8
MY3DLAYER
10
30.320575
20
32.9091975861201
30
-5.85759999999993
 70
     32
  0
VERTEX
  8
MY3DLAYER
10
30.3102196609407
20
32.91714351725
30
-5.85759999999993
 70
     32
  0
VERTEX
  8
MY3DLAYER
10
30.3022737298108
20
32.9274988563093
30
-5.85759999999993
 70
     32
  0
VERTEX
  8
MY3DLAYER
10
30.2972787086855
20
32.9395579040542
30
-5.85759999999993
 70
     32
  0
VERTEX
  8
MY3DLAYER
10
30.295575
20
32.9524988563093
30
-5.85759999999993
 70
     32
  0
VERTEX
  8
MY3DLAYER
10
30.2972787086855
20
32.9654398085645
30
-5.85759999999993
 70
     32
  0
VERTEX
  8
MY3DLAYER
10
30.3022737298108
20
32.9774988563093
30
-5.85759999999993
 70
     32
  0
VERTEX
  8
MY3DLAYER
10
30.3102196609407
20
32.9878541953687
30
-5.85759999999993
 70
     32
  0
VERTEX
  8
MY3DLAYER
10
30.320575
20
32.9958001264986
30
-5.85759999999993
 70
     32
  0
VERTEX
  8
MY3DLAYER
10
30.3326340477449
20
33.0007951476238
30
-5.85759999999993
 70
     32
  0
VERTEX
  8
MY3DLAYER
10
30.345575
20
33.0024988563093
30
-5.85759999999993
 70
     32
  0
VERTEX
  8
MY3DLAYER
10
30.345575
20
33.4341662854493
30
-5.85759999999993
 70
     32
  0
VERTEX
  8
MY3DLAYER
10
30.3326340477449
20
33.4358699941349
30
-5.85759999999993
 70
     32
  0
VERTEX
  8
MY3DLAYER
10
30.320575
20
33.4408650152601
30
-5.85759999999993
 70
     32
  0
VERTEX
  8
MY3DLAYER
10
30.3102196609407
20
33.44881094639
30
-5.85759999999993
 70
     32
  0
VERTEX
  8
MY3DLAYER
10
30.3022737298108
20
33.4591662854493
30
-5.85759999999993
 70
     32
  0
VERTEX
  8
MY3DLAYER
10
30.2972787086855
20
33.4712253331942
30
-5.85759999999993
 70
     32
  0
VERTEX
  8
MY3DLAYER
10
30.295575
20
33.4841662854493
30
-5.85759999999993
 70
     32
  0
VERTEX
  8
MY3DLAYER
10
30.2972787086855
20
33.4971072377045
30
-5.85759999999993
 70
     32
  0
VERTEX
  8
MY3DLAYER
10
30.3022737298108
20
33.5091662854493
30
-5.85759999999993
 70
     32
  0
VERTEX
  8
MY3DLAYER
10
30.3102196609407
20
33.5195216245087
30
-5.85759999999993
 70
     32
  0
VERTEX
  8
MY3DLAYER
10
30.320575
20
33.5274675556386
30
-5.85759999999993
 70
     32
  0
VERTEX
  8
MY3DLAYER
10
30.3326340477449
20
33.5324625767638
30
-5.85759999999993
 70
     32
  0
VERTEX
  8
MY3DLAYER
10
30.345575
20
33.5341662854493
30
-5.85759999999993
 70
     32
  0
VERTEX
  8
MY3DLAYER
10
30.3585159522551
20
33.5324625767638
30
-5.85759999999993
 70
     32
  0
VERTEX
  8
MY3DLAYER
10
30.370575
20
33.5274675556386
30
-5.85759999999993
 70
     32
  0
VERTEX
  8
MY3DLAYER
10
30.3809303390593
20
33.5195216245087
30
-5.85759999999993
 70
     32
  0
VERTEX
  8
MY3DLAYER
10
30.3888762701892
20
33.5091662854493
30
-5.85759999999993
 70
     32
  0
VERTEX
  8
MY3DLAYER
10
30.7627112298108
20
33.7250000000193
30
-5.85759999999993
 70
     32
  0
VERTEX
  8
MY3DLAYER
10
30.7577162086855
20
33.7370590477642
30
-5.85759999999993
 70
     32
  0
VERTEX
  8
MY3DLAYER
10
30.7560125
20
33.7500000000193
30
-5.85759999999993
 70
     32
  0
VERTEX
  8
MY3DLAYER
10
30.7577162086855
20
33.7629409522745
30
-5.85759999999993
 70
     32
  0
VERTEX
  8
MY3DLAYER
10
30.7627112298108
20
33.7750000000193
30
-5.85759999999993
 70
     32
  0
VERTEX
  8
MY3DLAYER
10
30.7706571609407
20
33.7853553390787
30
-5.85759999999993
 70
     32
  0
VERTEX
  8
MY3DLAYER
10
30.7810125
20
33.7933012702086
30
-5.85759999999993
 70
     32
  0
VERTEX
  8
MY3DLAYER
10
30.7930715477449
20
33.7982962913338
30
-5.85759999999993
 70
     32
  0
VERTEX
  8
MY3DLAYER
10
30.8060125
20
33.8000000000193
30
-5.85759999999993
 70
     32
  0
VERTEX
  8
MY3DLAYER
10
30.8189534522551
20
33.7982962913338
30
-5.85759999999993
 70
     32
  0
VERTEX
  8
MY3DLAYER
10
30.8310125
20
33.7933012702086
30
-5.85759999999993
 70
     32
  0
VERTEX
  8
MY3DLAYER
10
30.8413678390593
20
33.7853553390787
30
-5.85759999999993
 70
     32
  0
VERTEX
  8
MY3DLAYER
10
30.8493137701892
20
33.7750000000193
30
-5.85759999999993
 70
     32
  0
VERTEX
  8
MY3DLAYER
10
30.8543087913144
20
33.7629409522745
30
-5.85759999999993
 70
     32
  0
VERTEX
  8
MY3DLAYER
10
30.8560125
20
33.7500000000193
30
-5.85759999999993
 70
     32
  0
VERTEX
  8
MY3DLAYER
10
30.8543087913144
20
33.7370590477642
30
-5.85759999999993
 70
     32
  0
VERTEX
  8
MY3DLAYER
10
30.8493137701892
20
33.7250000000193
30
-5.85759999999993
 70
     32
  0
VERTEX
  8
MY3DLAYER
10
31.2231487298108
20
33.5091662854493
30
-5.85759999999993
 70
     32
  0
VERTEX
  8
MY3DLAYER
10
31.2310946609407
20
33.5195216245087
30
-5.85759999999993
 70
     32
  0
VERTEX
  8
MY3DLAYER
10
31.24145
20
33.5274675556386
30
-5.85759999999993
 70
     32
  0
VERTEX
  8
MY3DLAYER
10
31.2535090477449
20
33.5324625767638
30
-5.85759999999993
 70
     32
  0
VERTEX
  8
MY3DLAYER
10
31.26645
20
33.5341662854493
30
-5.85759999999993
 70
     32
  0
VERTEX
  8
MY3DLAYER
10
31.2793909522551
20
33.5324625767638
30
-5.85759999999993
 70
     32
  0
VERTEX
  8
MY3DLAYER
10
31.29145
20
33.5274675556386
30
-5.85759999999993
 70
     32
  0
VERTEX
  8
MY3DLAYER
10
31.3018053390593
20
33.5195216245087
30
-5.85759999999993
 70
     32
  0
VERTEX
  8
MY3DLAYER
10
31.3097512701892
20
33.5091662854493
30
-5.85759999999993
 70
     32
  0
VERTEX
  8
MY3DLAYER
10
31.3147462913144
20
33.4971072377045
30
-5.85759999999993
 70
     32
  0
SEQEND
  0
POLYLINE
 8
Layer0
 66
     1
70
    8
 10
0.0
 20
 0.0
 30
0.0
  0
VERTEX
  8
MY3DLAYER
10
29.2356212913117
20
33.4971072377045
30
-5.85759999999993
 70
     32
  0
VERTEX
  8
MY3DLAYER
10
29.2373249999972
20
33.4841662854493
30
-5.85759999999993
 70
     32
  0
VERTEX
  8
MY3DLAYER
10
29.2356212913117
20
33.4712253331942
30
-5.85759999999993
 70
     32
  0
VERTEX
  8
MY3DLAYER
10
29.2306262701865
20
33.4591662854493
30
-5.85759999999993
 70
     32
  0
VERTEX
  8
MY3DLAYER
10
29.2226803390566
20
33.44881094639
30
-5.85759999999993
 70
     32
  0
VERTEX
  8
MY3DLAYER
10
29.2123249999972
20
33.4408650152601
30
-5.85759999999993
 70
     32
  0
VERTEX
  8
MY3DLAYER
10
29.2002659522524
20
33.4358699941349
30
-5.85759999999993
 70
     32
  0
VERTEX
  8
MY3DLAYER
10
29.1873249999972
20
33.4341662854493
30
-5.85759999999993
 70
     32
  0
VERTEX
  8
MY3DLAYER
10
29.1873249999972
20
33.0024988563093
30
-5.85759999999993
 70
     32
  0
VERTEX
  8
MY3DLAYER
10
29.2002659522524
20
33.0007951476238
30
-5.85759999999993
 70
     32
  0
VERTEX
  8
MY3DLAYER
10
29.2123249999972
20
32.9958001264986
30
-5.85759999999993
 70
     32
  0
VERTEX
  8
MY3DLAYER
10
29.2226803390566
20
32.9878541953687
30
-5.85759999999993
 70
     32
  0
VERTEX
  8
MY3DLAYER
10
29.2306262701865
20
32.9774988563093
30
-5.85759999999993
 70
     32
  0
VERTEX
  8
MY3DLAYER
10
29.2356212913117
20
32.9654398085645
30
-5.85759999999993
 70
     32
  0
VERTEX
  8
MY3DLAYER
10
29.2373249999972
20
32.9524988563093
30
-5.85759999999993
 70
     32
  0
VERTEX
  8
MY3DLAYER
10
29.2356212913117
20
32.9395579040542
30
-5.85759999999993
 70
     32
  0
VERTEX
  8
MY3DLAYER
10
29.2306262701865
20
32.9274988563093
30
-5.85759999999993
 70
     32
  0
VERTEX
  8
MY3DLAYER
10
29.2226803390566
20
32.91714351725
30
-5.85759999999993
 70
     32
  0
VERTEX
  8
MY3DLAYER
10
29.2123249999972
20
32.9091975861201
30
-5.85759999999993
 70
     32
  0
VERTEX
  8
MY3DLAYER
10
29.2002659522524
20
32.9042025649949
30
-5.85759999999993
 70
     32
  0
VERTEX
  8
MY3DLAYER
10
29.1873249999972
20
32.9024988563093
30
-5.85759999999993
 70
     32
  0
VERTEX
  8
MY3DLAYER
10
29.1743840477421
20
32.9042025649949
30
-5.85759999999993
 70
     32
  0
VERTEX
  8
MY3DLAYER
10
29.1623249999972
20
32.9091975861201
30
-5.85759999999993
 70
     32
  0
VERTEX
  8
MY3DLAYER
10
29.1519696609379
20
32.91714351725
30
-5.85759999999993
 70
     32
  0
VERTEX
  8
MY3DLAYER
10
29.144023729808
20
32.9274988563093
30
-5.85759999999993
 70
     32
  0
VERTEX
  8
MY3DLAYER
10
28.7701887701865
20
32.7116651417393
30
-5.85759999999993
 70
     32
  0
VERTEX
  8
MY3DLAYER
10
28.7751837913117
20
32.6996060939945
30
-5.85759999999993
 70
     32
  0
VERTEX
  8
MY3DLAYER
10
28.7768874999972
20
32.6866651417393
30
-5.85759999999993
 70
     32
  0
VERTEX
  8
MY3DLAYER
10
28.7751837913117
20
32.6737241894842
30
-5.85759999999993
 70
     32
  0
VERTEX
  8
MY3DLAYER
10
28.7701887701865
20
32.6616651417393
30
-5.85759999999993
 70
     32
  0
VERTEX
  8
MY3DLAYER
10
28.7622428390566
20
32.65130980268
30
-5.85759999999993
 70
     32
  0
VERTEX
  8
MY3DLAYER
10
28.7518874999972
20
32.6433638715501
30
-5.85759999999993
 70
     32
  0
VERTEX
  8
MY3DLAYER
10
28.7398284522524
20
32.6383688504249
30
-5.85759999999993
 70
     32
  0
VERTEX
  8
MY3DLAYER
10
28.7268874999972
20
32.6366651417393
30
-5.85759999999993
 70
     32
  0
VERTEX
  8
MY3DLAYER
10
28.7139465477421
20
32.6383688504249
30
-5.85759999999993
 70
     32
  0
VERTEX
  8
MY3DLAYER
10
28.7018874999972
20
32.6433638715501
30
-5.85759999999993
 70
     32
  0
VERTEX
  8
MY3DLAYER
10
28.6915321609379
20
32.65130980268
30
-5.85759999999993
 70
     32
  0
VERTEX
  8
MY3DLAYER
10
28.683586229808
20
32.6616651417393
30
-5.85759999999993
 70
     32
  0
VERTEX
  8
MY3DLAYER
10
28.6785912086828
20
32.6737241894842
30
-5.85759999999993
 70
     32
  0
VERTEX
  8
MY3DLAYER
10
28.6768874999972
20
32.6866651417393
30
-5.85759999999993
 70
     32
  0
VERTEX
  8
MY3DLAYER
10
28.6785912086828
20
32.6996060939945
30
-5.85759999999993
 70
     32
  0
VERTEX
  8
MY3DLAYER
10
28.683586229808
20
32.7116651417393
30
-5.85759999999993
 70
     32
  0
VERTEX
  8
MY3DLAYER
10
28.3097512701865
20
32.9274988563093
30
-5.85759999999993
 70
     32
  0
VERTEX
  8
MY3DLAYER
10
28.3018053390566
20
32.91714351725
30
-5.85759999999993
 70
     32
  0
VERTEX
  8
MY3DLAYER
10
28.2914499999972
20
32.9091975861201
30
-5.85759999999993
 70
     32
  0
VERTEX
  8
MY3DLAYER
10
28.2793909522524
20
32.9042025649949
30
-5.85759999999993
 70
     32
  0
VERTEX
  8
MY3DLAYER
10
28.2664499999972
20
32.9024988563093
30
-5.85759999999993
 70
     32
  0
VERTEX
  8
MY3DLAYER
10
28.2535090477421
20
32.9042025649949
30
-5.85759999999993
 70
     32
  0
VERTEX
  8
MY3DLAYER
10
28.2414499999972
20
32.9091975861201
30
-5.85759999999993
 70
     32
  0
VERTEX
  8
MY3DLAYER
10
28.2310946609379
20
32.91714351725
30
-5.85759999999993
 70
     32
  0
VERTEX
  8
MY3DLAYER
10
28.223148729808
20
32.9274988563093
30
-5.85759999999993
 70
     32
  0
VERTEX
  8
MY3DLAYER
10
28.2181537086828
20
32.9395579040542
30
-5.85759999999993
 70
     32
  0
VERTEX
  8
MY3DLAYER
10
28.2164499999972
20
32.9524988563093
30
-5.85759999999993
 70
     32
  0
VERTEX
  8
MY3DLAYER
10
28.2181537086828
20
32.9654398085645
30
-5.85759999999993
 70
     32
  0
VERTEX
  8
MY3DLAYER
10
28.223148729808
20
32.9774988563093
30
-5.85759999999993
 70
     32
  0
VERTEX
  8
MY3DLAYER
10
28.2310946609379
20
32.9878541953687
30
-5.85759999999993
 70
     32
  0
VERTEX
  8
MY3DLAYER
10
28.2414499999972
20
32.9958001264986
30
-5.85759999999993
 70
     32
  0
VERTEX
  8
MY3DLAYER
10
28.2535090477421
20
33.0007951476238
30
-5.85759999999993
 70
     32
  0
VERTEX
  8
MY3DLAYER
10
28.2664499999972
20
33.0024988563093
30
-5.85759999999993
 70
     32
  0
VERTEX
  8
MY3DLAYER
10
28.2664499999972
20
33.4341662854493
30
-5.85759999999993
 70
     32
  0
VERTEX
  8
MY3DLAYER
10
28.2535090477421
20
33.4358699941349
30
-5.85759999999993
 70
     32
  0
VERTEX
  8
MY3DLAYER
10
28.2414499999972
20
33.4408650152601
30
-5.85759999999993
 70
     32
  0
VERTEX
  8
MY3DLAYER
10
28.2310946609379
20
33.44881094639
30
-5.85759999999993
 70
     32
  0
VERTEX
  8
MY3DLAYER
10
28.223148729808
20
33.4591662854493
30
-5.85759999999993
 70
     32
  0
VERTEX
  8
MY3DLAYER
10
28.2181537086828
20
33.4712253331942
30
-5.85759999999993
 70
     32
  0
VERTEX
  8
MY3DLAYER
10
28.2164499999972
20
33.4841662854493
30
-5.85759999999993
 70
     32
  0
VERTEX
  8
MY3DLAYER
10
28.2181537086828
20
33.4971072377045
30
-5.85759999999993
 70
     32
  0
VERTEX
  8
MY3DLAYER
10
28.223148729808
20
33.5091662854493
30
-5.85759999999993
 70
     32
  0
VERTEX
  8
MY3DLAYER
10
28.2310946609379
20
33.5195216245087
30
-5.85759999999993
 70
     32
  0
VERTEX
  8
MY3DLAYER
10
28.2414499999972
20
33.5274675556386
30
-5.85759999999993
 70
     32
  0
VERTEX
  8
MY3DLAYER
10
28.2535090477421
20
33.5324625767638
30
-5.85759999999993
 70
     32
  0
VERTEX
  8
MY3DLAYER
10
28.2664499999972
20
33.5341662854493
30
-5.85759999999993
 70
     32
  0
VERTEX
  8
MY3DLAYER
10
28.2793909522524
20
33.5324625767638
30
-5.85759999999993
 70
     32
  0
VERTEX
  8
MY3DLAYER
10
28.2914499999972
20
33.5274675556386
30
-5.85759999999993
 70
     32
  0
VERTEX
  8
MY3DLAYER
10
28.3018053390566
20
33.5195216245087
30
-5.85759999999993
 70
     32
  0
VERTEX
  8
MY3DLAYER
10
28.3097512701865
20
33.5091662854493
30
-5.85759999999993
 70
     32
  0
VERTEX
  8
MY3DLAYER
10
28.683586229808
20
33.7250000000193
30
-5.85759999999993
 70
     32
  0
VERTEX
  8
MY3DLAYER
10
28.6785912086828
20
33.7370590477642
30
-5.85759999999993
 70
     32
  0
VERTEX
  8
MY3DLAYER
10
28.6768874999972
20
33.7500000000193
30
-5.85759999999993
 70
     32
  0
VERTEX
  8
MY3DLAYER
10
28.6785912086828
20
33.7629409522745
30
-5.85759999999993
 70
     32
  0
VERTEX
  8
MY3DLAYER
10
28.683586229808
20
33.7750000000193
30
-5.85759999999993
 70
     32
  0
VERTEX
  8
MY3DLAYER
10
28.6915321609379
20
33.7853553390787
30
-5.85759999999993
 70
     32
  0
VERTEX
  8
MY3DLAYER
10
28.7018874999972
20
33.7933012702086
30
-5.85759999999993
 70
     32
  0
VERTEX
  8
MY3DLAYER
10
28.7139465477421
20
33.7982962913338
30
-5.85759999999993
 70
     32
  0
VERTEX
  8
MY3DLAYER
10
28.7268874999972
20
33.8000000000193
30
-5.85759999999993
 70
     32
  0
VERTEX
  8
MY3DLAYER
10
28.7398284522524
20
33.7982962913338
30
-5.85759999999993
 70
     32
  0
VERTEX
  8
MY3DLAYER
10
28.7518874999972
20
33.7933012702086
30
-5.85759999999993
 70
     32
  0
VERTEX
  8
MY3DLAYER
10
28.7622428390566
20
33.7853553390787
30
-5.85759999999993
 70
     32
  0
VERTEX
  8
MY3DLAYER
10
28.7701887701865
20
33.7750000000193
30
-5.85759999999993
 70
     32
  0
VERTEX
  8
MY3DLAYER
10
28.7751837913117
20
33.7629409522745
30
-5.85759999999993
 70
     32
  0
VERTEX
  8
MY3DLAYER
10
28.7768874999972
20
33.7500000000193
30
-5.85759999999993
 70
     32
  0
VERTEX
  8
MY3DLAYER
10
28.7751837913117
20
33.7370590477642
30
-5.85759999999993
 70
     32
  0
VERTEX
  8
MY3DLAYER
10
28.7701887701865
20
33.7250000000193
30
-5.85759999999993
 70
     32
  0
VERTEX
  8
MY3DLAYER
10
29.144023729808
20
33.5091662854493
30
-5.85759999999993
 70
     32
  0
VERTEX
  8
MY3DLAYER
10
29.1519696609379
20
33.5195216245087
30
-5.85759999999993
 70
     32
  0
VERTEX
  8
MY3DLAYER
10
29.1623249999972
20
33.5274675556386
30
-5.85759999999993
 70
     32
  0
VERTEX
  8
MY3DLAYER
10
29.1743840477421
20
33.5324625767638
30
-5.85759999999993
 70
     32
  0
VERTEX
  8
MY3DLAYER
10
29.1873249999972
20
33.5341662854493
30
-5.85759999999993
 70
     32
  0
VERTEX
  8
MY3DLAYER
10
29.2002659522524
20
33.5324625767638
30
-5.85759999999993
 70
     32
  0
VERTEX
  8
MY3DLAYER
10
29.2123249999972
20
33.5274675556386
30
-5.85759999999993
 70
     32
  0
VERTEX
  8
MY3DLAYER
10
29.2226803390566
20
33.5195216245087
30
-5.85759999999993
 70
     32
  0
VERTEX
  8
MY3DLAYER
10
29.2306262701865
20
33.5091662854493
30
-5.85759999999993
 70
     32
  0
VERTEX
  8
MY3DLAYER
10
29.2356212913117
20
33.4971072377045
30
-5.85759999999993
 70
     32
  0
SEQEND
  0
POLYLINE
 8
Layer0
 66
     1
70
    8
 10
0.0
 20
 0.0
 30
0.0
  0
VERTEX
  8
MY3DLAYER
10
31.3147462913144
20
31.6854402377045
30
-5.85759999999993
 70
     32
  0
VERTEX
  8
MY3DLAYER
10
31.31645
20
31.6724992854493
30
-5.85759999999993
 70
     32
  0
VERTEX
  8
MY3DLAYER
10
31.3147462913144
20
31.6595583331942
30
-5.85759999999993
 70
     32
  0
VERTEX
  8
MY3DLAYER
10
31.3097512701892
20
31.6474992854493
30
-5.85759999999993
 70
     32
  0
VERTEX
  8
MY3DLAYER
10
31.3018053390593
20
31.63714394639
30
-5.85759999999993
 70
     32
  0
VERTEX
  8
MY3DLAYER
10
31.29145
20
31.6291980152601
30
-5.85759999999993
 70
     32
  0
VERTEX
  8
MY3DLAYER
10
31.2793909522551
20
31.6242029941349
30
-5.85759999999993
 70
     32
  0
VERTEX
  8
MY3DLAYER
10
31.26645
20
31.6224992854493
30
-5.85759999999993
 70
     32
  0
VERTEX
  8
MY3DLAYER
10
31.26645
20
31.1908318563093
30
-5.85759999999993
 70
     32
  0
VERTEX
  8
MY3DLAYER
10
31.2793909522551
20
31.1891281476238
30
-5.85759999999993
 70
     32
  0
VERTEX
  8
MY3DLAYER
10
31.29145
20
31.1841331264986
30
-5.85759999999993
 70
     32
  0
VERTEX
  8
MY3DLAYER
10
31.3018053390593
20
31.1761871953687
30
-5.85759999999993
 70
     32
  0
VERTEX
  8
MY3DLAYER
10
31.3097512701892
20
31.1658318563093
30
-5.85759999999993
 70
     32
  0
VERTEX
  8
MY3DLAYER
10
31.3147462913144
20
31.1537728085645
30
-5.85759999999993
 70
     32
  0
VERTEX
  8
MY3DLAYER
10
31.31645
20
31.1408318563093
30
-5.85759999999993
 70
     32
  0
VERTEX
  8
MY3DLAYER
10
31.3147462913144
20
31.1278909040542
30
-5.85759999999993
 70
     32
  0
VERTEX
  8
MY3DLAYER
10
31.3097512701892
20
31.1158318563093
30
-5.85759999999993
 70
     32
  0
VERTEX
  8
MY3DLAYER
10
31.3018053390593
20
31.10547651725
30
-5.85759999999993
 70
     32
  0
VERTEX
  8
MY3DLAYER
10
31.29145
20
31.0975305861201
30
-5.85759999999993
 70
     32
  0
VERTEX
  8
MY3DLAYER
10
31.2793909522551
20
31.0925355649949
30
-5.85759999999993
 70
     32
  0
VERTEX
  8
MY3DLAYER
10
31.26645
20
31.0908318563093
30
-5.85759999999993
 70
     32
  0
VERTEX
  8
MY3DLAYER
10
31.2535090477449
20
31.0925355649949
30
-5.85759999999993
 70
     32
  0
VERTEX
  8
MY3DLAYER
10
31.24145
20
31.0975305861201
30
-5.85759999999993
 70
     32
  0
VERTEX
  8
MY3DLAYER
10
31.2310946609407
20
31.10547651725
30
-5.85759999999993
 70
     32
  0
VERTEX
  8
MY3DLAYER
10
31.2231487298108
20
31.1158318563093
30
-5.85759999999993
 70
     32
  0
VERTEX
  8
MY3DLAYER
10
30.8493137701892
20
30.8999981417393
30
-5.85759999999993
 70
     32
  0
VERTEX
  8
MY3DLAYER
10
30.8543087913144
20
30.8879390939945
30
-5.85759999999993
 70
     32
  0
VERTEX
  8
MY3DLAYER
10
30.8560125
20
30.8749981417393
30
-5.85759999999993
 70
     32
  0
VERTEX
  8
MY3DLAYER
10
30.8543087913144
20
30.8620571894842
30
-5.85759999999993
 70
     32
  0
VERTEX
  8
MY3DLAYER
10
30.8493137701892
20
30.8499981417393
30
-5.85759999999993
 70
     32
  0
VERTEX
  8
MY3DLAYER
10
30.8413678390593
20
30.83964280268
30
-5.85759999999993
 70
     32
  0
VERTEX
  8
MY3DLAYER
10
30.8310125
20
30.8316968715501
30
-5.85759999999993
 70
     32
  0
VERTEX
  8
MY3DLAYER
10
30.8189534522551
20
30.8267018504249
30
-5.85759999999993
 70
     32
  0
VERTEX
  8
MY3DLAYER
10
30.8060125
20
30.8249981417393
30
-5.85759999999993
 70
     32
  0
VERTEX
  8
MY3DLAYER
10
30.7930715477449
20
30.8267018504249
30
-5.85759999999993
 70
     32
  0
VERTEX
  8
MY3DLAYER
10
30.7810125
20
30.8316968715501
30
-5.85759999999993
 70
     32
  0
VERTEX
  8
MY3DLAYER
10
30.7706571609407
20
30.83964280268
30
-5.85759999999993
 70
     32
  0
VERTEX
  8
MY3DLAYER
10
30.7627112298108
20
30.8499981417393
30
-5.85759999999993
 70
     32
  0
VERTEX
  8
MY3DLAYER
10
30.7577162086855
20
30.8620571894842
30
-5.85759999999993
 70
     32
  0
VERTEX
  8
MY3DLAYER
10
30.7560125
20
30.8749981417393
30
-5.85759999999993
 70
     32
  0
VERTEX
  8
MY3DLAYER
10
30.7577162086855
20
30.8879390939945
30
-5.85759999999993
 70
     32
  0
VERTEX
  8
MY3DLAYER
10
30.7627112298108
20
30.8999981417393
30
-5.85759999999993
 70
     32
  0
VERTEX
  8
MY3DLAYER
10
30.3888762701892
20
31.1158318563093
30
-5.85759999999993
 70
     32
  0
VERTEX
  8
MY3DLAYER
10
30.3809303390593
20
31.10547651725
30
-5.85759999999993
 70
     32
  0
VERTEX
  8
MY3DLAYER
10
30.370575
20
31.0975305861201
30
-5.85759999999993
 70
     32
  0
VERTEX
  8
MY3DLAYER
10
30.3585159522551
20
31.0925355649949
30
-5.85759999999993
 70
     32
  0
VERTEX
  8
MY3DLAYER
10
30.345575
20
31.0908318563093
30
-5.85759999999993
 70
     32
  0
VERTEX
  8
MY3DLAYER
10
30.3326340477449
20
31.0925355649949
30
-5.85759999999993
 70
     32
  0
VERTEX
  8
MY3DLAYER
10
30.320575
20
31.0975305861201
30
-5.85759999999993
 70
     32
  0
VERTEX
  8
MY3DLAYER
10
30.3102196609407
20
31.10547651725
30
-5.85759999999993
 70
     32
  0
VERTEX
  8
MY3DLAYER
10
30.3022737298108
20
31.1158318563093
30
-5.85759999999993
 70
     32
  0
VERTEX
  8
MY3DLAYER
10
30.2972787086855
20
31.1278909040542
30
-5.85759999999993
 70
     32
  0
VERTEX
  8
MY3DLAYER
10
30.295575
20
31.1408318563093
30
-5.85759999999993
 70
     32
  0
VERTEX
  8
MY3DLAYER
10
30.2972787086855
20
31.1537728085645
30
-5.85759999999993
 70
     32
  0
VERTEX
  8
MY3DLAYER
10
30.3022737298108
20
31.1658318563093
30
-5.85759999999993
 70
     32
  0
VERTEX
  8
MY3DLAYER
10
30.3102196609407
20
31.1761871953687
30
-5.85759999999993
 70
     32
  0
VERTEX
  8
MY3DLAYER
10
30.320575
20
31.1841331264986
30
-5.85759999999993
 70
     32
  0
VERTEX
  8
MY3DLAYER
10
30.3326340477449
20
31.1891281476238
30
-5.85759999999993
 70
     32
  0
VERTEX
  8
MY3DLAYER
10
30.345575
20
31.1908318563093
30
-5.85759999999993
 70
     32
  0
VERTEX
  8
MY3DLAYER
10
30.345575
20
31.6224992854493
30
-5.85759999999993
 70
     32
  0
VERTEX
  8
MY3DLAYER
10
30.3326340477449
20
31.6242029941349
30
-5.85759999999993
 70
     32
  0
VERTEX
  8
MY3DLAYER
10
30.320575
20
31.6291980152601
30
-5.85759999999993
 70
     32
  0
VERTEX
  8
MY3DLAYER
10
30.3102196609407
20
31.63714394639
30
-5.85759999999993
 70
     32
  0
VERTEX
  8
MY3DLAYER
10
30.3022737298108
20
31.6474992854493
30
-5.85759999999993
 70
     32
  0
VERTEX
  8
MY3DLAYER
10
30.2972787086855
20
31.6595583331942
30
-5.85759999999993
 70
     32
  0
VERTEX
  8
MY3DLAYER
10
30.295575
20
31.6724992854493
30
-5.85759999999993
 70
     32
  0
VERTEX
  8
MY3DLAYER
10
30.2972787086855
20
31.6854402377045
30
-5.85759999999993
 70
     32
  0
VERTEX
  8
MY3DLAYER
10
30.3022737298108
20
31.6974992854493
30
-5.85759999999993
 70
     32
  0
VERTEX
  8
MY3DLAYER
10
30.3102196609407
20
31.7078546245087
30
-5.85759999999993
 70
     32
  0
VERTEX
  8
MY3DLAYER
10
30.320575
20
31.7158005556386
30
-5.85759999999993
 70
     32
  0
VERTEX
  8
MY3DLAYER
10
30.3326340477449
20
31.7207955767638
30
-5.85759999999993
 70
     32
  0
VERTEX
  8
MY3DLAYER
10
30.345575
20
31.7224992854493
30
-5.85759999999993
 70
     32
  0
VERTEX
  8
MY3DLAYER
10
30.3585159522551
20
31.7207955767638
30
-5.85759999999993
 70
     32
  0
VERTEX
  8
MY3DLAYER
10
30.370575
20
31.7158005556386
30
-5.85759999999993
 70
     32
  0
VERTEX
  8
MY3DLAYER
10
30.3809303390593
20
31.7078546245087
30
-5.85759999999993
 70
     32
  0
VERTEX
  8
MY3DLAYER
10
30.3888762701892
20
31.6974992854493
30
-5.85759999999993
 70
     32
  0
VERTEX
  8
MY3DLAYER
10
30.7627112298108
20
31.9133330000193
30
-5.85759999999993
 70
     32
  0
VERTEX
  8
MY3DLAYER
10
30.7577162086855
20
31.9253920477642
30
-5.85759999999993
 70
     32
  0
VERTEX
  8
MY3DLAYER
10
30.7560125
20
31.9383330000193
30
-5.85759999999993
 70
     32
  0
VERTEX
  8
MY3DLAYER
10
30.7577162086855
20
31.9512739522745
30
-5.85759999999993
 70
     32
  0
VERTEX
  8
MY3DLAYER
10
30.7627112298108
20
31.9633330000193
30
-5.85759999999993
 70
     32
  0
VERTEX
  8
MY3DLAYER
10
30.7706571609407
20
31.9736883390787
30
-5.85759999999993
 70
     32
  0
VERTEX
  8
MY3DLAYER
10
30.7810125
20
31.9816342702086
30
-5.85759999999993
 70
     32
  0
VERTEX
  8
MY3DLAYER
10
30.7930715477449
20
31.9866292913338
30
-5.85759999999993
 70
     32
  0
VERTEX
  8
MY3DLAYER
10
30.8060125
20
31.9883330000193
30
-5.85759999999993
 70
     32
  0
VERTEX
  8
MY3DLAYER
10
30.8189534522551
20
31.9866292913338
30
-5.85759999999993
 70
     32
  0
VERTEX
  8
MY3DLAYER
10
30.8310125
20
31.9816342702086
30
-5.85759999999993
 70
     32
  0
VERTEX
  8
MY3DLAYER
10
30.8413678390593
20
31.9736883390787
30
-5.85759999999993
 70
     32
  0
VERTEX
  8
MY3DLAYER
10
30.8493137701892
20
31.9633330000193
30
-5.85759999999993
 70
     32
  0
VERTEX
  8
MY3DLAYER
10
30.8543087913144
20
31.9512739522745
30
-5.85759999999993
 70
     32
  0
VERTEX
  8
MY3DLAYER
10
30.8560125
20
31.9383330000193
30
-5.85759999999993
 70
     32
  0
VERTEX
  8
MY3DLAYER
10
30.8543087913144
20
31.9253920477642
30
-5.85759999999993
 70
     32
  0
VERTEX
  8
MY3DLAYER
10
30.8493137701892
20
31.9133330000193
30
-5.85759999999993
 70
     32
  0
VERTEX
  8
MY3DLAYER
10
31.2231487298108
20
31.6974992854493
30
-5.85759999999993
 70
     32
  0
VERTEX
  8
MY3DLAYER
10
31.2310946609407
20
31.7078546245087
30
-5.85759999999993
 70
     32
  0
VERTEX
  8
MY3DLAYER
10
31.24145
20
31.7158005556386
30
-5.85759999999993
 70
     32
  0
VERTEX
  8
MY3DLAYER
10
31.2535090477449
20
31.7207955767638
30
-5.85759999999993
 70
     32
  0
VERTEX
  8
MY3DLAYER
10
31.26645
20
31.7224992854493
30
-5.85759999999993
 70
     32
  0
VERTEX
  8
MY3DLAYER
10
31.2793909522551
20
31.7207955767638
30
-5.85759999999993
 70
     32
  0
VERTEX
  8
MY3DLAYER
10
31.29145
20
31.7158005556386
30
-5.85759999999993
 70
     32
  0
VERTEX
  8
MY3DLAYER
10
31.3018053390593
20
31.7078546245087
30
-5.85759999999993
 70
     32
  0
VERTEX
  8
MY3DLAYER
10
31.3097512701892
20
31.6974992854493
30
-5.85759999999993
 70
     32
  0
VERTEX
  8
MY3DLAYER
10
31.3147462913144
20
31.6854402377045
30
-5.85759999999993
 70
     32
  0
SEQEND
  0
POLYLINE
 8
Layer0
 66
     1
70
    8
 10
0.0
 20
 0.0
 30
0.0
  0
VERTEX
  8
MY3DLAYER
10
29.2356212913117
20
31.6854402377045
30
-5.85759999999993
 70
     32
  0
VERTEX
  8
MY3DLAYER
10
29.2373249999972
20
31.6724992854493
30
-5.85759999999993
 70
     32
  0
VERTEX
  8
MY3DLAYER
10
29.2356212913117
20
31.6595583331942
30
-5.85759999999993
 70
     32
  0
VERTEX
  8
MY3DLAYER
10
29.2306262701865
20
31.6474992854493
30
-5.85759999999993
 70
     32
  0
VERTEX
  8
MY3DLAYER
10
29.2226803390566
20
31.63714394639
30
-5.85759999999993
 70
     32
  0
VERTEX
  8
MY3DLAYER
10
29.2123249999972
20
31.6291980152601
30
-5.85759999999993
 70
     32
  0
VERTEX
  8
MY3DLAYER
10
29.2002659522524
20
31.6242029941349
30
-5.85759999999993
 70
     32
  0
VERTEX
  8
MY3DLAYER
10
29.1873249999972
20
31.6224992854493
30
-5.85759999999993
 70
     32
  0
VERTEX
  8
MY3DLAYER
10
29.1873249999972
20
31.1908318563093
30
-5.85759999999993
 70
     32
  0
VERTEX
  8
MY3DLAYER
10
29.2002659522524
20
31.1891281476238
30
-5.85759999999993
 70
     32
  0
VERTEX
  8
MY3DLAYER
10
29.2123249999972
20
31.1841331264986
30
-5.85759999999993
 70
     32
  0
VERTEX
  8
MY3DLAYER
10
29.2226803390566
20
31.1761871953687
30
-5.85759999999993
 70
     32
  0
VERTEX
  8
MY3DLAYER
10
29.2306262701865
20
31.1658318563093
30
-5.85759999999993
 70
     32
  0
VERTEX
  8
MY3DLAYER
10
29.2356212913117
20
31.1537728085645
30
-5.85759999999993
 70
     32
  0
VERTEX
  8
MY3DLAYER
10
29.2373249999972
20
31.1408318563093
30
-5.85759999999993
 70
     32
  0
VERTEX
  8
MY3DLAYER
10
29.2356212913117
20
31.1278909040542
30
-5.85759999999993
 70
     32
  0
VERTEX
  8
MY3DLAYER
10
29.2306262701865
20
31.1158318563093
30
-5.85759999999993
 70
     32
  0
VERTEX
  8
MY3DLAYER
10
29.2226803390566
20
31.10547651725
30
-5.85759999999993
 70
     32
  0
VERTEX
  8
MY3DLAYER
10
29.2123249999972
20
31.0975305861201
30
-5.85759999999993
 70
     32
  0
VERTEX
  8
MY3DLAYER
10
29.2002659522524
20
31.0925355649949
30
-5.85759999999993
 70
     32
  0
VERTEX
  8
MY3DLAYER
10
29.1873249999972
20
31.0908318563093
30
-5.85759999999993
 70
     32
  0
VERTEX
  8
MY3DLAYER
10
29.1743840477421
20
31.0925355649949
30
-5.85759999999993
 70
     32
  0
VERTEX
  8
MY3DLAYER
10
29.1623249999972
20
31.0975305861201
30
-5.85759999999993
 70
     32
  0
VERTEX
  8
MY3DLAYER
10
29.1519696609379
20
31.10547651725
30
-5.85759999999993
 70
     32
  0
VERTEX
  8
MY3DLAYER
10
29.144023729808
20
31.1158318563093
30
-5.85759999999993
 70
     32
  0
VERTEX
  8
MY3DLAYER
10
28.7701887701865
20
30.8999981417393
30
-5.85759999999993
 70
     32
  0
VERTEX
  8
MY3DLAYER
10
28.7751837913117
20
30.8879390939945
30
-5.85759999999993
 70
     32
  0
VERTEX
  8
MY3DLAYER
10
28.7768874999972
20
30.8749981417393
30
-5.85759999999993
 70
     32
  0
VERTEX
  8
MY3DLAYER
10
28.7751837913117
20
30.8620571894842
30
-5.85759999999993
 70
     32
  0
VERTEX
  8
MY3DLAYER
10
28.7701887701865
20
30.8499981417393
30
-5.85759999999993
 70
     32
  0
VERTEX
  8
MY3DLAYER
10
28.7622428390566
20
30.83964280268
30
-5.85759999999993
 70
     32
  0
VERTEX
  8
MY3DLAYER
10
28.7518874999972
20
30.8316968715501
30
-5.85759999999993
 70
     32
  0
VERTEX
  8
MY3DLAYER
10
28.7398284522524
20
30.8267018504249
30
-5.85759999999993
 70
     32
  0
VERTEX
  8
MY3DLAYER
10
28.7268874999972
20
30.8249981417393
30
-5.85759999999993
 70
     32
  0
VERTEX
  8
MY3DLAYER
10
28.7139465477421
20
30.8267018504249
30
-5.85759999999993
 70
     32
  0
VERTEX
  8
MY3DLAYER
10
28.7018874999972
20
30.8316968715501
30
-5.85759999999993
 70
     32
  0
VERTEX
  8
MY3DLAYER
10
28.6915321609379
20
30.83964280268
30
-5.85759999999993
 70
     32
  0
VERTEX
  8
MY3DLAYER
10
28.683586229808
20
30.8499981417393
30
-5.85759999999993
 70
     32
  0
VERTEX
  8
MY3DLAYER
10
28.6785912086828
20
30.8620571894842
30
-5.85759999999993
 70
     32
  0
VERTEX
  8
MY3DLAYER
10
28.6768874999972
20
30.8749981417393
30
-5.85759999999993
 70
     32
  0
VERTEX
  8
MY3DLAYER
10
28.6785912086828
20
30.8879390939945
30
-5.85759999999993
 70
     32
  0
VERTEX
  8
MY3DLAYER
10
28.683586229808
20
30.8999981417393
30
-5.85759999999993
 70
     32
  0
VERTEX
  8
MY3DLAYER
10
28.3097512701865
20
31.1158318563093
30
-5.85759999999993
 70
     32
  0
VERTEX
  8
MY3DLAYER
10
28.3018053390566
20
31.10547651725
30
-5.85759999999993
 70
     32
  0
VERTEX
  8
MY3DLAYER
10
28.2914499999972
20
31.0975305861201
30
-5.85759999999993
 70
     32
  0
VERTEX
  8
MY3DLAYER
10
28.2793909522524
20
31.0925355649949
30
-5.85759999999993
 70
     32
  0
VERTEX
  8
MY3DLAYER
10
28.2664499999972
20
31.0908318563093
30
-5.85759999999993
 70
     32
  0
VERTEX
  8
MY3DLAYER
10
28.2535090477421
20
31.0925355649949
30
-5.85759999999993
 70
     32
  0
VERTEX
  8
MY3DLAYER
10
28.2414499999972
20
31.0975305861201
30
-5.85759999999993
 70
     32
  0
VERTEX
  8
MY3DLAYER
10
28.2310946609379
20
31.10547651725
30
-5.85759999999993
 70
     32
  0
VERTEX
  8
MY3DLAYER
10
28.223148729808
20
31.1158318563093
30
-5.85759999999993
 70
     32
  0
VERTEX
  8
MY3DLAYER
10
28.2181537086828
20
31.1278909040542
30
-5.85759999999993
 70
     32
  0
VERTEX
  8
MY3DLAYER
10
28.2164499999972
20
31.1408318563093
30
-5.85759999999993
 70
     32
  0
VERTEX
  8
MY3DLAYER
10
28.2181537086828
20
31.1537728085645
30
-5.85759999999993
 70
     32
  0
VERTEX
  8
MY3DLAYER
10
28.223148729808
20
31.1658318563093
30
-5.85759999999993
 70
     32
  0
VERTEX
  8
MY3DLAYER
10
28.2310946609379
20
31.1761871953687
30
-5.85759999999993
 70
     32
  0
VERTEX
  8
MY3DLAYER
10
28.2414499999972
20
31.1841331264986
30
-5.85759999999993
 70
     32
  0
VERTEX
  8
MY3DLAYER
10
28.2535090477421
20
31.1891281476238
30
-5.85759999999993
 70
     32
  0
VERTEX
  8
MY3DLAYER
10
28.2664499999972
20
31.1908318563093
30
-5.85759999999993
 70
     32
  0
VERTEX
  8
MY3DLAYER
10
28.2664499999972
20
31.6224992854493
30
-5.85759999999993
 70
     32
  0
VERTEX
  8
MY3DLAYER
10
28.2535090477421
20
31.6242029941349
30
-5.85759999999993
 70
     32
  0
VERTEX
  8
MY3DLAYER
10
28.2414499999972
20
31.6291980152601
30
-5.85759999999993
 70
     32
  0
VERTEX
  8
MY3DLAYER
10
28.2310946609379
20
31.63714394639
30
-5.85759999999993
 70
     32
  0
VERTEX
  8
MY3DLAYER
10
28.223148729808
20
31.6474992854493
30
-5.85759999999993
 70
     32
  0
VERTEX
  8
MY3DLAYER
10
28.2181537086828
20
31.6595583331942
30
-5.85759999999993
 70
     32
  0
VERTEX
  8
MY3DLAYER
10
28.2164499999972
20
31.6724992854493
30
-5.85759999999993
 70
     32
  0
VERTEX
  8
MY3DLAYER
10
28.2181537086828
20
31.6854402377045
30
-5.85759999999993
 70
     32
  0
VERTEX
  8
MY3DLAYER
10
28.223148729808
20
31.6974992854493
30
-5.85759999999993
 70
     32
  0
VERTEX
  8
MY3DLAYER
10
28.2310946609379
20
31.7078546245087
30
-5.85759999999993
 70
     32
  0
VERTEX
  8
MY3DLAYER
10
28.2414499999972
20
31.7158005556386
30
-5.85759999999993
 70
     32
  0
VERTEX
  8
MY3DLAYER
10
28.2535090477421
20
31.7207955767638
30
-5.85759999999993
 70
     32
  0
VERTEX
  8
MY3DLAYER
10
28.2664499999972
20
31.7224992854493
30
-5.85759999999993
 70
     32
  0
VERTEX
  8
MY3DLAYER
10
28.2793909522524
20
31.7207955767638
30
-5.85759999999993
 70
     32
  0
VERTEX
  8
MY3DLAYER
10
28.2914499999972
20
31.7158005556386
30
-5.85759999999993
 70
     32
  0
VERTEX
  8
MY3DLAYER
10
28.3018053390566
20
31.7078546245087
30
-5.85759999999993
 70
     32
  0
VERTEX
  8
MY3DLAYER
10
28.3097512701865
20
31.6974992854493
30
-5.85759999999993
 70
     32
  0
VERTEX
  8
MY3DLAYER
10
28.683586229808
20
31.9133330000193
30
-5.85759999999993
 70
     32
  0
VERTEX
  8
MY3DLAYER
10
28.6785912086828
20
31.9253920477642
30
-5.85759999999993
 70
     32
  0
VERTEX
  8
MY3DLAYER
10
28.6768874999972
20
31.9383330000193
30
-5.85759999999993
 70
     32
  0
VERTEX
  8
MY3DLAYER
10
28.6785912086828
20
31.9512739522745
30
-5.85759999999993
 70
     32
  0
VERTEX
  8
MY3DLAYER
10
28.683586229808
20
31.9633330000193
30
-5.85759999999993
 70
     32
  0
VERTEX
  8
MY3DLAYER
10
28.6915321609379
20
31.9736883390787
30
-5.85759999999993
 70
     32
  0
VERTEX
  8
MY3DLAYER
10
28.7018874999972
20
31.9816342702086
30
-5.85759999999993
 70
     32
  0
VERTEX
  8
MY3DLAYER
10
28.7139465477421
20
31.9866292913338
30
-5.85759999999993
 70
     32
  0
VERTEX
  8
MY3DLAYER
10
28.7268874999972
20
31.9883330000193
30
-5.85759999999993
 70
     32
  0
VERTEX
  8
MY3DLAYER
10
28.7398284522524
20
31.9866292913338
30
-5.85759999999993
 70
     32
  0
VERTEX
  8
MY3DLAYER
10
28.7518874999972
20
31.9816342702086
30
-5.85759999999993
 70
     32
  0
VERTEX
  8
MY3DLAYER
10
28.7622428390566
20
31.9736883390787
30
-5.85759999999993
 70
     32
  0
VERTEX
  8
MY3DLAYER
10
28.7701887701865
20
31.9633330000193
30
-5.85759999999993
 70
     32
  0
VERTEX
  8
MY3DLAYER
10
28.7751837913117
20
31.9512739522745
30
-5.85759999999993
 70
     32
  0
VERTEX
  8
MY3DLAYER
10
28.7768874999972
20
31.9383330000193
30
-5.85759999999993
 70
     32
  0
VERTEX
  8
MY3DLAYER
10
28.7751837913117
20
31.9253920477642
30
-5.85759999999993
 70
     32
  0
VERTEX
  8
MY3DLAYER
10
28.7701887701865
20
31.9133330000193
30
-5.85759999999993
 70
     32
  0
VERTEX
  8
MY3DLAYER
10
29.144023729808
20
31.6974992854493
30
-5.85759999999993
 70
     32
  0
VERTEX
  8
MY3DLAYER
10
29.1519696609379
20
31.7078546245087
30
-5.85759999999993
 70
     32
  0
VERTEX
  8
MY3DLAYER
10
29.1623249999972
20
31.7158005556386
30
-5.85759999999993
 70
     32
  0
VERTEX
  8
MY3DLAYER
10
29.1743840477421
20
31.7207955767638
30
-5.85759999999993
 70
     32
  0
VERTEX
  8
MY3DLAYER
10
29.1873249999972
20
31.7224992854493
30
-5.85759999999993
 70
     32
  0
VERTEX
  8
MY3DLAYER
10
29.2002659522524
20
31.7207955767638
30
-5.85759999999993
 70
     32
  0
VERTEX
  8
MY3DLAYER
10
29.2123249999972
20
31.7158005556386
30
-5.85759999999993
 70
     32
  0
VERTEX
  8
MY3DLAYER
10
29.2226803390566
20
31.7078546245087
30
-5.85759999999993
 70
     32
  0
VERTEX
  8
MY3DLAYER
10
29.2306262701865
20
31.6974992854493
30
-5.85759999999993
 70
     32
  0
VERTEX
  8
MY3DLAYER
10
29.2356212913117
20
31.6854402377045
30
-5.85759999999993
 70
     32
  0
SEQEND
  0
POLYLINE
 8
Layer0
 66
     1
70
    8
 10
0.0
 20
 0.0
 30
0.0
  0
VERTEX
  8
MY3DLAYER
10
31.3147462913144
20
29.8737732377045
30
-5.85759999999993
 70
     32
  0
VERTEX
  8
MY3DLAYER
10
31.31645
20
29.8608322854493
30
-5.85759999999993
 70
     32
  0
VERTEX
  8
MY3DLAYER
10
31.3147462913144
20
29.8478913331942
30
-5.85759999999993
 70
     32
  0
VERTEX
  8
MY3DLAYER
10
31.3097512701892
20
29.8358322854493
30
-5.85759999999993
 70
     32
  0
VERTEX
  8
MY3DLAYER
10
31.3018053390593
20
29.82547694639
30
-5.85759999999993
 70
     32
  0
VERTEX
  8
MY3DLAYER
10
31.29145
20
29.8175310152601
30
-5.85759999999993
 70
     32
  0
VERTEX
  8
MY3DLAYER
10
31.2793909522551
20
29.8125359941349
30
-5.85759999999993
 70
     32
  0
VERTEX
  8
MY3DLAYER
10
31.26645
20
29.8108322854493
30
-5.85759999999993
 70
     32
  0
VERTEX
  8
MY3DLAYER
10
31.26645
20
29.3791648563093
30
-5.85759999999993
 70
     32
  0
VERTEX
  8
MY3DLAYER
10
31.2793909522551
20
29.3774611476238
30
-5.85759999999993
 70
     32
  0
VERTEX
  8
MY3DLAYER
10
31.29145
20
29.3724661264986
30
-5.85759999999993
 70
     32
  0
VERTEX
  8
MY3DLAYER
10
31.3018053390593
20
29.3645201953687
30
-5.85759999999993
 70
     32
  0
VERTEX
  8
MY3DLAYER
10
31.3097512701892
20
29.3541648563093
30
-5.85759999999993
 70
     32
  0
VERTEX
  8
MY3DLAYER
10
31.3147462913144
20
29.3421058085645
30
-5.85759999999993
 70
     32
  0
VERTEX
  8
MY3DLAYER
10
31.31645
20
29.3291648563093
30
-5.85759999999993
 70
     32
  0
VERTEX
  8
MY3DLAYER
10
31.3147462913144
20
29.3162239040542
30
-5.85759999999993
 70
     32
  0
VERTEX
  8
MY3DLAYER
10
31.3097512701892
20
29.3041648563093
30
-5.85759999999993
 70
     32
  0
VERTEX
  8
MY3DLAYER
10
31.3018053390593
20
29.29380951725
30
-5.85759999999993
 70
     32
  0
VERTEX
  8
MY3DLAYER
10
31.29145
20
29.2858635861201
30
-5.85759999999993
 70
     32
  0
VERTEX
  8
MY3DLAYER
10
31.2793909522551
20
29.2808685649949
30
-5.85759999999993
 70
     32
  0
VERTEX
  8
MY3DLAYER
10
31.26645
20
29.2791648563093
30
-5.85759999999993
 70
     32
  0
VERTEX
  8
MY3DLAYER
10
31.2535090477449
20
29.2808685649949
30
-5.85759999999993
 70
     32
  0
VERTEX
  8
MY3DLAYER
10
31.24145
20
29.2858635861201
30
-5.85759999999993
 70
     32
  0
VERTEX
  8
MY3DLAYER
10
31.2310946609407
20
29.29380951725
30
-5.85759999999993
 70
     32
  0
VERTEX
  8
MY3DLAYER
10
31.2231487298108
20
29.3041648563093
30
-5.85759999999993
 70
     32
  0
VERTEX
  8
MY3DLAYER
10
30.8493137701892
20
29.0883311417393
30
-5.85759999999993
 70
     32
  0
VERTEX
  8
MY3DLAYER
10
30.8543087913144
20
29.0762720939945
30
-5.85759999999993
 70
     32
  0
VERTEX
  8
MY3DLAYER
10
30.8560125
20
29.0633311417393
30
-5.85759999999993
 70
     32
  0
VERTEX
  8
MY3DLAYER
10
30.8543087913144
20
29.0503901894842
30
-5.85759999999993
 70
     32
  0
VERTEX
  8
MY3DLAYER
10
30.8493137701892
20
29.0383311417393
30
-5.85759999999993
 70
     32
  0
VERTEX
  8
MY3DLAYER
10
30.8413678390593
20
29.02797580268
30
-5.85759999999993
 70
     32
  0
VERTEX
  8
MY3DLAYER
10
30.8310125
20
29.0200298715501
30
-5.85759999999993
 70
     32
  0
VERTEX
  8
MY3DLAYER
10
30.8189534522551
20
29.0150348504249
30
-5.85759999999993
 70
     32
  0
VERTEX
  8
MY3DLAYER
10
30.8060125
20
29.0133311417393
30
-5.85759999999993
 70
     32
  0
VERTEX
  8
MY3DLAYER
10
30.7930715477449
20
29.0150348504249
30
-5.85759999999993
 70
     32
  0
VERTEX
  8
MY3DLAYER
10
30.7810125
20
29.0200298715501
30
-5.85759999999993
 70
     32
  0
VERTEX
  8
MY3DLAYER
10
30.7706571609407
20
29.02797580268
30
-5.85759999999993
 70
     32
  0
VERTEX
  8
MY3DLAYER
10
30.7627112298108
20
29.0383311417393
30
-5.85759999999993
 70
     32
  0
VERTEX
  8
MY3DLAYER
10
30.7577162086855
20
29.0503901894842
30
-5.85759999999993
 70
     32
  0
VERTEX
  8
MY3DLAYER
10
30.7560125
20
29.0633311417393
30
-5.85759999999993
 70
     32
  0
VERTEX
  8
MY3DLAYER
10
30.7577162086855
20
29.0762720939945
30
-5.85759999999993
 70
     32
  0
VERTEX
  8
MY3DLAYER
10
30.7627112298108
20
29.0883311417393
30
-5.85759999999993
 70
     32
  0
VERTEX
  8
MY3DLAYER
10
30.3888762701892
20
29.3041648563093
30
-5.85759999999993
 70
     32
  0
VERTEX
  8
MY3DLAYER
10
30.3809303390593
20
29.29380951725
30
-5.85759999999993
 70
     32
  0
VERTEX
  8
MY3DLAYER
10
30.370575
20
29.2858635861201
30
-5.85759999999993
 70
     32
  0
VERTEX
  8
MY3DLAYER
10
30.3585159522551
20
29.2808685649949
30
-5.85759999999993
 70
     32
  0
VERTEX
  8
MY3DLAYER
10
30.345575
20
29.2791648563093
30
-5.85759999999993
 70
     32
  0
VERTEX
  8
MY3DLAYER
10
30.3326340477449
20
29.2808685649949
30
-5.85759999999993
 70
     32
  0
VERTEX
  8
MY3DLAYER
10
30.320575
20
29.2858635861201
30
-5.85759999999993
 70
     32
  0
VERTEX
  8
MY3DLAYER
10
30.3102196609407
20
29.29380951725
30
-5.85759999999993
 70
     32
  0
VERTEX
  8
MY3DLAYER
10
30.3022737298108
20
29.3041648563093
30
-5.85759999999993
 70
     32
  0
VERTEX
  8
MY3DLAYER
10
30.2972787086855
20
29.3162239040542
30
-5.85759999999993
 70
     32
  0
VERTEX
  8
MY3DLAYER
10
30.295575
20
29.3291648563093
30
-5.85759999999993
 70
     32
  0
VERTEX
  8
MY3DLAYER
10
30.2972787086855
20
29.3421058085645
30
-5.85759999999993
 70
     32
  0
VERTEX
  8
MY3DLAYER
10
30.3022737298108
20
29.3541648563093
30
-5.85759999999993
 70
     32
  0
VERTEX
  8
MY3DLAYER
10
30.3102196609407
20
29.3645201953687
30
-5.85759999999993
 70
     32
  0
VERTEX
  8
MY3DLAYER
10
30.320575
20
29.3724661264986
30
-5.85759999999993
 70
     32
  0
VERTEX
  8
MY3DLAYER
10
30.3326340477449
20
29.3774611476238
30
-5.85759999999993
 70
     32
  0
VERTEX
  8
MY3DLAYER
10
30.345575
20
29.3791648563093
30
-5.85759999999993
 70
     32
  0
VERTEX
  8
MY3DLAYER
10
30.345575
20
29.8108322854493
30
-5.85759999999993
 70
     32
  0
VERTEX
  8
MY3DLAYER
10
30.3326340477449
20
29.8125359941349
30
-5.85759999999993
 70
     32
  0
VERTEX
  8
MY3DLAYER
10
30.320575
20
29.8175310152601
30
-5.85759999999993
 70
     32
  0
VERTEX
  8
MY3DLAYER
10
30.3102196609407
20
29.82547694639
30
-5.85759999999993
 70
     32
  0
VERTEX
  8
MY3DLAYER
10
30.3022737298108
20
29.8358322854493
30
-5.85759999999993
 70
     32
  0
VERTEX
  8
MY3DLAYER
10
30.2972787086855
20
29.8478913331942
30
-5.85759999999993
 70
     32
  0
VERTEX
  8
MY3DLAYER
10
30.295575
20
29.8608322854493
30
-5.85759999999993
 70
     32
  0
VERTEX
  8
MY3DLAYER
10
30.2972787086855
20
29.8737732377045
30
-5.85759999999993
 70
     32
  0
VERTEX
  8
MY3DLAYER
10
30.3022737298108
20
29.8858322854493
30
-5.85759999999993
 70
     32
  0
VERTEX
  8
MY3DLAYER
10
30.3102196609407
20
29.8961876245087
30
-5.85759999999993
 70
     32
  0
VERTEX
  8
MY3DLAYER
10
30.320575
20
29.9041335556386
30
-5.85759999999993
 70
     32
  0
VERTEX
  8
MY3DLAYER
10
30.3326340477449
20
29.9091285767638
30
-5.85759999999993
 70
     32
  0
VERTEX
  8
MY3DLAYER
10
30.345575
20
29.9108322854493
30
-5.85759999999993
 70
     32
  0
VERTEX
  8
MY3DLAYER
10
30.3585159522551
20
29.9091285767638
30
-5.85759999999993
 70
     32
  0
VERTEX
  8
MY3DLAYER
10
30.370575
20
29.9041335556386
30
-5.85759999999993
 70
     32
  0
VERTEX
  8
MY3DLAYER
10
30.3809303390593
20
29.8961876245087
30
-5.85759999999993
 70
     32
  0
VERTEX
  8
MY3DLAYER
10
30.3888762701892
20
29.8858322854493
30
-5.85759999999993
 70
     32
  0
VERTEX
  8
MY3DLAYER
10
30.7627112298108
20
30.1016660000193
30
-5.85759999999993
 70
     32
  0
VERTEX
  8
MY3DLAYER
10
30.7577162086855
20
30.1137250477642
30
-5.85759999999993
 70
     32
  0
VERTEX
  8
MY3DLAYER
10
30.7560125
20
30.1266660000193
30
-5.85759999999993
 70
     32
  0
VERTEX
  8
MY3DLAYER
10
30.7577162086855
20
30.1396069522745
30
-5.85759999999993
 70
     32
  0
VERTEX
  8
MY3DLAYER
10
30.7627112298108
20
30.1516660000193
30
-5.85759999999993
 70
     32
  0
VERTEX
  8
MY3DLAYER
10
30.7706571609407
20
30.1620213390787
30
-5.85759999999993
 70
     32
  0
VERTEX
  8
MY3DLAYER
10
30.7810125
20
30.1699672702086
30
-5.85759999999993
 70
     32
  0
VERTEX
  8
MY3DLAYER
10
30.7930715477449
20
30.1749622913338
30
-5.85759999999993
 70
     32
  0
VERTEX
  8
MY3DLAYER
10
30.8060125
20
30.1766660000193
30
-5.85759999999993
 70
     32
  0
VERTEX
  8
MY3DLAYER
10
30.8189534522551
20
30.1749622913338
30
-5.85759999999993
 70
     32
  0
VERTEX
  8
MY3DLAYER
10
30.8310125
20
30.1699672702086
30
-5.85759999999993
 70
     32
  0
VERTEX
  8
MY3DLAYER
10
30.8413678390593
20
30.1620213390787
30
-5.85759999999993
 70
     32
  0
VERTEX
  8
MY3DLAYER
10
30.8493137701892
20
30.1516660000193
30
-5.85759999999993
 70
     32
  0
VERTEX
  8
MY3DLAYER
10
30.8543087913144
20
30.1396069522745
30
-5.85759999999993
 70
     32
  0
VERTEX
  8
MY3DLAYER
10
30.8560125
20
30.1266660000193
30
-5.85759999999993
 70
     32
  0
VERTEX
  8
MY3DLAYER
10
30.8543087913144
20
30.1137250477642
30
-5.85759999999993
 70
     32
  0
VERTEX
  8
MY3DLAYER
10
30.8493137701892
20
30.1016660000193
30
-5.85759999999993
 70
     32
  0
VERTEX
  8
MY3DLAYER
10
31.2231487298108
20
29.8858322854493
30
-5.85759999999993
 70
     32
  0
VERTEX
  8
MY3DLAYER
10
31.2310946609407
20
29.8961876245087
30
-5.85759999999993
 70
     32
  0
VERTEX
  8
MY3DLAYER
10
31.24145
20
29.9041335556386
30
-5.85759999999993
 70
     32
  0
VERTEX
  8
MY3DLAYER
10
31.2535090477449
20
29.9091285767638
30
-5.85759999999993
 70
     32
  0
VERTEX
  8
MY3DLAYER
10
31.26645
20
29.9108322854493
30
-5.85759999999993
 70
     32
  0
VERTEX
  8
MY3DLAYER
10
31.2793909522551
20
29.9091285767638
30
-5.85759999999993
 70
     32
  0
VERTEX
  8
MY3DLAYER
10
31.29145
20
29.9041335556386
30
-5.85759999999993
 70
     32
  0
VERTEX
  8
MY3DLAYER
10
31.3018053390593
20
29.8961876245087
30
-5.85759999999993
 70
     32
  0
VERTEX
  8
MY3DLAYER
10
31.3097512701892
20
29.8858322854493
30
-5.85759999999993
 70
     32
  0
VERTEX
  8
MY3DLAYER
10
31.3147462913144
20
29.8737732377045
30
-5.85759999999993
 70
     32
  0
SEQEND
  0
POLYLINE
 8
Layer0
 66
     1
70
    8
 10
0.0
 20
 0.0
 30
0.0
  0
VERTEX
  8
MY3DLAYER
10
29.2356212913117
20
29.8737732377045
30
-5.85759999999993
 70
     32
  0
VERTEX
  8
MY3DLAYER
10
29.2373249999972
20
29.8608322854493
30
-5.85759999999993
 70
     32
  0
VERTEX
  8
MY3DLAYER
10
29.2356212913117
20
29.8478913331942
30
-5.85759999999993
 70
     32
  0
VERTEX
  8
MY3DLAYER
10
29.2306262701865
20
29.8358322854493
30
-5.85759999999993
 70
     32
  0
VERTEX
  8
MY3DLAYER
10
29.2226803390566
20
29.82547694639
30
-5.85759999999993
 70
     32
  0
VERTEX
  8
MY3DLAYER
10
29.2123249999972
20
29.8175310152601
30
-5.85759999999993
 70
     32
  0
VERTEX
  8
MY3DLAYER
10
29.2002659522524
20
29.8125359941349
30
-5.85759999999993
 70
     32
  0
VERTEX
  8
MY3DLAYER
10
29.1873249999972
20
29.8108322854493
30
-5.85759999999993
 70
     32
  0
VERTEX
  8
MY3DLAYER
10
29.1873249999972
20
29.3791648563093
30
-5.85759999999993
 70
     32
  0
VERTEX
  8
MY3DLAYER
10
29.2002659522524
20
29.3774611476238
30
-5.85759999999993
 70
     32
  0
VERTEX
  8
MY3DLAYER
10
29.2123249999972
20
29.3724661264986
30
-5.85759999999993
 70
     32
  0
VERTEX
  8
MY3DLAYER
10
29.2226803390566
20
29.3645201953687
30
-5.85759999999993
 70
     32
  0
VERTEX
  8
MY3DLAYER
10
29.2306262701865
20
29.3541648563093
30
-5.85759999999993
 70
     32
  0
VERTEX
  8
MY3DLAYER
10
29.2356212913117
20
29.3421058085645
30
-5.85759999999993
 70
     32
  0
VERTEX
  8
MY3DLAYER
10
29.2373249999972
20
29.3291648563093
30
-5.85759999999993
 70
     32
  0
VERTEX
  8
MY3DLAYER
10
29.2356212913117
20
29.3162239040542
30
-5.85759999999993
 70
     32
  0
VERTEX
  8
MY3DLAYER
10
29.2306262701865
20
29.3041648563093
30
-5.85759999999993
 70
     32
  0
VERTEX
  8
MY3DLAYER
10
29.2226803390566
20
29.29380951725
30
-5.85759999999993
 70
     32
  0
VERTEX
  8
MY3DLAYER
10
29.2123249999972
20
29.2858635861201
30
-5.85759999999993
 70
     32
  0
VERTEX
  8
MY3DLAYER
10
29.2002659522524
20
29.2808685649949
30
-5.85759999999993
 70
     32
  0
VERTEX
  8
MY3DLAYER
10
29.1873249999972
20
29.2791648563093
30
-5.85759999999993
 70
     32
  0
VERTEX
  8
MY3DLAYER
10
29.1743840477421
20
29.2808685649949
30
-5.85759999999993
 70
     32
  0
VERTEX
  8
MY3DLAYER
10
29.1623249999972
20
29.2858635861201
30
-5.85759999999993
 70
     32
  0
VERTEX
  8
MY3DLAYER
10
29.1519696609379
20
29.29380951725
30
-5.85759999999993
 70
     32
  0
VERTEX
  8
MY3DLAYER
10
29.144023729808
20
29.3041648563093
30
-5.85759999999993
 70
     32
  0
VERTEX
  8
MY3DLAYER
10
28.7701887701865
20
29.0883311417393
30
-5.85759999999993
 70
     32
  0
VERTEX
  8
MY3DLAYER
10
28.7751837913117
20
29.0762720939945
30
-5.85759999999993
 70
     32
  0
VERTEX
  8
MY3DLAYER
10
28.7768874999972
20
29.0633311417393
30
-5.85759999999993
 70
     32
  0
VERTEX
  8
MY3DLAYER
10
28.7751837913117
20
29.0503901894842
30
-5.85759999999993
 70
     32
  0
VERTEX
  8
MY3DLAYER
10
28.7701887701865
20
29.0383311417393
30
-5.85759999999993
 70
     32
  0
VERTEX
  8
MY3DLAYER
10
28.7622428390566
20
29.02797580268
30
-5.85759999999993
 70
     32
  0
VERTEX
  8
MY3DLAYER
10
28.7518874999972
20
29.0200298715501
30
-5.85759999999993
 70
     32
  0
VERTEX
  8
MY3DLAYER
10
28.7398284522524
20
29.0150348504249
30
-5.85759999999993
 70
     32
  0
VERTEX
  8
MY3DLAYER
10
28.7268874999972
20
29.0133311417393
30
-5.85759999999993
 70
     32
  0
VERTEX
  8
MY3DLAYER
10
28.7139465477421
20
29.0150348504249
30
-5.85759999999993
 70
     32
  0
VERTEX
  8
MY3DLAYER
10
28.7018874999972
20
29.0200298715501
30
-5.85759999999993
 70
     32
  0
VERTEX
  8
MY3DLAYER
10
28.6915321609379
20
29.02797580268
30
-5.85759999999993
 70
     32
  0
VERTEX
  8
MY3DLAYER
10
28.683586229808
20
29.0383311417393
30
-5.85759999999993
 70
     32
  0
VERTEX
  8
MY3DLAYER
10
28.6785912086828
20
29.0503901894842
30
-5.85759999999993
 70
     32
  0
VERTEX
  8
MY3DLAYER
10
28.6768874999972
20
29.0633311417393
30
-5.85759999999993
 70
     32
  0
VERTEX
  8
MY3DLAYER
10
28.6785912086828
20
29.0762720939945
30
-5.85759999999993
 70
     32
  0
VERTEX
  8
MY3DLAYER
10
28.683586229808
20
29.0883311417393
30
-5.85759999999993
 70
     32
  0
VERTEX
  8
MY3DLAYER
10
28.3097512701865
20
29.3041648563093
30
-5.85759999999993
 70
     32
  0
VERTEX
  8
MY3DLAYER
10
28.3018053390566
20
29.29380951725
30
-5.85759999999993
 70
     32
  0
VERTEX
  8
MY3DLAYER
10
28.2914499999972
20
29.2858635861201
30
-5.85759999999993
 70
     32
  0
VERTEX
  8
MY3DLAYER
10
28.2793909522524
20
29.2808685649949
30
-5.85759999999993
 70
     32
  0
VERTEX
  8
MY3DLAYER
10
28.2664499999972
20
29.2791648563093
30
-5.85759999999993
 70
     32
  0
VERTEX
  8
MY3DLAYER
10
28.2535090477421
20
29.2808685649949
30
-5.85759999999993
 70
     32
  0
VERTEX
  8
MY3DLAYER
10
28.2414499999972
20
29.2858635861201
30
-5.85759999999993
 70
     32
  0
VERTEX
  8
MY3DLAYER
10
28.2310946609379
20
29.29380951725
30
-5.85759999999993
 70
     32
  0
VERTEX
  8
MY3DLAYER
10
28.223148729808
20
29.3041648563093
30
-5.85759999999993
 70
     32
  0
VERTEX
  8
MY3DLAYER
10
28.2181537086828
20
29.3162239040542
30
-5.85759999999993
 70
     32
  0
VERTEX
  8
MY3DLAYER
10
28.2164499999972
20
29.3291648563093
30
-5.85759999999993
 70
     32
  0
VERTEX
  8
MY3DLAYER
10
28.2181537086828
20
29.3421058085645
30
-5.85759999999993
 70
     32
  0
VERTEX
  8
MY3DLAYER
10
28.223148729808
20
29.3541648563093
30
-5.85759999999993
 70
     32
  0
VERTEX
  8
MY3DLAYER
10
28.2310946609379
20
29.3645201953687
30
-5.85759999999993
 70
     32
  0
VERTEX
  8
MY3DLAYER
10
28.2414499999972
20
29.3724661264986
30
-5.85759999999993
 70
     32
  0
VERTEX
  8
MY3DLAYER
10
28.2535090477421
20
29.3774611476238
30
-5.85759999999993
 70
     32
  0
VERTEX
  8
MY3DLAYER
10
28.2664499999972
20
29.3791648563093
30
-5.85759999999993
 70
     32
  0
VERTEX
  8
MY3DLAYER
10
28.2664499999972
20
29.8108322854493
30
-5.85759999999993
 70
     32
  0
VERTEX
  8
MY3DLAYER
10
28.2535090477421
20
29.8125359941349
30
-5.85759999999993
 70
     32
  0
VERTEX
  8
MY3DLAYER
10
28.2414499999972
20
29.8175310152601
30
-5.85759999999993
 70
     32
  0
VERTEX
  8
MY3DLAYER
10
28.2310946609379
20
29.82547694639
30
-5.85759999999993
 70
     32
  0
VERTEX
  8
MY3DLAYER
10
28.223148729808
20
29.8358322854493
30
-5.85759999999993
 70
     32
  0
VERTEX
  8
MY3DLAYER
10
28.2181537086828
20
29.8478913331942
30
-5.85759999999993
 70
     32
  0
VERTEX
  8
MY3DLAYER
10
28.2164499999972
20
29.8608322854493
30
-5.85759999999993
 70
     32
  0
VERTEX
  8
MY3DLAYER
10
28.2181537086828
20
29.8737732377045
30
-5.85759999999993
 70
     32
  0
VERTEX
  8
MY3DLAYER
10
28.223148729808
20
29.8858322854493
30
-5.85759999999993
 70
     32
  0
VERTEX
  8
MY3DLAYER
10
28.2310946609379
20
29.8961876245087
30
-5.85759999999993
 70
     32
  0
VERTEX
  8
MY3DLAYER
10
28.2414499999972
20
29.9041335556386
30
-5.85759999999993
 70
     32
  0
VERTEX
  8
MY3DLAYER
10
28.2535090477421
20
29.9091285767638
30
-5.85759999999993
 70
     32
  0
VERTEX
  8
MY3DLAYER
10
28.2664499999972
20
29.9108322854493
30
-5.85759999999993
 70
     32
  0
VERTEX
  8
MY3DLAYER
10
28.2793909522524
20
29.9091285767638
30
-5.85759999999993
 70
     32
  0
VERTEX
  8
MY3DLAYER
10
28.2914499999972
20
29.9041335556386
30
-5.85759999999993
 70
     32
  0
VERTEX
  8
MY3DLAYER
10
28.3018053390566
20
29.8961876245087
30
-5.85759999999993
 70
     32
  0
VERTEX
  8
MY3DLAYER
10
28.3097512701865
20
29.8858322854493
30
-5.85759999999993
 70
     32
  0
VERTEX
  8
MY3DLAYER
10
28.683586229808
20
30.1016660000193
30
-5.85759999999993
 70
     32
  0
VERTEX
  8
MY3DLAYER
10
28.6785912086828
20
30.1137250477642
30
-5.85759999999993
 70
     32
  0
VERTEX
  8
MY3DLAYER
10
28.6768874999972
20
30.1266660000193
30
-5.85759999999993
 70
     32
  0
VERTEX
  8
MY3DLAYER
10
28.6785912086828
20
30.1396069522745
30
-5.85759999999993
 70
     32
  0
VERTEX
  8
MY3DLAYER
10
28.683586229808
20
30.1516660000193
30
-5.85759999999993
 70
     32
  0
VERTEX
  8
MY3DLAYER
10
28.6915321609379
20
30.1620213390787
30
-5.85759999999993
 70
     32
  0
VERTEX
  8
MY3DLAYER
10
28.7018874999972
20
30.1699672702086
30
-5.85759999999993
 70
     32
  0
VERTEX
  8
MY3DLAYER
10
28.7139465477421
20
30.1749622913338
30
-5.85759999999993
 70
     32
  0
VERTEX
  8
MY3DLAYER
10
28.7268874999972
20
30.1766660000193
30
-5.85759999999993
 70
     32
  0
VERTEX
  8
MY3DLAYER
10
28.7398284522524
20
30.1749622913338
30
-5.85759999999993
 70
     32
  0
VERTEX
  8
MY3DLAYER
10
28.7518874999972
20
30.1699672702086
30
-5.85759999999993
 70
     32
  0
VERTEX
  8
MY3DLAYER
10
28.7622428390566
20
30.1620213390787
30
-5.85759999999993
 70
     32
  0
VERTEX
  8
MY3DLAYER
10
28.7701887701865
20
30.1516660000193
30
-5.85759999999993
 70
     32
  0
VERTEX
  8
MY3DLAYER
10
28.7751837913117
20
30.1396069522745
30
-5.85759999999993
 70
     32
  0
VERTEX
  8
MY3DLAYER
10
28.7768874999972
20
30.1266660000193
30
-5.85759999999993
 70
     32
  0
VERTEX
  8
MY3DLAYER
10
28.7751837913117
20
30.1137250477642
30
-5.85759999999993
 70
     32
  0
VERTEX
  8
MY3DLAYER
10
28.7701887701865
20
30.1016660000193
30
-5.85759999999993
 70
     32
  0
VERTEX
  8
MY3DLAYER
10
29.144023729808
20
29.8858322854493
30
-5.85759999999993
 70
     32
  0
VERTEX
  8
MY3DLAYER
10
29.1519696609379
20
29.8961876245087
30
-5.85759999999993
 70
     32
  0
VERTEX
  8
MY3DLAYER
10
29.1623249999972
20
29.9041335556386
30
-5.85759999999993
 70
     32
  0
VERTEX
  8
MY3DLAYER
10
29.1743840477421
20
29.9091285767638
30
-5.85759999999993
 70
     32
  0
VERTEX
  8
MY3DLAYER
10
29.1873249999972
20
29.9108322854493
30
-5.85759999999993
 70
     32
  0
VERTEX
  8
MY3DLAYER
10
29.2002659522524
20
29.9091285767638
30
-5.85759999999993
 70
     32
  0
VERTEX
  8
MY3DLAYER
10
29.2123249999972
20
29.9041335556386
30
-5.85759999999993
 70
     32
  0
VERTEX
  8
MY3DLAYER
10
29.2226803390566
20
29.8961876245087
30
-5.85759999999993
 70
     32
  0
VERTEX
  8
MY3DLAYER
10
29.2306262701865
20
29.8858322854493
30
-5.85759999999993
 70
     32
  0
VERTEX
  8
MY3DLAYER
10
29.2356212913117
20
29.8737732377045
30
-5.85759999999993
 70
     32
  0
SEQEND
  0
POLYLINE
 8
Layer0
 66
     1
70
    8
 10
0.0
 20
 0.0
 30
0.0
  0
VERTEX
  8
MY3DLAYER
10
31.3147462913144
20
28.0621062377045
30
-5.85759999999993
 70
     32
  0
VERTEX
  8
MY3DLAYER
10
31.31645
20
28.0491652854493
30
-5.85759999999993
 70
     32
  0
VERTEX
  8
MY3DLAYER
10
31.3147462913144
20
28.0362243331942
30
-5.85759999999993
 70
     32
  0
VERTEX
  8
MY3DLAYER
10
31.3097512701892
20
28.0241652854493
30
-5.85759999999993
 70
     32
  0
VERTEX
  8
MY3DLAYER
10
31.3018053390593
20
28.01380994639
30
-5.85759999999993
 70
     32
  0
VERTEX
  8
MY3DLAYER
10
31.29145
20
28.0058640152601
30
-5.85759999999993
 70
     32
  0
VERTEX
  8
MY3DLAYER
10
31.2793909522551
20
28.0008689941349
30
-5.85759999999993
 70
     32
  0
VERTEX
  8
MY3DLAYER
10
31.26645
20
27.9991652854493
30
-5.85759999999993
 70
     32
  0
VERTEX
  8
MY3DLAYER
10
31.26645
20
27.5674978563093
30
-5.85759999999993
 70
     32
  0
VERTEX
  8
MY3DLAYER
10
31.2793909522551
20
27.5657941476238
30
-5.85759999999993
 70
     32
  0
VERTEX
  8
MY3DLAYER
10
31.29145
20
27.5607991264986
30
-5.85759999999993
 70
     32
  0
VERTEX
  8
MY3DLAYER
10
31.3018053390593
20
27.5528531953687
30
-5.85759999999993
 70
     32
  0
VERTEX
  8
MY3DLAYER
10
31.3097512701892
20
27.5424978563093
30
-5.85759999999993
 70
     32
  0
VERTEX
  8
MY3DLAYER
10
31.3147462913144
20
27.5304388085645
30
-5.85759999999993
 70
     32
  0
VERTEX
  8
MY3DLAYER
10
31.31645
20
27.5174978563093
30
-5.85759999999993
 70
     32
  0
VERTEX
  8
MY3DLAYER
10
31.3147462913144
20
27.5045569040542
30
-5.85759999999993
 70
     32
  0
VERTEX
  8
MY3DLAYER
10
31.3097512701892
20
27.4924978563093
30
-5.85759999999993
 70
     32
  0
VERTEX
  8
MY3DLAYER
10
31.3018053390593
20
27.48214251725
30
-5.85759999999993
 70
     32
  0
VERTEX
  8
MY3DLAYER
10
31.29145
20
27.4741965861201
30
-5.85759999999993
 70
     32
  0
VERTEX
  8
MY3DLAYER
10
31.2793909522551
20
27.4692015649949
30
-5.85759999999993
 70
     32
  0
VERTEX
  8
MY3DLAYER
10
31.26645
20
27.4674978563093
30
-5.85759999999993
 70
     32
  0
VERTEX
  8
MY3DLAYER
10
31.2535090477449
20
27.4692015649949
30
-5.85759999999993
 70
     32
  0
VERTEX
  8
MY3DLAYER
10
31.24145
20
27.4741965861201
30
-5.85759999999993
 70
     32
  0
VERTEX
  8
MY3DLAYER
10
31.2310946609407
20
27.48214251725
30
-5.85759999999993
 70
     32
  0
VERTEX
  8
MY3DLAYER
10
31.2231487298108
20
27.4924978563093
30
-5.85759999999993
 70
     32
  0
VERTEX
  8
MY3DLAYER
10
30.8493137701892
20
27.2766641417393
30
-5.85759999999993
 70
     32
  0
VERTEX
  8
MY3DLAYER
10
30.8543087913144
20
27.2646050939945
30
-5.85759999999993
 70
     32
  0
VERTEX
  8
MY3DLAYER
10
30.8560125
20
27.2516641417393
30
-5.85759999999993
 70
     32
  0
VERTEX
  8
MY3DLAYER
10
30.8543087913144
20
27.2387231894842
30
-5.85759999999993
 70
     32
  0
VERTEX
  8
MY3DLAYER
10
30.8493137701892
20
27.2266641417393
30
-5.85759999999993
 70
     32
  0
VERTEX
  8
MY3DLAYER
10
30.8413678390593
20
27.21630880268
30
-5.85759999999993
 70
     32
  0
VERTEX
  8
MY3DLAYER
10
30.8310125
20
27.2083628715501
30
-5.85759999999993
 70
     32
  0
VERTEX
  8
MY3DLAYER
10
30.8189534522551
20
27.2033678504249
30
-5.85759999999993
 70
     32
  0
VERTEX
  8
MY3DLAYER
10
30.8060125
20
27.2016641417393
30
-5.85759999999993
 70
     32
  0
VERTEX
  8
MY3DLAYER
10
30.7930715477449
20
27.2033678504249
30
-5.85759999999993
 70
     32
  0
VERTEX
  8
MY3DLAYER
10
30.7810125
20
27.2083628715501
30
-5.85759999999993
 70
     32
  0
VERTEX
  8
MY3DLAYER
10
30.7706571609407
20
27.21630880268
30
-5.85759999999993
 70
     32
  0
VERTEX
  8
MY3DLAYER
10
30.7627112298108
20
27.2266641417393
30
-5.85759999999993
 70
     32
  0
VERTEX
  8
MY3DLAYER
10
30.7577162086855
20
27.2387231894842
30
-5.85759999999993
 70
     32
  0
VERTEX
  8
MY3DLAYER
10
30.7560125
20
27.2516641417393
30
-5.85759999999993
 70
     32
  0
VERTEX
  8
MY3DLAYER
10
30.7577162086855
20
27.2646050939945
30
-5.85759999999993
 70
     32
  0
VERTEX
  8
MY3DLAYER
10
30.7627112298108
20
27.2766641417393
30
-5.85759999999993
 70
     32
  0
VERTEX
  8
MY3DLAYER
10
30.3888762701892
20
27.4924978563093
30
-5.85759999999993
 70
     32
  0
VERTEX
  8
MY3DLAYER
10
30.3809303390593
20
27.48214251725
30
-5.85759999999993
 70
     32
  0
VERTEX
  8
MY3DLAYER
10
30.370575
20
27.4741965861201
30
-5.85759999999993
 70
     32
  0
VERTEX
  8
MY3DLAYER
10
30.3585159522551
20
27.4692015649949
30
-5.85759999999993
 70
     32
  0
VERTEX
  8
MY3DLAYER
10
30.345575
20
27.4674978563093
30
-5.85759999999993
 70
     32
  0
VERTEX
  8
MY3DLAYER
10
30.3326340477449
20
27.4692015649949
30
-5.85759999999993
 70
     32
  0
VERTEX
  8
MY3DLAYER
10
30.320575
20
27.4741965861201
30
-5.85759999999993
 70
     32
  0
VERTEX
  8
MY3DLAYER
10
30.3102196609407
20
27.48214251725
30
-5.85759999999993
 70
     32
  0
VERTEX
  8
MY3DLAYER
10
30.3022737298108
20
27.4924978563093
30
-5.85759999999993
 70
     32
  0
VERTEX
  8
MY3DLAYER
10
30.2972787086855
20
27.5045569040542
30
-5.85759999999993
 70
     32
  0
VERTEX
  8
MY3DLAYER
10
30.295575
20
27.5174978563093
30
-5.85759999999993
 70
     32
  0
VERTEX
  8
MY3DLAYER
10
30.2972787086855
20
27.5304388085645
30
-5.85759999999993
 70
     32
  0
VERTEX
  8
MY3DLAYER
10
30.3022737298108
20
27.5424978563093
30
-5.85759999999993
 70
     32
  0
VERTEX
  8
MY3DLAYER
10
30.3102196609407
20
27.5528531953687
30
-5.85759999999993
 70
     32
  0
VERTEX
  8
MY3DLAYER
10
30.320575
20
27.5607991264986
30
-5.85759999999993
 70
     32
  0
VERTEX
  8
MY3DLAYER
10
30.3326340477449
20
27.5657941476238
30
-5.85759999999993
 70
     32
  0
VERTEX
  8
MY3DLAYER
10
30.345575
20
27.5674978563093
30
-5.85759999999993
 70
     32
  0
VERTEX
  8
MY3DLAYER
10
30.345575
20
27.9991652854493
30
-5.85759999999993
 70
     32
  0
VERTEX
  8
MY3DLAYER
10
30.3326340477449
20
28.0008689941349
30
-5.85759999999993
 70
     32
  0
VERTEX
  8
MY3DLAYER
10
30.320575
20
28.0058640152601
30
-5.85759999999993
 70
     32
  0
VERTEX
  8
MY3DLAYER
10
30.3102196609407
20
28.01380994639
30
-5.85759999999993
 70
     32
  0
VERTEX
  8
MY3DLAYER
10
30.3022737298108
20
28.0241652854493
30
-5.85759999999993
 70
     32
  0
VERTEX
  8
MY3DLAYER
10
30.2972787086855
20
28.0362243331942
30
-5.85759999999993
 70
     32
  0
VERTEX
  8
MY3DLAYER
10
30.295575
20
28.0491652854493
30
-5.85759999999993
 70
     32
  0
VERTEX
  8
MY3DLAYER
10
30.2972787086855
20
28.0621062377045
30
-5.85759999999993
 70
     32
  0
VERTEX
  8
MY3DLAYER
10
30.3022737298108
20
28.0741652854493
30
-5.85759999999993
 70
     32
  0
VERTEX
  8
MY3DLAYER
10
30.3102196609407
20
28.0845206245087
30
-5.85759999999993
 70
     32
  0
VERTEX
  8
MY3DLAYER
10
30.320575
20
28.0924665556386
30
-5.85759999999993
 70
     32
  0
VERTEX
  8
MY3DLAYER
10
30.3326340477449
20
28.0974615767638
30
-5.85759999999993
 70
     32
  0
VERTEX
  8
MY3DLAYER
10
30.345575
20
28.0991652854493
30
-5.85759999999993
 70
     32
  0
VERTEX
  8
MY3DLAYER
10
30.3585159522551
20
28.0974615767638
30
-5.85759999999993
 70
     32
  0
VERTEX
  8
MY3DLAYER
10
30.370575
20
28.0924665556386
30
-5.85759999999993
 70
     32
  0
VERTEX
  8
MY3DLAYER
10
30.3809303390593
20
28.0845206245087
30
-5.85759999999993
 70
     32
  0
VERTEX
  8
MY3DLAYER
10
30.3888762701892
20
28.0741652854493
30
-5.85759999999993
 70
     32
  0
VERTEX
  8
MY3DLAYER
10
30.7627112298108
20
28.2899990000193
30
-5.85759999999993
 70
     32
  0
VERTEX
  8
MY3DLAYER
10
30.7577162086855
20
28.3020580477642
30
-5.85759999999993
 70
     32
  0
VERTEX
  8
MY3DLAYER
10
30.7560125
20
28.3149990000193
30
-5.85759999999993
 70
     32
  0
VERTEX
  8
MY3DLAYER
10
30.7577162086855
20
28.3279399522745
30
-5.85759999999993
 70
     32
  0
VERTEX
  8
MY3DLAYER
10
30.7627112298108
20
28.3399990000193
30
-5.85759999999993
 70
     32
  0
VERTEX
  8
MY3DLAYER
10
30.7706571609407
20
28.3503543390787
30
-5.85759999999993
 70
     32
  0
VERTEX
  8
MY3DLAYER
10
30.7810125
20
28.3583002702086
30
-5.85759999999993
 70
     32
  0
VERTEX
  8
MY3DLAYER
10
30.7930715477449
20
28.3632952913338
30
-5.85759999999993
 70
     32
  0
VERTEX
  8
MY3DLAYER
10
30.8060125
20
28.3649990000193
30
-5.85759999999993
 70
     32
  0
VERTEX
  8
MY3DLAYER
10
30.8189534522551
20
28.3632952913338
30
-5.85759999999993
 70
     32
  0
VERTEX
  8
MY3DLAYER
10
30.8310125
20
28.3583002702086
30
-5.85759999999993
 70
     32
  0
VERTEX
  8
MY3DLAYER
10
30.8413678390593
20
28.3503543390787
30
-5.85759999999993
 70
     32
  0
VERTEX
  8
MY3DLAYER
10
30.8493137701892
20
28.3399990000193
30
-5.85759999999993
 70
     32
  0
VERTEX
  8
MY3DLAYER
10
30.8543087913144
20
28.3279399522745
30
-5.85759999999993
 70
     32
  0
VERTEX
  8
MY3DLAYER
10
30.8560125
20
28.3149990000193
30
-5.85759999999993
 70
     32
  0
VERTEX
  8
MY3DLAYER
10
30.8543087913144
20
28.3020580477642
30
-5.85759999999993
 70
     32
  0
VERTEX
  8
MY3DLAYER
10
30.8493137701892
20
28.2899990000193
30
-5.85759999999993
 70
     32
  0
VERTEX
  8
MY3DLAYER
10
31.2231487298108
20
28.0741652854493
30
-5.85759999999993
 70
     32
  0
VERTEX
  8
MY3DLAYER
10
31.2310946609407
20
28.0845206245087
30
-5.85759999999993
 70
     32
  0
VERTEX
  8
MY3DLAYER
10
31.24145
20
28.0924665556386
30
-5.85759999999993
 70
     32
  0
VERTEX
  8
MY3DLAYER
10
31.2535090477449
20
28.0974615767638
30
-5.85759999999993
 70
     32
  0
VERTEX
  8
MY3DLAYER
10
31.26645
20
28.0991652854493
30
-5.85759999999993
 70
     32
  0
VERTEX
  8
MY3DLAYER
10
31.2793909522551
20
28.0974615767638
30
-5.85759999999993
 70
     32
  0
VERTEX
  8
MY3DLAYER
10
31.29145
20
28.0924665556386
30
-5.85759999999993
 70
     32
  0
VERTEX
  8
MY3DLAYER
10
31.3018053390593
20
28.0845206245087
30
-5.85759999999993
 70
     32
  0
VERTEX
  8
MY3DLAYER
10
31.3097512701892
20
28.0741652854493
30
-5.85759999999993
 70
     32
  0
VERTEX
  8
MY3DLAYER
10
31.3147462913144
20
28.0621062377045
30
-5.85759999999993
 70
     32
  0
SEQEND
  0
POLYLINE
 8
Layer0
 66
     1
70
    8
 10
0.0
 20
 0.0
 30
0.0
  0
VERTEX
  8
MY3DLAYER
10
29.2356212913117
20
28.0621062377045
30
-5.85759999999993
 70
     32
  0
VERTEX
  8
MY3DLAYER
10
29.2373249999972
20
28.0491652854493
30
-5.85759999999993
 70
     32
  0
VERTEX
  8
MY3DLAYER
10
29.2356212913117
20
28.0362243331942
30
-5.85759999999993
 70
     32
  0
VERTEX
  8
MY3DLAYER
10
29.2306262701865
20
28.0241652854493
30
-5.85759999999993
 70
     32
  0
VERTEX
  8
MY3DLAYER
10
29.2226803390566
20
28.01380994639
30
-5.85759999999993
 70
     32
  0
VERTEX
  8
MY3DLAYER
10
29.2123249999972
20
28.0058640152601
30
-5.85759999999993
 70
     32
  0
VERTEX
  8
MY3DLAYER
10
29.2002659522524
20
28.0008689941349
30
-5.85759999999993
 70
     32
  0
VERTEX
  8
MY3DLAYER
10
29.1873249999972
20
27.9991652854493
30
-5.85759999999993
 70
     32
  0
VERTEX
  8
MY3DLAYER
10
29.1873249999972
20
27.5674978563093
30
-5.85759999999993
 70
     32
  0
VERTEX
  8
MY3DLAYER
10
29.2002659522524
20
27.5657941476238
30
-5.85759999999993
 70
     32
  0
VERTEX
  8
MY3DLAYER
10
29.2123249999972
20
27.5607991264986
30
-5.85759999999993
 70
     32
  0
VERTEX
  8
MY3DLAYER
10
29.2226803390566
20
27.5528531953687
30
-5.85759999999993
 70
     32
  0
VERTEX
  8
MY3DLAYER
10
29.2306262701865
20
27.5424978563093
30
-5.85759999999993
 70
     32
  0
VERTEX
  8
MY3DLAYER
10
29.2356212913117
20
27.5304388085645
30
-5.85759999999993
 70
     32
  0
VERTEX
  8
MY3DLAYER
10
29.2373249999972
20
27.5174978563093
30
-5.85759999999993
 70
     32
  0
VERTEX
  8
MY3DLAYER
10
29.2356212913117
20
27.5045569040542
30
-5.85759999999993
 70
     32
  0
VERTEX
  8
MY3DLAYER
10
29.2306262701865
20
27.4924978563093
30
-5.85759999999993
 70
     32
  0
VERTEX
  8
MY3DLAYER
10
29.2226803390566
20
27.48214251725
30
-5.85759999999993
 70
     32
  0
VERTEX
  8
MY3DLAYER
10
29.2123249999972
20
27.4741965861201
30
-5.85759999999993
 70
     32
  0
VERTEX
  8
MY3DLAYER
10
29.2002659522524
20
27.4692015649949
30
-5.85759999999993
 70
     32
  0
VERTEX
  8
MY3DLAYER
10
29.1873249999972
20
27.4674978563093
30
-5.85759999999993
 70
     32
  0
VERTEX
  8
MY3DLAYER
10
29.1743840477421
20
27.4692015649949
30
-5.85759999999993
 70
     32
  0
VERTEX
  8
MY3DLAYER
10
29.1623249999972
20
27.4741965861201
30
-5.85759999999993
 70
     32
  0
VERTEX
  8
MY3DLAYER
10
29.1519696609379
20
27.48214251725
30
-5.85759999999993
 70
     32
  0
VERTEX
  8
MY3DLAYER
10
29.144023729808
20
27.4924978563093
30
-5.85759999999993
 70
     32
  0
VERTEX
  8
MY3DLAYER
10
28.7701887701865
20
27.2766641417393
30
-5.85759999999993
 70
     32
  0
VERTEX
  8
MY3DLAYER
10
28.7751837913117
20
27.2646050939945
30
-5.85759999999993
 70
     32
  0
VERTEX
  8
MY3DLAYER
10
28.7768874999972
20
27.2516641417393
30
-5.85759999999993
 70
     32
  0
VERTEX
  8
MY3DLAYER
10
28.7751837913117
20
27.2387231894842
30
-5.85759999999993
 70
     32
  0
VERTEX
  8
MY3DLAYER
10
28.7701887701865
20
27.2266641417393
30
-5.85759999999993
 70
     32
  0
VERTEX
  8
MY3DLAYER
10
28.7622428390566
20
27.21630880268
30
-5.85759999999993
 70
     32
  0
VERTEX
  8
MY3DLAYER
10
28.7518874999972
20
27.2083628715501
30
-5.85759999999993
 70
     32
  0
VERTEX
  8
MY3DLAYER
10
28.7398284522524
20
27.2033678504249
30
-5.85759999999993
 70
     32
  0
VERTEX
  8
MY3DLAYER
10
28.7268874999972
20
27.2016641417393
30
-5.85759999999993
 70
     32
  0
VERTEX
  8
MY3DLAYER
10
28.7139465477421
20
27.2033678504249
30
-5.85759999999993
 70
     32
  0
VERTEX
  8
MY3DLAYER
10
28.7018874999972
20
27.2083628715501
30
-5.85759999999993
 70
     32
  0
VERTEX
  8
MY3DLAYER
10
28.6915321609379
20
27.21630880268
30
-5.85759999999993
 70
     32
  0
VERTEX
  8
MY3DLAYER
10
28.683586229808
20
27.2266641417393
30
-5.85759999999993
 70
     32
  0
VERTEX
  8
MY3DLAYER
10
28.6785912086828
20
27.2387231894842
30
-5.85759999999993
 70
     32
  0
VERTEX
  8
MY3DLAYER
10
28.6768874999972
20
27.2516641417393
30
-5.85759999999993
 70
     32
  0
VERTEX
  8
MY3DLAYER
10
28.6785912086828
20
27.2646050939945
30
-5.85759999999993
 70
     32
  0
VERTEX
  8
MY3DLAYER
10
28.683586229808
20
27.2766641417393
30
-5.85759999999993
 70
     32
  0
VERTEX
  8
MY3DLAYER
10
28.3097512701865
20
27.4924978563093
30
-5.85759999999993
 70
     32
  0
VERTEX
  8
MY3DLAYER
10
28.3018053390566
20
27.48214251725
30
-5.85759999999993
 70
     32
  0
VERTEX
  8
MY3DLAYER
10
28.2914499999972
20
27.4741965861201
30
-5.85759999999993
 70
     32
  0
VERTEX
  8
MY3DLAYER
10
28.2793909522524
20
27.4692015649949
30
-5.85759999999993
 70
     32
  0
VERTEX
  8
MY3DLAYER
10
28.2664499999972
20
27.4674978563093
30
-5.85759999999993
 70
     32
  0
VERTEX
  8
MY3DLAYER
10
28.2535090477421
20
27.4692015649949
30
-5.85759999999993
 70
     32
  0
VERTEX
  8
MY3DLAYER
10
28.2414499999972
20
27.4741965861201
30
-5.85759999999993
 70
     32
  0
VERTEX
  8
MY3DLAYER
10
28.2310946609379
20
27.48214251725
30
-5.85759999999993
 70
     32
  0
VERTEX
  8
MY3DLAYER
10
28.223148729808
20
27.4924978563093
30
-5.85759999999993
 70
     32
  0
VERTEX
  8
MY3DLAYER
10
28.2181537086828
20
27.5045569040542
30
-5.85759999999993
 70
     32
  0
VERTEX
  8
MY3DLAYER
10
28.2164499999972
20
27.5174978563093
30
-5.85759999999993
 70
     32
  0
VERTEX
  8
MY3DLAYER
10
28.2181537086828
20
27.5304388085645
30
-5.85759999999993
 70
     32
  0
VERTEX
  8
MY3DLAYER
10
28.223148729808
20
27.5424978563093
30
-5.85759999999993
 70
     32
  0
VERTEX
  8
MY3DLAYER
10
28.2310946609379
20
27.5528531953687
30
-5.85759999999993
 70
     32
  0
VERTEX
  8
MY3DLAYER
10
28.2414499999972
20
27.5607991264986
30
-5.85759999999993
 70
     32
  0
VERTEX
  8
MY3DLAYER
10
28.2535090477421
20
27.5657941476238
30
-5.85759999999993
 70
     32
  0
VERTEX
  8
MY3DLAYER
10
28.2664499999972
20
27.5674978563093
30
-5.85759999999993
 70
     32
  0
VERTEX
  8
MY3DLAYER
10
28.2664499999972
20
27.9991652854493
30
-5.85759999999993
 70
     32
  0
VERTEX
  8
MY3DLAYER
10
28.2535090477421
20
28.0008689941349
30
-5.85759999999993
 70
     32
  0
VERTEX
  8
MY3DLAYER
10
28.2414499999972
20
28.0058640152601
30
-5.85759999999993
 70
     32
  0
VERTEX
  8
MY3DLAYER
10
28.2310946609379
20
28.01380994639
30
-5.85759999999993
 70
     32
  0
VERTEX
  8
MY3DLAYER
10
28.223148729808
20
28.0241652854493
30
-5.85759999999993
 70
     32
  0
VERTEX
  8
MY3DLAYER
10
28.2181537086828
20
28.0362243331942
30
-5.85759999999993
 70
     32
  0
VERTEX
  8
MY3DLAYER
10
28.2164499999972
20
28.0491652854493
30
-5.85759999999993
 70
     32
  0
VERTEX
  8
MY3DLAYER
10
28.2181537086828
20
28.0621062377045
30
-5.85759999999993
 70
     32
  0
VERTEX
  8
MY3DLAYER
10
28.223148729808
20
28.0741652854493
30
-5.85759999999993
 70
     32
  0
VERTEX
  8
MY3DLAYER
10
28.2310946609379
20
28.0845206245087
30
-5.85759999999993
 70
     32
  0
VERTEX
  8
MY3DLAYER
10
28.2414499999972
20
28.0924665556386
30
-5.85759999999993
 70
     32
  0
VERTEX
  8
MY3DLAYER
10
28.2535090477421
20
28.0974615767638
30
-5.85759999999993
 70
     32
  0
VERTEX
  8
MY3DLAYER
10
28.2664499999972
20
28.0991652854493
30
-5.85759999999993
 70
     32
  0
VERTEX
  8
MY3DLAYER
10
28.2793909522524
20
28.0974615767638
30
-5.85759999999993
 70
     32
  0
VERTEX
  8
MY3DLAYER
10
28.2914499999972
20
28.0924665556386
30
-5.85759999999993
 70
     32
  0
VERTEX
  8
MY3DLAYER
10
28.3018053390566
20
28.0845206245087
30
-5.85759999999993
 70
     32
  0
VERTEX
  8
MY3DLAYER
10
28.3097512701865
20
28.0741652854493
30
-5.85759999999993
 70
     32
  0
VERTEX
  8
MY3DLAYER
10
28.683586229808
20
28.2899990000193
30
-5.85759999999993
 70
     32
  0
VERTEX
  8
MY3DLAYER
10
28.6785912086828
20
28.3020580477642
30
-5.85759999999993
 70
     32
  0
VERTEX
  8
MY3DLAYER
10
28.6768874999972
20
28.3149990000193
30
-5.85759999999993
 70
     32
  0
VERTEX
  8
MY3DLAYER
10
28.6785912086828
20
28.3279399522745
30
-5.85759999999993
 70
     32
  0
VERTEX
  8
MY3DLAYER
10
28.683586229808
20
28.3399990000193
30
-5.85759999999993
 70
     32
  0
VERTEX
  8
MY3DLAYER
10
28.6915321609379
20
28.3503543390787
30
-5.85759999999993
 70
     32
  0
VERTEX
  8
MY3DLAYER
10
28.7018874999972
20
28.3583002702086
30
-5.85759999999993
 70
     32
  0
VERTEX
  8
MY3DLAYER
10
28.7139465477421
20
28.3632952913338
30
-5.85759999999993
 70
     32
  0
VERTEX
  8
MY3DLAYER
10
28.7268874999972
20
28.3649990000193
30
-5.85759999999993
 70
     32
  0
VERTEX
  8
MY3DLAYER
10
28.7398284522524
20
28.3632952913338
30
-5.85759999999993
 70
     32
  0
VERTEX
  8
MY3DLAYER
10
28.7518874999972
20
28.3583002702086
30
-5.85759999999993
 70
     32
  0
VERTEX
  8
MY3DLAYER
10
28.7622428390566
20
28.3503543390787
30
-5.85759999999993
 70
     32
  0
VERTEX
  8
MY3DLAYER
10
28.7701887701865
20
28.3399990000193
30
-5.85759999999993
 70
     32
  0
VERTEX
  8
MY3DLAYER
10
28.7751837913117
20
28.3279399522745
30
-5.85759999999993
 70
     32
  0
VERTEX
  8
MY3DLAYER
10
28.7768874999972
20
28.3149990000193
30
-5.85759999999993
 70
     32
  0
VERTEX
  8
MY3DLAYER
10
28.7751837913117
20
28.3020580477642
30
-5.85759999999993
 70
     32
  0
VERTEX
  8
MY3DLAYER
10
28.7701887701865
20
28.2899990000193
30
-5.85759999999993
 70
     32
  0
VERTEX
  8
MY3DLAYER
10
29.144023729808
20
28.0741652854493
30
-5.85759999999993
 70
     32
  0
VERTEX
  8
MY3DLAYER
10
29.1519696609379
20
28.0845206245087
30
-5.85759999999993
 70
     32
  0
VERTEX
  8
MY3DLAYER
10
29.1623249999972
20
28.0924665556386
30
-5.85759999999993
 70
     32
  0
VERTEX
  8
MY3DLAYER
10
29.1743840477421
20
28.0974615767638
30
-5.85759999999993
 70
     32
  0
VERTEX
  8
MY3DLAYER
10
29.1873249999972
20
28.0991652854493
30
-5.85759999999993
 70
     32
  0
VERTEX
  8
MY3DLAYER
10
29.2002659522524
20
28.0974615767638
30
-5.85759999999993
 70
     32
  0
VERTEX
  8
MY3DLAYER
10
29.2123249999972
20
28.0924665556386
30
-5.85759999999993
 70
     32
  0
VERTEX
  8
MY3DLAYER
10
29.2226803390566
20
28.0845206245087
30
-5.85759999999993
 70
     32
  0
VERTEX
  8
MY3DLAYER
10
29.2306262701865
20
28.0741652854493
30
-5.85759999999993
 70
     32
  0
VERTEX
  8
MY3DLAYER
10
29.2356212913117
20
28.0621062377045
30
-5.85759999999993
 70
     32
  0
SEQEND
  0
POLYLINE
 8
Layer0
 66
     1
70
    8
 10
0.0
 20
 0.0
 30
0.0
  0
VERTEX
  8
MY3DLAYER
10
31.3147462913144
20
26.2504392377045
30
-5.85759999999993
 70
     32
  0
VERTEX
  8
MY3DLAYER
10
31.31645
20
26.2374982854493
30
-5.85759999999993
 70
     32
  0
VERTEX
  8
MY3DLAYER
10
31.3147462913144
20
26.2245573331942
30
-5.85759999999993
 70
     32
  0
VERTEX
  8
MY3DLAYER
10
31.3097512701892
20
26.2124982854493
30
-5.85759999999993
 70
     32
  0
VERTEX
  8
MY3DLAYER
10
31.3018053390593
20
26.20214294639
30
-5.85759999999993
 70
     32
  0
VERTEX
  8
MY3DLAYER
10
31.29145
20
26.1941970152601
30
-5.85759999999993
 70
     32
  0
VERTEX
  8
MY3DLAYER
10
31.2793909522551
20
26.1892019941349
30
-5.85759999999993
 70
     32
  0
VERTEX
  8
MY3DLAYER
10
31.26645
20
26.1874982854493
30
-5.85759999999993
 70
     32
  0
VERTEX
  8
MY3DLAYER
10
31.26645
20
25.7558308563093
30
-5.85759999999993
 70
     32
  0
VERTEX
  8
MY3DLAYER
10
31.2793909522551
20
25.7541271476238
30
-5.85759999999993
 70
     32
  0
VERTEX
  8
MY3DLAYER
10
31.29145
20
25.7491321264986
30
-5.85759999999993
 70
     32
  0
VERTEX
  8
MY3DLAYER
10
31.3018053390593
20
25.7411861953687
30
-5.85759999999993
 70
     32
  0
VERTEX
  8
MY3DLAYER
10
31.3097512701892
20
25.7308308563093
30
-5.85759999999993
 70
     32
  0
VERTEX
  8
MY3DLAYER
10
31.3147462913144
20
25.7187718085645
30
-5.85759999999993
 70
     32
  0
VERTEX
  8
MY3DLAYER
10
31.31645
20
25.7058308563093
30
-5.85759999999993
 70
     32
  0
VERTEX
  8
MY3DLAYER
10
31.3147462913144
20
25.6928899040542
30
-5.85759999999993
 70
     32
  0
VERTEX
  8
MY3DLAYER
10
31.3097512701892
20
25.6808308563093
30
-5.85759999999993
 70
     32
  0
VERTEX
  8
MY3DLAYER
10
31.3018053390593
20
25.67047551725
30
-5.85759999999993
 70
     32
  0
VERTEX
  8
MY3DLAYER
10
31.29145
20
25.6625295861201
30
-5.85759999999993
 70
     32
  0
VERTEX
  8
MY3DLAYER
10
31.2793909522551
20
25.6575345649949
30
-5.85759999999993
 70
     32
  0
VERTEX
  8
MY3DLAYER
10
31.26645
20
25.6558308563093
30
-5.85759999999993
 70
     32
  0
VERTEX
  8
MY3DLAYER
10
31.2535090477449
20
25.6575345649949
30
-5.85759999999993
 70
     32
  0
VERTEX
  8
MY3DLAYER
10
31.24145
20
25.6625295861201
30
-5.85759999999993
 70
     32
  0
VERTEX
  8
MY3DLAYER
10
31.2310946609407
20
25.67047551725
30
-5.85759999999993
 70
     32
  0
VERTEX
  8
MY3DLAYER
10
31.2231487298108
20
25.6808308563093
30
-5.85759999999993
 70
     32
  0
VERTEX
  8
MY3DLAYER
10
30.8493137701892
20
25.4649971417393
30
-5.85759999999993
 70
     32
  0
VERTEX
  8
MY3DLAYER
10
30.8543087913144
20
25.4529380939945
30
-5.85759999999993
 70
     32
  0
VERTEX
  8
MY3DLAYER
10
30.8560125
20
25.4399971417393
30
-5.85759999999993
 70
     32
  0
VERTEX
  8
MY3DLAYER
10
30.8543087913144
20
25.4270561894842
30
-5.85759999999993
 70
     32
  0
VERTEX
  8
MY3DLAYER
10
30.8493137701892
20
25.4149971417393
30
-5.85759999999993
 70
     32
  0
VERTEX
  8
MY3DLAYER
10
30.8413678390593
20
25.40464180268
30
-5.85759999999993
 70
     32
  0
VERTEX
  8
MY3DLAYER
10
30.8310125
20
25.3966958715501
30
-5.85759999999993
 70
     32
  0
VERTEX
  8
MY3DLAYER
10
30.8189534522551
20
25.3917008504249
30
-5.85759999999993
 70
     32
  0
VERTEX
  8
MY3DLAYER
10
30.8060125
20
25.3899971417393
30
-5.85759999999993
 70
     32
  0
VERTEX
  8
MY3DLAYER
10
30.7930715477449
20
25.3917008504249
30
-5.85759999999993
 70
     32
  0
VERTEX
  8
MY3DLAYER
10
30.7810125
20
25.3966958715501
30
-5.85759999999993
 70
     32
  0
VERTEX
  8
MY3DLAYER
10
30.7706571609407
20
25.40464180268
30
-5.85759999999993
 70
     32
  0
VERTEX
  8
MY3DLAYER
10
30.7627112298108
20
25.4149971417393
30
-5.85759999999993
 70
     32
  0
VERTEX
  8
MY3DLAYER
10
30.7577162086855
20
25.4270561894842
30
-5.85759999999993
 70
     32
  0
VERTEX
  8
MY3DLAYER
10
30.7560125
20
25.4399971417393
30
-5.85759999999993
 70
     32
  0
VERTEX
  8
MY3DLAYER
10
30.7577162086855
20
25.4529380939945
30
-5.85759999999993
 70
     32
  0
VERTEX
  8
MY3DLAYER
10
30.7627112298108
20
25.4649971417393
30
-5.85759999999993
 70
     32
  0
VERTEX
  8
MY3DLAYER
10
30.3888762701892
20
25.6808308563093
30
-5.85759999999993
 70
     32
  0
VERTEX
  8
MY3DLAYER
10
30.3809303390593
20
25.67047551725
30
-5.85759999999993
 70
     32
  0
VERTEX
  8
MY3DLAYER
10
30.370575
20
25.6625295861201
30
-5.85759999999993
 70
     32
  0
VERTEX
  8
MY3DLAYER
10
30.3585159522551
20
25.6575345649949
30
-5.85759999999993
 70
     32
  0
VERTEX
  8
MY3DLAYER
10
30.345575
20
25.6558308563093
30
-5.85759999999993
 70
     32
  0
VERTEX
  8
MY3DLAYER
10
30.3326340477449
20
25.6575345649949
30
-5.85759999999993
 70
     32
  0
VERTEX
  8
MY3DLAYER
10
30.320575
20
25.6625295861201
30
-5.85759999999993
 70
     32
  0
VERTEX
  8
MY3DLAYER
10
30.3102196609407
20
25.67047551725
30
-5.85759999999993
 70
     32
  0
VERTEX
  8
MY3DLAYER
10
30.3022737298108
20
25.6808308563093
30
-5.85759999999993
 70
     32
  0
VERTEX
  8
MY3DLAYER
10
30.2972787086855
20
25.6928899040542
30
-5.85759999999993
 70
     32
  0
VERTEX
  8
MY3DLAYER
10
30.295575
20
25.7058308563093
30
-5.85759999999993
 70
     32
  0
VERTEX
  8
MY3DLAYER
10
30.2972787086855
20
25.7187718085645
30
-5.85759999999993
 70
     32
  0
VERTEX
  8
MY3DLAYER
10
30.3022737298108
20
25.7308308563093
30
-5.85759999999993
 70
     32
  0
VERTEX
  8
MY3DLAYER
10
30.3102196609407
20
25.7411861953687
30
-5.85759999999993
 70
     32
  0
VERTEX
  8
MY3DLAYER
10
30.320575
20
25.7491321264986
30
-5.85759999999993
 70
     32
  0
VERTEX
  8
MY3DLAYER
10
30.3326340477449
20
25.7541271476238
30
-5.85759999999993
 70
     32
  0
VERTEX
  8
MY3DLAYER
10
30.345575
20
25.7558308563093
30
-5.85759999999993
 70
     32
  0
VERTEX
  8
MY3DLAYER
10
30.345575
20
26.1874982854493
30
-5.85759999999993
 70
     32
  0
VERTEX
  8
MY3DLAYER
10
30.3326340477449
20
26.1892019941349
30
-5.85759999999993
 70
     32
  0
VERTEX
  8
MY3DLAYER
10
30.320575
20
26.1941970152601
30
-5.85759999999993
 70
     32
  0
VERTEX
  8
MY3DLAYER
10
30.3102196609407
20
26.20214294639
30
-5.85759999999993
 70
     32
  0
VERTEX
  8
MY3DLAYER
10
30.3022737298108
20
26.2124982854493
30
-5.85759999999993
 70
     32
  0
VERTEX
  8
MY3DLAYER
10
30.2972787086855
20
26.2245573331942
30
-5.85759999999993
 70
     32
  0
VERTEX
  8
MY3DLAYER
10
30.295575
20
26.2374982854493
30
-5.85759999999993
 70
     32
  0
VERTEX
  8
MY3DLAYER
10
30.2972787086855
20
26.2504392377045
30
-5.85759999999993
 70
     32
  0
VERTEX
  8
MY3DLAYER
10
30.3022737298108
20
26.2624982854493
30
-5.85759999999993
 70
     32
  0
VERTEX
  8
MY3DLAYER
10
30.3102196609407
20
26.2728536245087
30
-5.85759999999993
 70
     32
  0
VERTEX
  8
MY3DLAYER
10
30.320575
20
26.2807995556386
30
-5.85759999999993
 70
     32
  0
VERTEX
  8
MY3DLAYER
10
30.3326340477449
20
26.2857945767638
30
-5.85759999999993
 70
     32
  0
VERTEX
  8
MY3DLAYER
10
30.345575
20
26.2874982854493
30
-5.85759999999993
 70
     32
  0
VERTEX
  8
MY3DLAYER
10
30.3585159522551
20
26.2857945767638
30
-5.85759999999993
 70
     32
  0
VERTEX
  8
MY3DLAYER
10
30.370575
20
26.2807995556386
30
-5.85759999999993
 70
     32
  0
VERTEX
  8
MY3DLAYER
10
30.3809303390593
20
26.2728536245087
30
-5.85759999999993
 70
     32
  0
VERTEX
  8
MY3DLAYER
10
30.3888762701892
20
26.2624982854493
30
-5.85759999999993
 70
     32
  0
VERTEX
  8
MY3DLAYER
10
30.7627112298108
20
26.4783320000193
30
-5.85759999999993
 70
     32
  0
VERTEX
  8
MY3DLAYER
10
30.7577162086855
20
26.4903910477642
30
-5.85759999999993
 70
     32
  0
VERTEX
  8
MY3DLAYER
10
30.7560125
20
26.5033320000193
30
-5.85759999999993
 70
     32
  0
VERTEX
  8
MY3DLAYER
10
30.7577162086855
20
26.5162729522745
30
-5.85759999999993
 70
     32
  0
VERTEX
  8
MY3DLAYER
10
30.7627112298108
20
26.5283320000193
30
-5.85759999999993
 70
     32
  0
VERTEX
  8
MY3DLAYER
10
30.7706571609407
20
26.5386873390787
30
-5.85759999999993
 70
     32
  0
VERTEX
  8
MY3DLAYER
10
30.7810125
20
26.5466332702086
30
-5.85759999999993
 70
     32
  0
VERTEX
  8
MY3DLAYER
10
30.7930715477449
20
26.5516282913338
30
-5.85759999999993
 70
     32
  0
VERTEX
  8
MY3DLAYER
10
30.8060125
20
26.5533320000193
30
-5.85759999999993
 70
     32
  0
VERTEX
  8
MY3DLAYER
10
30.8189534522551
20
26.5516282913338
30
-5.85759999999993
 70
     32
  0
VERTEX
  8
MY3DLAYER
10
30.8310125
20
26.5466332702086
30
-5.85759999999993
 70
     32
  0
VERTEX
  8
MY3DLAYER
10
30.8413678390593
20
26.5386873390787
30
-5.85759999999993
 70
     32
  0
VERTEX
  8
MY3DLAYER
10
30.8493137701892
20
26.5283320000193
30
-5.85759999999993
 70
     32
  0
VERTEX
  8
MY3DLAYER
10
30.8543087913144
20
26.5162729522745
30
-5.85759999999993
 70
     32
  0
VERTEX
  8
MY3DLAYER
10
30.8560125
20
26.5033320000193
30
-5.85759999999993
 70
     32
  0
VERTEX
  8
MY3DLAYER
10
30.8543087913144
20
26.4903910477642
30
-5.85759999999993
 70
     32
  0
VERTEX
  8
MY3DLAYER
10
30.8493137701892
20
26.4783320000193
30
-5.85759999999993
 70
     32
  0
VERTEX
  8
MY3DLAYER
10
31.2231487298108
20
26.2624982854493
30
-5.85759999999993
 70
     32
  0
VERTEX
  8
MY3DLAYER
10
31.2310946609407
20
26.2728536245087
30
-5.85759999999993
 70
     32
  0
VERTEX
  8
MY3DLAYER
10
31.24145
20
26.2807995556386
30
-5.85759999999993
 70
     32
  0
VERTEX
  8
MY3DLAYER
10
31.2535090477449
20
26.2857945767638
30
-5.85759999999993
 70
     32
  0
VERTEX
  8
MY3DLAYER
10
31.26645
20
26.2874982854493
30
-5.85759999999993
 70
     32
  0
VERTEX
  8
MY3DLAYER
10
31.2793909522551
20
26.2857945767638
30
-5.85759999999993
 70
     32
  0
VERTEX
  8
MY3DLAYER
10
31.29145
20
26.2807995556386
30
-5.85759999999993
 70
     32
  0
VERTEX
  8
MY3DLAYER
10
31.3018053390593
20
26.2728536245087
30
-5.85759999999993
 70
     32
  0
VERTEX
  8
MY3DLAYER
10
31.3097512701892
20
26.2624982854493
30
-5.85759999999993
 70
     32
  0
VERTEX
  8
MY3DLAYER
10
31.3147462913144
20
26.2504392377045
30
-5.85759999999993
 70
     32
  0
SEQEND
  0
POLYLINE
 8
Layer0
 66
     1
70
    8
 10
0.0
 20
 0.0
 30
0.0
  0
VERTEX
  8
MY3DLAYER
10
29.2356212913117
20
26.2504392377045
30
-5.85759999999993
 70
     32
  0
VERTEX
  8
MY3DLAYER
10
29.2373249999972
20
26.2374982854493
30
-5.85759999999993
 70
     32
  0
VERTEX
  8
MY3DLAYER
10
29.2356212913117
20
26.2245573331942
30
-5.85759999999993
 70
     32
  0
VERTEX
  8
MY3DLAYER
10
29.2306262701865
20
26.2124982854493
30
-5.85759999999993
 70
     32
  0
VERTEX
  8
MY3DLAYER
10
29.2226803390566
20
26.20214294639
30
-5.85759999999993
 70
     32
  0
VERTEX
  8
MY3DLAYER
10
29.2123249999972
20
26.1941970152601
30
-5.85759999999993
 70
     32
  0
VERTEX
  8
MY3DLAYER
10
29.2002659522524
20
26.1892019941349
30
-5.85759999999993
 70
     32
  0
VERTEX
  8
MY3DLAYER
10
29.1873249999972
20
26.1874982854493
30
-5.85759999999993
 70
     32
  0
VERTEX
  8
MY3DLAYER
10
29.1873249999972
20
25.7558308563093
30
-5.85759999999993
 70
     32
  0
VERTEX
  8
MY3DLAYER
10
29.2002659522524
20
25.7541271476238
30
-5.85759999999993
 70
     32
  0
VERTEX
  8
MY3DLAYER
10
29.2123249999972
20
25.7491321264986
30
-5.85759999999993
 70
     32
  0
VERTEX
  8
MY3DLAYER
10
29.2226803390566
20
25.7411861953687
30
-5.85759999999993
 70
     32
  0
VERTEX
  8
MY3DLAYER
10
29.2306262701865
20
25.7308308563093
30
-5.85759999999993
 70
     32
  0
VERTEX
  8
MY3DLAYER
10
29.2356212913117
20
25.7187718085645
30
-5.85759999999993
 70
     32
  0
VERTEX
  8
MY3DLAYER
10
29.2373249999972
20
25.7058308563093
30
-5.85759999999993
 70
     32
  0
VERTEX
  8
MY3DLAYER
10
29.2356212913117
20
25.6928899040542
30
-5.85759999999993
 70
     32
  0
VERTEX
  8
MY3DLAYER
10
29.2306262701865
20
25.6808308563093
30
-5.85759999999993
 70
     32
  0
VERTEX
  8
MY3DLAYER
10
29.2226803390566
20
25.67047551725
30
-5.85759999999993
 70
     32
  0
VERTEX
  8
MY3DLAYER
10
29.2123249999972
20
25.6625295861201
30
-5.85759999999993
 70
     32
  0
VERTEX
  8
MY3DLAYER
10
29.2002659522524
20
25.6575345649949
30
-5.85759999999993
 70
     32
  0
VERTEX
  8
MY3DLAYER
10
29.1873249999972
20
25.6558308563093
30
-5.85759999999993
 70
     32
  0
VERTEX
  8
MY3DLAYER
10
29.1743840477421
20
25.6575345649949
30
-5.85759999999993
 70
     32
  0
VERTEX
  8
MY3DLAYER
10
29.1623249999972
20
25.6625295861201
30
-5.85759999999993
 70
     32
  0
VERTEX
  8
MY3DLAYER
10
29.1519696609379
20
25.67047551725
30
-5.85759999999993
 70
     32
  0
VERTEX
  8
MY3DLAYER
10
29.144023729808
20
25.6808308563093
30
-5.85759999999993
 70
     32
  0
VERTEX
  8
MY3DLAYER
10
28.7701887701865
20
25.4649971417393
30
-5.85759999999993
 70
     32
  0
VERTEX
  8
MY3DLAYER
10
28.7751837913117
20
25.4529380939945
30
-5.85759999999993
 70
     32
  0
VERTEX
  8
MY3DLAYER
10
28.7768874999972
20
25.4399971417393
30
-5.85759999999993
 70
     32
  0
VERTEX
  8
MY3DLAYER
10
28.7751837913117
20
25.4270561894842
30
-5.85759999999993
 70
     32
  0
VERTEX
  8
MY3DLAYER
10
28.7701887701865
20
25.4149971417393
30
-5.85759999999993
 70
     32
  0
VERTEX
  8
MY3DLAYER
10
28.7622428390566
20
25.40464180268
30
-5.85759999999993
 70
     32
  0
VERTEX
  8
MY3DLAYER
10
28.7518874999972
20
25.3966958715501
30
-5.85759999999993
 70
     32
  0
VERTEX
  8
MY3DLAYER
10
28.7398284522524
20
25.3917008504249
30
-5.85759999999993
 70
     32
  0
VERTEX
  8
MY3DLAYER
10
28.7268874999972
20
25.3899971417393
30
-5.85759999999993
 70
     32
  0
VERTEX
  8
MY3DLAYER
10
28.7139465477421
20
25.3917008504249
30
-5.85759999999993
 70
     32
  0
VERTEX
  8
MY3DLAYER
10
28.7018874999972
20
25.3966958715501
30
-5.85759999999993
 70
     32
  0
VERTEX
  8
MY3DLAYER
10
28.6915321609379
20
25.40464180268
30
-5.85759999999993
 70
     32
  0
VERTEX
  8
MY3DLAYER
10
28.683586229808
20
25.4149971417393
30
-5.85759999999993
 70
     32
  0
VERTEX
  8
MY3DLAYER
10
28.6785912086828
20
25.4270561894842
30
-5.85759999999993
 70
     32
  0
VERTEX
  8
MY3DLAYER
10
28.6768874999972
20
25.4399971417393
30
-5.85759999999993
 70
     32
  0
VERTEX
  8
MY3DLAYER
10
28.6785912086828
20
25.4529380939945
30
-5.85759999999993
 70
     32
  0
VERTEX
  8
MY3DLAYER
10
28.683586229808
20
25.4649971417393
30
-5.85759999999993
 70
     32
  0
VERTEX
  8
MY3DLAYER
10
28.3097512701865
20
25.6808308563093
30
-5.85759999999993
 70
     32
  0
VERTEX
  8
MY3DLAYER
10
28.3018053390566
20
25.67047551725
30
-5.85759999999993
 70
     32
  0
VERTEX
  8
MY3DLAYER
10
28.2914499999972
20
25.6625295861201
30
-5.85759999999993
 70
     32
  0
VERTEX
  8
MY3DLAYER
10
28.2793909522524
20
25.6575345649949
30
-5.85759999999993
 70
     32
  0
VERTEX
  8
MY3DLAYER
10
28.2664499999972
20
25.6558308563093
30
-5.85759999999993
 70
     32
  0
VERTEX
  8
MY3DLAYER
10
28.2535090477421
20
25.6575345649949
30
-5.85759999999993
 70
     32
  0
VERTEX
  8
MY3DLAYER
10
28.2414499999972
20
25.6625295861201
30
-5.85759999999993
 70
     32
  0
VERTEX
  8
MY3DLAYER
10
28.2310946609379
20
25.67047551725
30
-5.85759999999993
 70
     32
  0
VERTEX
  8
MY3DLAYER
10
28.223148729808
20
25.6808308563093
30
-5.85759999999993
 70
     32
  0
VERTEX
  8
MY3DLAYER
10
28.2181537086828
20
25.6928899040542
30
-5.85759999999993
 70
     32
  0
VERTEX
  8
MY3DLAYER
10
28.2164499999972
20
25.7058308563093
30
-5.85759999999993
 70
     32
  0
VERTEX
  8
MY3DLAYER
10
28.2181537086828
20
25.7187718085645
30
-5.85759999999993
 70
     32
  0
VERTEX
  8
MY3DLAYER
10
28.223148729808
20
25.7308308563093
30
-5.85759999999993
 70
     32
  0
VERTEX
  8
MY3DLAYER
10
28.2310946609379
20
25.7411861953687
30
-5.85759999999993
 70
     32
  0
VERTEX
  8
MY3DLAYER
10
28.2414499999972
20
25.7491321264986
30
-5.85759999999993
 70
     32
  0
VERTEX
  8
MY3DLAYER
10
28.2535090477421
20
25.7541271476238
30
-5.85759999999993
 70
     32
  0
VERTEX
  8
MY3DLAYER
10
28.2664499999972
20
25.7558308563093
30
-5.85759999999993
 70
     32
  0
VERTEX
  8
MY3DLAYER
10
28.2664499999972
20
26.1874982854493
30
-5.85759999999993
 70
     32
  0
VERTEX
  8
MY3DLAYER
10
28.2535090477421
20
26.1892019941349
30
-5.85759999999993
 70
     32
  0
VERTEX
  8
MY3DLAYER
10
28.2414499999972
20
26.1941970152601
30
-5.85759999999993
 70
     32
  0
VERTEX
  8
MY3DLAYER
10
28.2310946609379
20
26.20214294639
30
-5.85759999999993
 70
     32
  0
VERTEX
  8
MY3DLAYER
10
28.223148729808
20
26.2124982854493
30
-5.85759999999993
 70
     32
  0
VERTEX
  8
MY3DLAYER
10
28.2181537086828
20
26.2245573331942
30
-5.85759999999993
 70
     32
  0
VERTEX
  8
MY3DLAYER
10
28.2164499999972
20
26.2374982854493
30
-5.85759999999993
 70
     32
  0
VERTEX
  8
MY3DLAYER
10
28.2181537086828
20
26.2504392377045
30
-5.85759999999993
 70
     32
  0
VERTEX
  8
MY3DLAYER
10
28.223148729808
20
26.2624982854493
30
-5.85759999999993
 70
     32
  0
VERTEX
  8
MY3DLAYER
10
28.2310946609379
20
26.2728536245087
30
-5.85759999999993
 70
     32
  0
VERTEX
  8
MY3DLAYER
10
28.2414499999972
20
26.2807995556386
30
-5.85759999999993
 70
     32
  0
VERTEX
  8
MY3DLAYER
10
28.2535090477421
20
26.2857945767638
30
-5.85759999999993
 70
     32
  0
VERTEX
  8
MY3DLAYER
10
28.2664499999972
20
26.2874982854493
30
-5.85759999999993
 70
     32
  0
VERTEX
  8
MY3DLAYER
10
28.2793909522524
20
26.2857945767638
30
-5.85759999999993
 70
     32
  0
VERTEX
  8
MY3DLAYER
10
28.2914499999972
20
26.2807995556386
30
-5.85759999999993
 70
     32
  0
VERTEX
  8
MY3DLAYER
10
28.3018053390566
20
26.2728536245087
30
-5.85759999999993
 70
     32
  0
VERTEX
  8
MY3DLAYER
10
28.3097512701865
20
26.2624982854493
30
-5.85759999999993
 70
     32
  0
VERTEX
  8
MY3DLAYER
10
28.683586229808
20
26.4783320000193
30
-5.85759999999993
 70
     32
  0
VERTEX
  8
MY3DLAYER
10
28.6785912086828
20
26.4903910477642
30
-5.85759999999993
 70
     32
  0
VERTEX
  8
MY3DLAYER
10
28.6768874999972
20
26.5033320000193
30
-5.85759999999993
 70
     32
  0
VERTEX
  8
MY3DLAYER
10
28.6785912086828
20
26.5162729522745
30
-5.85759999999993
 70
     32
  0
VERTEX
  8
MY3DLAYER
10
28.683586229808
20
26.5283320000193
30
-5.85759999999993
 70
     32
  0
VERTEX
  8
MY3DLAYER
10
28.6915321609379
20
26.5386873390787
30
-5.85759999999993
 70
     32
  0
VERTEX
  8
MY3DLAYER
10
28.7018874999972
20
26.5466332702086
30
-5.85759999999993
 70
     32
  0
VERTEX
  8
MY3DLAYER
10
28.7139465477421
20
26.5516282913338
30
-5.85759999999993
 70
     32
  0
VERTEX
  8
MY3DLAYER
10
28.7268874999972
20
26.5533320000193
30
-5.85759999999993
 70
     32
  0
VERTEX
  8
MY3DLAYER
10
28.7398284522524
20
26.5516282913338
30
-5.85759999999993
 70
     32
  0
VERTEX
  8
MY3DLAYER
10
28.7518874999972
20
26.5466332702086
30
-5.85759999999993
 70
     32
  0
VERTEX
  8
MY3DLAYER
10
28.7622428390566
20
26.5386873390787
30
-5.85759999999993
 70
     32
  0
VERTEX
  8
MY3DLAYER
10
28.7701887701865
20
26.5283320000193
30
-5.85759999999993
 70
     32
  0
VERTEX
  8
MY3DLAYER
10
28.7751837913117
20
26.5162729522745
30
-5.85759999999993
 70
     32
  0
VERTEX
  8
MY3DLAYER
10
28.7768874999972
20
26.5033320000193
30
-5.85759999999993
 70
     32
  0
VERTEX
  8
MY3DLAYER
10
28.7751837913117
20
26.4903910477642
30
-5.85759999999993
 70
     32
  0
VERTEX
  8
MY3DLAYER
10
28.7701887701865
20
26.4783320000193
30
-5.85759999999993
 70
     32
  0
VERTEX
  8
MY3DLAYER
10
29.144023729808
20
26.2624982854493
30
-5.85759999999993
 70
     32
  0
VERTEX
  8
MY3DLAYER
10
29.1519696609379
20
26.2728536245087
30
-5.85759999999993
 70
     32
  0
VERTEX
  8
MY3DLAYER
10
29.1623249999972
20
26.2807995556386
30
-5.85759999999993
 70
     32
  0
VERTEX
  8
MY3DLAYER
10
29.1743840477421
20
26.2857945767638
30
-5.85759999999993
 70
     32
  0
VERTEX
  8
MY3DLAYER
10
29.1873249999972
20
26.2874982854493
30
-5.85759999999993
 70
     32
  0
VERTEX
  8
MY3DLAYER
10
29.2002659522524
20
26.2857945767638
30
-5.85759999999993
 70
     32
  0
VERTEX
  8
MY3DLAYER
10
29.2123249999972
20
26.2807995556386
30
-5.85759999999993
 70
     32
  0
VERTEX
  8
MY3DLAYER
10
29.2226803390566
20
26.2728536245087
30
-5.85759999999993
 70
     32
  0
VERTEX
  8
MY3DLAYER
10
29.2306262701865
20
26.2624982854493
30
-5.85759999999993
 70
     32
  0
VERTEX
  8
MY3DLAYER
10
29.2356212913117
20
26.2504392377045
30
-5.85759999999993
 70
     32
  0
SEQEND
  0
POLYLINE
 8
Layer0
 66
     1
70
    8
 10
0.0
 20
 0.0
 30
0.0
  0
VERTEX
  8
MY3DLAYER
10
31.3147462913144
20
24.4387722377045
30
-5.85759999999993
 70
     32
  0
VERTEX
  8
MY3DLAYER
10
31.31645
20
24.4258312854493
30
-5.85759999999993
 70
     32
  0
VERTEX
  8
MY3DLAYER
10
31.3147462913144
20
24.4128903331942
30
-5.85759999999993
 70
     32
  0
VERTEX
  8
MY3DLAYER
10
31.3097512701892
20
24.4008312854493
30
-5.85759999999993
 70
     32
  0
VERTEX
  8
MY3DLAYER
10
31.3018053390593
20
24.39047594639
30
-5.85759999999993
 70
     32
  0
VERTEX
  8
MY3DLAYER
10
31.29145
20
24.3825300152601
30
-5.85759999999993
 70
     32
  0
VERTEX
  8
MY3DLAYER
10
31.2793909522551
20
24.3775349941349
30
-5.85759999999993
 70
     32
  0
VERTEX
  8
MY3DLAYER
10
31.26645
20
24.3758312854493
30
-5.85759999999993
 70
     32
  0
VERTEX
  8
MY3DLAYER
10
31.26645
20
23.9441638563093
30
-5.85759999999993
 70
     32
  0
VERTEX
  8
MY3DLAYER
10
31.2793909522551
20
23.9424601476238
30
-5.85759999999993
 70
     32
  0
VERTEX
  8
MY3DLAYER
10
31.29145
20
23.9374651264986
30
-5.85759999999993
 70
     32
  0
VERTEX
  8
MY3DLAYER
10
31.3018053390593
20
23.9295191953687
30
-5.85759999999993
 70
     32
  0
VERTEX
  8
MY3DLAYER
10
31.3097512701892
20
23.9191638563093
30
-5.85759999999993
 70
     32
  0
VERTEX
  8
MY3DLAYER
10
31.3147462913144
20
23.9071048085645
30
-5.85759999999993
 70
     32
  0
VERTEX
  8
MY3DLAYER
10
31.31645
20
23.8941638563093
30
-5.85759999999993
 70
     32
  0
VERTEX
  8
MY3DLAYER
10
31.3147462913144
20
23.8812229040542
30
-5.85759999999993
 70
     32
  0
VERTEX
  8
MY3DLAYER
10
31.3097512701892
20
23.8691638563093
30
-5.85759999999993
 70
     32
  0
VERTEX
  8
MY3DLAYER
10
31.3018053390593
20
23.85880851725
30
-5.85759999999993
 70
     32
  0
VERTEX
  8
MY3DLAYER
10
31.29145
20
23.8508625861201
30
-5.85759999999993
 70
     32
  0
VERTEX
  8
MY3DLAYER
10
31.2793909522551
20
23.8458675649949
30
-5.85759999999993
 70
     32
  0
VERTEX
  8
MY3DLAYER
10
31.26645
20
23.8441638563093
30
-5.85759999999993
 70
     32
  0
VERTEX
  8
MY3DLAYER
10
31.2535090477449
20
23.8458675649949
30
-5.85759999999993
 70
     32
  0
VERTEX
  8
MY3DLAYER
10
31.24145
20
23.8508625861201
30
-5.85759999999993
 70
     32
  0
VERTEX
  8
MY3DLAYER
10
31.2310946609407
20
23.85880851725
30
-5.85759999999993
 70
     32
  0
VERTEX
  8
MY3DLAYER
10
31.2231487298108
20
23.8691638563093
30
-5.85759999999993
 70
     32
  0
VERTEX
  8
MY3DLAYER
10
30.8493137701892
20
23.6533301417393
30
-5.85759999999993
 70
     32
  0
VERTEX
  8
MY3DLAYER
10
30.8543087913144
20
23.6412710939945
30
-5.85759999999993
 70
     32
  0
VERTEX
  8
MY3DLAYER
10
30.8560125
20
23.6283301417393
30
-5.85759999999993
 70
     32
  0
VERTEX
  8
MY3DLAYER
10
30.8543087913144
20
23.6153891894842
30
-5.85759999999993
 70
     32
  0
VERTEX
  8
MY3DLAYER
10
30.8493137701892
20
23.6033301417393
30
-5.85759999999993
 70
     32
  0
VERTEX
  8
MY3DLAYER
10
30.8413678390593
20
23.59297480268
30
-5.85759999999993
 70
     32
  0
VERTEX
  8
MY3DLAYER
10
30.8310125
20
23.5850288715501
30
-5.85759999999993
 70
     32
  0
VERTEX
  8
MY3DLAYER
10
30.8189534522551
20
23.5800338504249
30
-5.85759999999993
 70
     32
  0
VERTEX
  8
MY3DLAYER
10
30.8060125
20
23.5783301417393
30
-5.85759999999993
 70
     32
  0
VERTEX
  8
MY3DLAYER
10
30.7930715477449
20
23.5800338504249
30
-5.85759999999993
 70
     32
  0
VERTEX
  8
MY3DLAYER
10
30.7810125
20
23.5850288715501
30
-5.85759999999993
 70
     32
  0
VERTEX
  8
MY3DLAYER
10
30.7706571609407
20
23.59297480268
30
-5.85759999999993
 70
     32
  0
VERTEX
  8
MY3DLAYER
10
30.7627112298108
20
23.6033301417393
30
-5.85759999999993
 70
     32
  0
VERTEX
  8
MY3DLAYER
10
30.7577162086855
20
23.6153891894842
30
-5.85759999999993
 70
     32
  0
VERTEX
  8
MY3DLAYER
10
30.7560125
20
23.6283301417393
30
-5.85759999999993
 70
     32
  0
VERTEX
  8
MY3DLAYER
10
30.7577162086855
20
23.6412710939945
30
-5.85759999999993
 70
     32
  0
VERTEX
  8
MY3DLAYER
10
30.7627112298108
20
23.6533301417393
30
-5.85759999999993
 70
     32
  0
VERTEX
  8
MY3DLAYER
10
30.3888762701892
20
23.8691638563093
30
-5.85759999999993
 70
     32
  0
VERTEX
  8
MY3DLAYER
10
30.3809303390593
20
23.85880851725
30
-5.85759999999993
 70
     32
  0
VERTEX
  8
MY3DLAYER
10
30.370575
20
23.8508625861201
30
-5.85759999999993
 70
     32
  0
VERTEX
  8
MY3DLAYER
10
30.3585159522551
20
23.8458675649949
30
-5.85759999999993
 70
     32
  0
VERTEX
  8
MY3DLAYER
10
30.345575
20
23.8441638563093
30
-5.85759999999993
 70
     32
  0
VERTEX
  8
MY3DLAYER
10
30.3326340477449
20
23.8458675649949
30
-5.85759999999993
 70
     32
  0
VERTEX
  8
MY3DLAYER
10
30.320575
20
23.8508625861201
30
-5.85759999999993
 70
     32
  0
VERTEX
  8
MY3DLAYER
10
30.3102196609407
20
23.85880851725
30
-5.85759999999993
 70
     32
  0
VERTEX
  8
MY3DLAYER
10
30.3022737298108
20
23.8691638563093
30
-5.85759999999993
 70
     32
  0
VERTEX
  8
MY3DLAYER
10
30.2972787086855
20
23.8812229040542
30
-5.85759999999993
 70
     32
  0
VERTEX
  8
MY3DLAYER
10
30.295575
20
23.8941638563093
30
-5.85759999999993
 70
     32
  0
VERTEX
  8
MY3DLAYER
10
30.2972787086855
20
23.9071048085645
30
-5.85759999999993
 70
     32
  0
VERTEX
  8
MY3DLAYER
10
30.3022737298108
20
23.9191638563093
30
-5.85759999999993
 70
     32
  0
VERTEX
  8
MY3DLAYER
10
30.3102196609407
20
23.9295191953687
30
-5.85759999999993
 70
     32
  0
VERTEX
  8
MY3DLAYER
10
30.320575
20
23.9374651264986
30
-5.85759999999993
 70
     32
  0
VERTEX
  8
MY3DLAYER
10
30.3326340477449
20
23.9424601476238
30
-5.85759999999993
 70
     32
  0
VERTEX
  8
MY3DLAYER
10
30.345575
20
23.9441638563093
30
-5.85759999999993
 70
     32
  0
VERTEX
  8
MY3DLAYER
10
30.345575
20
24.3758312854493
30
-5.85759999999993
 70
     32
  0
VERTEX
  8
MY3DLAYER
10
30.3326340477449
20
24.3775349941349
30
-5.85759999999993
 70
     32
  0
VERTEX
  8
MY3DLAYER
10
30.320575
20
24.3825300152601
30
-5.85759999999993
 70
     32
  0
VERTEX
  8
MY3DLAYER
10
30.3102196609407
20
24.39047594639
30
-5.85759999999993
 70
     32
  0
VERTEX
  8
MY3DLAYER
10
30.3022737298108
20
24.4008312854493
30
-5.85759999999993
 70
     32
  0
VERTEX
  8
MY3DLAYER
10
30.2972787086855
20
24.4128903331942
30
-5.85759999999993
 70
     32
  0
VERTEX
  8
MY3DLAYER
10
30.295575
20
24.4258312854493
30
-5.85759999999993
 70
     32
  0
VERTEX
  8
MY3DLAYER
10
30.2972787086855
20
24.4387722377045
30
-5.85759999999993
 70
     32
  0
VERTEX
  8
MY3DLAYER
10
30.3022737298108
20
24.4508312854493
30
-5.85759999999993
 70
     32
  0
VERTEX
  8
MY3DLAYER
10
30.3102196609407
20
24.4611866245087
30
-5.85759999999993
 70
     32
  0
VERTEX
  8
MY3DLAYER
10
30.320575
20
24.4691325556386
30
-5.85759999999993
 70
     32
  0
VERTEX
  8
MY3DLAYER
10
30.3326340477449
20
24.4741275767638
30
-5.85759999999993
 70
     32
  0
VERTEX
  8
MY3DLAYER
10
30.345575
20
24.4758312854493
30
-5.85759999999993
 70
     32
  0
VERTEX
  8
MY3DLAYER
10
30.3585159522551
20
24.4741275767638
30
-5.85759999999993
 70
     32
  0
VERTEX
  8
MY3DLAYER
10
30.370575
20
24.4691325556386
30
-5.85759999999993
 70
     32
  0
VERTEX
  8
MY3DLAYER
10
30.3809303390593
20
24.4611866245087
30
-5.85759999999993
 70
     32
  0
VERTEX
  8
MY3DLAYER
10
30.3888762701892
20
24.4508312854493
30
-5.85759999999993
 70
     32
  0
VERTEX
  8
MY3DLAYER
10
30.7627112298108
20
24.6666650000193
30
-5.85759999999993
 70
     32
  0
VERTEX
  8
MY3DLAYER
10
30.7577162086855
20
24.6787240477642
30
-5.85759999999993
 70
     32
  0
VERTEX
  8
MY3DLAYER
10
30.7560125
20
24.6916650000193
30
-5.85759999999993
 70
     32
  0
VERTEX
  8
MY3DLAYER
10
30.7577162086855
20
24.7046059522745
30
-5.85759999999993
 70
     32
  0
VERTEX
  8
MY3DLAYER
10
30.7627112298108
20
24.7166650000193
30
-5.85759999999993
 70
     32
  0
VERTEX
  8
MY3DLAYER
10
30.7706571609407
20
24.7270203390787
30
-5.85759999999993
 70
     32
  0
VERTEX
  8
MY3DLAYER
10
30.7810125
20
24.7349662702086
30
-5.85759999999993
 70
     32
  0
VERTEX
  8
MY3DLAYER
10
30.7930715477449
20
24.7399612913338
30
-5.85759999999993
 70
     32
  0
VERTEX
  8
MY3DLAYER
10
30.8060125
20
24.7416650000193
30
-5.85759999999993
 70
     32
  0
VERTEX
  8
MY3DLAYER
10
30.8189534522551
20
24.7399612913338
30
-5.85759999999993
 70
     32
  0
VERTEX
  8
MY3DLAYER
10
30.8310125
20
24.7349662702086
30
-5.85759999999993
 70
     32
  0
VERTEX
  8
MY3DLAYER
10
30.8413678390593
20
24.7270203390787
30
-5.85759999999993
 70
     32
  0
VERTEX
  8
MY3DLAYER
10
30.8493137701892
20
24.7166650000193
30
-5.85759999999993
 70
     32
  0
VERTEX
  8
MY3DLAYER
10
30.8543087913144
20
24.7046059522745
30
-5.85759999999993
 70
     32
  0
VERTEX
  8
MY3DLAYER
10
30.8560125
20
24.6916650000193
30
-5.85759999999993
 70
     32
  0
VERTEX
  8
MY3DLAYER
10
30.8543087913144
20
24.6787240477642
30
-5.85759999999993
 70
     32
  0
VERTEX
  8
MY3DLAYER
10
30.8493137701892
20
24.6666650000193
30
-5.85759999999993
 70
     32
  0
VERTEX
  8
MY3DLAYER
10
31.2231487298108
20
24.4508312854493
30
-5.85759999999993
 70
     32
  0
VERTEX
  8
MY3DLAYER
10
31.2310946609407
20
24.4611866245087
30
-5.85759999999993
 70
     32
  0
VERTEX
  8
MY3DLAYER
10
31.24145
20
24.4691325556386
30
-5.85759999999993
 70
     32
  0
VERTEX
  8
MY3DLAYER
10
31.2535090477449
20
24.4741275767638
30
-5.85759999999993
 70
     32
  0
VERTEX
  8
MY3DLAYER
10
31.26645
20
24.4758312854493
30
-5.85759999999993
 70
     32
  0
VERTEX
  8
MY3DLAYER
10
31.2793909522551
20
24.4741275767638
30
-5.85759999999993
 70
     32
  0
VERTEX
  8
MY3DLAYER
10
31.29145
20
24.4691325556386
30
-5.85759999999993
 70
     32
  0
VERTEX
  8
MY3DLAYER
10
31.3018053390593
20
24.4611866245087
30
-5.85759999999993
 70
     32
  0
VERTEX
  8
MY3DLAYER
10
31.3097512701892
20
24.4508312854493
30
-5.85759999999993
 70
     32
  0
VERTEX
  8
MY3DLAYER
10
31.3147462913144
20
24.4387722377045
30
-5.85759999999993
 70
     32
  0
SEQEND
  0
POLYLINE
 8
Layer0
 66
     1
70
    8
 10
0.0
 20
 0.0
 30
0.0
  0
VERTEX
  8
MY3DLAYER
10
29.2356212913117
20
24.4387722377045
30
-5.85759999999993
 70
     32
  0
VERTEX
  8
MY3DLAYER
10
29.2373249999972
20
24.4258312854493
30
-5.85759999999993
 70
     32
  0
VERTEX
  8
MY3DLAYER
10
29.2356212913117
20
24.4128903331942
30
-5.85759999999993
 70
     32
  0
VERTEX
  8
MY3DLAYER
10
29.2306262701865
20
24.4008312854493
30
-5.85759999999993
 70
     32
  0
VERTEX
  8
MY3DLAYER
10
29.2226803390566
20
24.39047594639
30
-5.85759999999993
 70
     32
  0
VERTEX
  8
MY3DLAYER
10
29.2123249999972
20
24.3825300152601
30
-5.85759999999993
 70
     32
  0
VERTEX
  8
MY3DLAYER
10
29.2002659522524
20
24.3775349941349
30
-5.85759999999993
 70
     32
  0
VERTEX
  8
MY3DLAYER
10
29.1873249999972
20
24.3758312854493
30
-5.85759999999993
 70
     32
  0
VERTEX
  8
MY3DLAYER
10
29.1873249999972
20
23.9441638563093
30
-5.85759999999993
 70
     32
  0
VERTEX
  8
MY3DLAYER
10
29.2002659522524
20
23.9424601476238
30
-5.85759999999993
 70
     32
  0
VERTEX
  8
MY3DLAYER
10
29.2123249999972
20
23.9374651264986
30
-5.85759999999993
 70
     32
  0
VERTEX
  8
MY3DLAYER
10
29.2226803390566
20
23.9295191953687
30
-5.85759999999993
 70
     32
  0
VERTEX
  8
MY3DLAYER
10
29.2306262701865
20
23.9191638563093
30
-5.85759999999993
 70
     32
  0
VERTEX
  8
MY3DLAYER
10
29.2356212913117
20
23.9071048085645
30
-5.85759999999993
 70
     32
  0
VERTEX
  8
MY3DLAYER
10
29.2373249999972
20
23.8941638563093
30
-5.85759999999993
 70
     32
  0
VERTEX
  8
MY3DLAYER
10
29.2356212913117
20
23.8812229040542
30
-5.85759999999993
 70
     32
  0
VERTEX
  8
MY3DLAYER
10
29.2306262701865
20
23.8691638563093
30
-5.85759999999993
 70
     32
  0
VERTEX
  8
MY3DLAYER
10
29.2226803390566
20
23.85880851725
30
-5.85759999999993
 70
     32
  0
VERTEX
  8
MY3DLAYER
10
29.2123249999972
20
23.8508625861201
30
-5.85759999999993
 70
     32
  0
VERTEX
  8
MY3DLAYER
10
29.2002659522524
20
23.8458675649949
30
-5.85759999999993
 70
     32
  0
VERTEX
  8
MY3DLAYER
10
29.1873249999972
20
23.8441638563093
30
-5.85759999999993
 70
     32
  0
VERTEX
  8
MY3DLAYER
10
29.1743840477421
20
23.8458675649949
30
-5.85759999999993
 70
     32
  0
VERTEX
  8
MY3DLAYER
10
29.1623249999972
20
23.8508625861201
30
-5.85759999999993
 70
     32
  0
VERTEX
  8
MY3DLAYER
10
29.1519696609379
20
23.85880851725
30
-5.85759999999993
 70
     32
  0
VERTEX
  8
MY3DLAYER
10
29.144023729808
20
23.8691638563093
30
-5.85759999999993
 70
     32
  0
VERTEX
  8
MY3DLAYER
10
28.7701887701865
20
23.6533301417393
30
-5.85759999999993
 70
     32
  0
VERTEX
  8
MY3DLAYER
10
28.7751837913117
20
23.6412710939945
30
-5.85759999999993
 70
     32
  0
VERTEX
  8
MY3DLAYER
10
28.7768874999972
20
23.6283301417393
30
-5.85759999999993
 70
     32
  0
VERTEX
  8
MY3DLAYER
10
28.7751837913117
20
23.6153891894842
30
-5.85759999999993
 70
     32
  0
VERTEX
  8
MY3DLAYER
10
28.7701887701865
20
23.6033301417393
30
-5.85759999999993
 70
     32
  0
VERTEX
  8
MY3DLAYER
10
28.7622428390566
20
23.59297480268
30
-5.85759999999993
 70
     32
  0
VERTEX
  8
MY3DLAYER
10
28.7518874999972
20
23.5850288715501
30
-5.85759999999993
 70
     32
  0
VERTEX
  8
MY3DLAYER
10
28.7398284522524
20
23.5800338504249
30
-5.85759999999993
 70
     32
  0
VERTEX
  8
MY3DLAYER
10
28.7268874999972
20
23.5783301417393
30
-5.85759999999993
 70
     32
  0
VERTEX
  8
MY3DLAYER
10
28.7139465477421
20
23.5800338504249
30
-5.85759999999993
 70
     32
  0
VERTEX
  8
MY3DLAYER
10
28.7018874999972
20
23.5850288715501
30
-5.85759999999993
 70
     32
  0
VERTEX
  8
MY3DLAYER
10
28.6915321609379
20
23.59297480268
30
-5.85759999999993
 70
     32
  0
VERTEX
  8
MY3DLAYER
10
28.683586229808
20
23.6033301417393
30
-5.85759999999993
 70
     32
  0
VERTEX
  8
MY3DLAYER
10
28.6785912086828
20
23.6153891894842
30
-5.85759999999993
 70
     32
  0
VERTEX
  8
MY3DLAYER
10
28.6768874999972
20
23.6283301417393
30
-5.85759999999993
 70
     32
  0
VERTEX
  8
MY3DLAYER
10
28.6785912086828
20
23.6412710939945
30
-5.85759999999993
 70
     32
  0
VERTEX
  8
MY3DLAYER
10
28.683586229808
20
23.6533301417393
30
-5.85759999999993
 70
     32
  0
VERTEX
  8
MY3DLAYER
10
28.3097512701865
20
23.8691638563093
30
-5.85759999999993
 70
     32
  0
VERTEX
  8
MY3DLAYER
10
28.3018053390566
20
23.85880851725
30
-5.85759999999993
 70
     32
  0
VERTEX
  8
MY3DLAYER
10
28.2914499999972
20
23.8508625861201
30
-5.85759999999993
 70
     32
  0
VERTEX
  8
MY3DLAYER
10
28.2793909522524
20
23.8458675649949
30
-5.85759999999993
 70
     32
  0
VERTEX
  8
MY3DLAYER
10
28.2664499999972
20
23.8441638563093
30
-5.85759999999993
 70
     32
  0
VERTEX
  8
MY3DLAYER
10
28.2535090477421
20
23.8458675649949
30
-5.85759999999993
 70
     32
  0
VERTEX
  8
MY3DLAYER
10
28.2414499999972
20
23.8508625861201
30
-5.85759999999993
 70
     32
  0
VERTEX
  8
MY3DLAYER
10
28.2310946609379
20
23.85880851725
30
-5.85759999999993
 70
     32
  0
VERTEX
  8
MY3DLAYER
10
28.223148729808
20
23.8691638563093
30
-5.85759999999993
 70
     32
  0
VERTEX
  8
MY3DLAYER
10
28.2181537086828
20
23.8812229040542
30
-5.85759999999993
 70
     32
  0
VERTEX
  8
MY3DLAYER
10
28.2164499999972
20
23.8941638563093
30
-5.85759999999993
 70
     32
  0
VERTEX
  8
MY3DLAYER
10
28.2181537086828
20
23.9071048085645
30
-5.85759999999993
 70
     32
  0
VERTEX
  8
MY3DLAYER
10
28.223148729808
20
23.9191638563093
30
-5.85759999999993
 70
     32
  0
VERTEX
  8
MY3DLAYER
10
28.2310946609379
20
23.9295191953687
30
-5.85759999999993
 70
     32
  0
VERTEX
  8
MY3DLAYER
10
28.2414499999972
20
23.9374651264986
30
-5.85759999999993
 70
     32
  0
VERTEX
  8
MY3DLAYER
10
28.2535090477421
20
23.9424601476238
30
-5.85759999999993
 70
     32
  0
VERTEX
  8
MY3DLAYER
10
28.2664499999972
20
23.9441638563093
30
-5.85759999999993
 70
     32
  0
VERTEX
  8
MY3DLAYER
10
28.2664499999972
20
24.3758312854493
30
-5.85759999999993
 70
     32
  0
VERTEX
  8
MY3DLAYER
10
28.2535090477421
20
24.3775349941349
30
-5.85759999999993
 70
     32
  0
VERTEX
  8
MY3DLAYER
10
28.2414499999972
20
24.3825300152601
30
-5.85759999999993
 70
     32
  0
VERTEX
  8
MY3DLAYER
10
28.2310946609379
20
24.39047594639
30
-5.85759999999993
 70
     32
  0
VERTEX
  8
MY3DLAYER
10
28.223148729808
20
24.4008312854493
30
-5.85759999999993
 70
     32
  0
VERTEX
  8
MY3DLAYER
10
28.2181537086828
20
24.4128903331942
30
-5.85759999999993
 70
     32
  0
VERTEX
  8
MY3DLAYER
10
28.2164499999972
20
24.4258312854493
30
-5.85759999999993
 70
     32
  0
VERTEX
  8
MY3DLAYER
10
28.2181537086828
20
24.4387722377045
30
-5.85759999999993
 70
     32
  0
VERTEX
  8
MY3DLAYER
10
28.223148729808
20
24.4508312854493
30
-5.85759999999993
 70
     32
  0
VERTEX
  8
MY3DLAYER
10
28.2310946609379
20
24.4611866245087
30
-5.85759999999993
 70
     32
  0
VERTEX
  8
MY3DLAYER
10
28.2414499999972
20
24.4691325556386
30
-5.85759999999993
 70
     32
  0
VERTEX
  8
MY3DLAYER
10
28.2535090477421
20
24.4741275767638
30
-5.85759999999993
 70
     32
  0
VERTEX
  8
MY3DLAYER
10
28.2664499999972
20
24.4758312854493
30
-5.85759999999993
 70
     32
  0
VERTEX
  8
MY3DLAYER
10
28.2793909522524
20
24.4741275767638
30
-5.85759999999993
 70
     32
  0
VERTEX
  8
MY3DLAYER
10
28.2914499999972
20
24.4691325556386
30
-5.85759999999993
 70
     32
  0
VERTEX
  8
MY3DLAYER
10
28.3018053390566
20
24.4611866245087
30
-5.85759999999993
 70
     32
  0
VERTEX
  8
MY3DLAYER
10
28.3097512701865
20
24.4508312854493
30
-5.85759999999993
 70
     32
  0
VERTEX
  8
MY3DLAYER
10
28.683586229808
20
24.6666650000193
30
-5.85759999999993
 70
     32
  0
VERTEX
  8
MY3DLAYER
10
28.6785912086828
20
24.6787240477642
30
-5.85759999999993
 70
     32
  0
VERTEX
  8
MY3DLAYER
10
28.6768874999972
20
24.6916650000193
30
-5.85759999999993
 70
     32
  0
VERTEX
  8
MY3DLAYER
10
28.6785912086828
20
24.7046059522745
30
-5.85759999999993
 70
     32
  0
VERTEX
  8
MY3DLAYER
10
28.683586229808
20
24.7166650000193
30
-5.85759999999993
 70
     32
  0
VERTEX
  8
MY3DLAYER
10
28.6915321609379
20
24.7270203390787
30
-5.85759999999993
 70
     32
  0
VERTEX
  8
MY3DLAYER
10
28.7018874999972
20
24.7349662702086
30
-5.85759999999993
 70
     32
  0
VERTEX
  8
MY3DLAYER
10
28.7139465477421
20
24.7399612913338
30
-5.85759999999993
 70
     32
  0
VERTEX
  8
MY3DLAYER
10
28.7268874999972
20
24.7416650000193
30
-5.85759999999993
 70
     32
  0
VERTEX
  8
MY3DLAYER
10
28.7398284522524
20
24.7399612913338
30
-5.85759999999993
 70
     32
  0
VERTEX
  8
MY3DLAYER
10
28.7518874999972
20
24.7349662702086
30
-5.85759999999993
 70
     32
  0
VERTEX
  8
MY3DLAYER
10
28.7622428390566
20
24.7270203390787
30
-5.85759999999993
 70
     32
  0
VERTEX
  8
MY3DLAYER
10
28.7701887701865
20
24.7166650000193
30
-5.85759999999993
 70
     32
  0
VERTEX
  8
MY3DLAYER
10
28.7751837913117
20
24.7046059522745
30
-5.85759999999993
 70
     32
  0
VERTEX
  8
MY3DLAYER
10
28.7768874999972
20
24.6916650000193
30
-5.85759999999993
 70
     32
  0
VERTEX
  8
MY3DLAYER
10
28.7751837913117
20
24.6787240477642
30
-5.85759999999993
 70
     32
  0
VERTEX
  8
MY3DLAYER
10
28.7701887701865
20
24.6666650000193
30
-5.85759999999993
 70
     32
  0
VERTEX
  8
MY3DLAYER
10
29.144023729808
20
24.4508312854493
30
-5.85759999999993
 70
     32
  0
VERTEX
  8
MY3DLAYER
10
29.1519696609379
20
24.4611866245087
30
-5.85759999999993
 70
     32
  0
VERTEX
  8
MY3DLAYER
10
29.1623249999972
20
24.4691325556386
30
-5.85759999999993
 70
     32
  0
VERTEX
  8
MY3DLAYER
10
29.1743840477421
20
24.4741275767638
30
-5.85759999999993
 70
     32
  0
VERTEX
  8
MY3DLAYER
10
29.1873249999972
20
24.4758312854493
30
-5.85759999999993
 70
     32
  0
VERTEX
  8
MY3DLAYER
10
29.2002659522524
20
24.4741275767638
30
-5.85759999999993
 70
     32
  0
VERTEX
  8
MY3DLAYER
10
29.2123249999972
20
24.4691325556386
30
-5.85759999999993
 70
     32
  0
VERTEX
  8
MY3DLAYER
10
29.2226803390566
20
24.4611866245087
30
-5.85759999999993
 70
     32
  0
VERTEX
  8
MY3DLAYER
10
29.2306262701865
20
24.4508312854493
30
-5.85759999999993
 70
     32
  0
VERTEX
  8
MY3DLAYER
10
29.2356212913117
20
24.4387722377045
30
-5.85759999999993
 70
     32
  0
SEQEND
  0
POLYLINE
 8
Layer0
 66
     1
70
    8
 10
0.0
 20
 0.0
 30
0.0
  0
VERTEX
  8
MY3DLAYER
10
31.3147462913144
20
21.9926498441315
30
-5.8575999999999
 70
     32
  0
VERTEX
  8
MY3DLAYER
10
31.31645
20
21.9797088918764
30
-5.8575999999999
 70
     32
  0
VERTEX
  8
MY3DLAYER
10
31.3147462913144
20
21.9667679396212
30
-5.8575999999999
 70
     32
  0
VERTEX
  8
MY3DLAYER
10
31.3097512701892
20
21.9547088918764
30
-5.8575999999999
 70
     32
  0
VERTEX
  8
MY3DLAYER
10
31.3018053390593
20
21.944353552817
30
-5.8575999999999
 70
     32
  0
VERTEX
  8
MY3DLAYER
10
31.29145
20
21.9364076216872
30
-5.8575999999999
 70
     32
  0
VERTEX
  8
MY3DLAYER
10
31.2793909522551
20
21.9314126005619
30
-5.8575999999999
 70
     32
  0
VERTEX
  8
MY3DLAYER
10
31.26645
20
21.9297088918764
30
-5.8575999999999
 70
     32
  0
VERTEX
  8
MY3DLAYER
10
31.26645
20
21.6597088918764
30
-5.8575999999999
 70
     32
  0
VERTEX
  8
MY3DLAYER
10
31.2793909522551
20
21.6580051831908
30
-5.85759999999991
 70
     32
  0
VERTEX
  8
MY3DLAYER
10
31.29145
20
21.6530101620656
30
-5.85759999999991
 70
     32
  0
VERTEX
  8
MY3DLAYER
10
31.3018053390593
20
21.6450642309357
30
-5.85759999999989
 70
     32
  0
VERTEX
  8
MY3DLAYER
10
31.3097512701892
20
21.6347088918764
30
-5.8575999999999
 70
     32
  0
VERTEX
  8
MY3DLAYER
10
31.3147462913144
20
21.6226498441315
30
-5.85759999999991
 70
     32
  0
VERTEX
  8
MY3DLAYER
10
31.31645
20
21.6097088918764
30
-5.8575999999999
 70
     32
  0
VERTEX
  8
MY3DLAYER
10
31.3147462913144
20
21.5967679396213
30
-5.8575999999999
 70
     32
  0
VERTEX
  8
MY3DLAYER
10
31.3097512701892
20
21.5847088918764
30
-5.8575999999999
 70
     32
  0
VERTEX
  8
MY3DLAYER
10
31.3018053390593
20
21.574353552817
30
-5.8575999999999
 70
     32
  0
VERTEX
  8
MY3DLAYER
10
31.29145
20
21.5664076216872
30
-5.85759999999991
 70
     32
  0
VERTEX
  8
MY3DLAYER
10
31.2793909522551
20
21.5614126005619
30
-5.85759999999991
 70
     32
  0
VERTEX
  8
MY3DLAYER
10
31.26645
20
21.5597088918764
30
-5.8575999999999
 70
     32
  0
VERTEX
  8
MY3DLAYER
10
31.2535090477449
20
21.5614126005619
30
-5.85759999999989
 70
     32
  0
VERTEX
  8
MY3DLAYER
10
31.24145
20
21.5664076216872
30
-5.8575999999999
 70
     32
  0
VERTEX
  8
MY3DLAYER
10
31.2310946609406
20
21.5743535528171
30
-5.85759999999991
 70
     32
  0
VERTEX
  8
MY3DLAYER
10
31.2231487298108
20
21.5847088918764
30
-5.8575999999999
 70
     32
  0
VERTEX
  8
MY3DLAYER
10
30.989321870789
20
21.4497088918764
30
-5.85759999999991
 70
     32
  0
VERTEX
  8
MY3DLAYER
10
30.9943168919142
20
21.4376498441315
30
-5.8575999999999
 70
     32
  0
VERTEX
  8
MY3DLAYER
10
30.9960206005998
20
21.4247088918764
30
-5.8575999999999
 70
     32
  0
VERTEX
  8
MY3DLAYER
10
30.9943168919142
20
21.4117679396213
30
-5.8575999999999
 70
     32
  0
VERTEX
  8
MY3DLAYER
10
30.989321870789
20
21.3997088918764
30
-5.8575999999999
 70
     32
  0
VERTEX
  8
MY3DLAYER
10
30.9813759396591
20
21.3893535528171
30
-5.8575999999999
 70
     32
  0
VERTEX
  8
MY3DLAYER
10
30.9710206005998
20
21.3814076216872
30
-5.8575999999999
 70
     32
  0
VERTEX
  8
MY3DLAYER
10
30.9589615528549
20
21.3764126005619
30
-5.8575999999999
 70
     32
  0
VERTEX
  8
MY3DLAYER
10
30.9460206005998
20
21.3747088918764
30
-5.85759999999991
 70
     32
  0
VERTEX
  8
MY3DLAYER
10
30.9330796483446
20
21.3764126005619
30
-5.8575999999999
 70
     32
  0
VERTEX
  8
MY3DLAYER
10
30.9210206005998
20
21.3814076216872
30
-5.8575999999999
 70
     32
  0
VERTEX
  8
MY3DLAYER
10
30.9106652615404
20
21.3893535528171
30
-5.8575999999999
 70
     32
  0
VERTEX
  8
MY3DLAYER
10
30.9027193304105
20
21.3997088918764
30
-5.85759999999991
 70
     32
  0
VERTEX
  8
MY3DLAYER
10
30.8977243092853
20
21.4117679396213
30
-5.85759999999991
 70
     32
  0
VERTEX
  8
MY3DLAYER
10
30.8960206005998
20
21.4247088918764
30
-5.8575999999999
 70
     32
  0
VERTEX
  8
MY3DLAYER
10
30.8977243092853
20
21.4376498441315
30
-5.8575999999999
 70
     32
  0
VERTEX
  8
MY3DLAYER
10
30.9027193304105
20
21.4497088918764
30
-5.8575999999999
 70
     32
  0
VERTEX
  8
MY3DLAYER
10
30.6688924713887
20
21.5847088918764
30
-5.8575999999999
 70
     32
  0
VERTEX
  8
MY3DLAYER
10
30.6609465402589
20
21.5743535528171
30
-5.85759999999991
 70
     32
  0
VERTEX
  8
MY3DLAYER
10
30.6505912011995
20
21.5664076216872
30
-5.8575999999999
 70
     32
  0
VERTEX
  8
MY3DLAYER
10
30.6385321534547
20
21.5614126005619
30
-5.8575999999999
 70
     32
  0
VERTEX
  8
MY3DLAYER
10
30.6255912011995
20
21.5597088918764
30
-5.8575999999999
 70
     32
  0
VERTEX
  8
MY3DLAYER
10
30.6126502489444
20
21.5614126005619
30
-5.8575999999999
 70
     32
  0
VERTEX
  8
MY3DLAYER
10
30.6005912011995
20
21.5664076216871
30
-5.8575999999999
 70
     32
  0
VERTEX
  8
MY3DLAYER
10
30.5902358621402
20
21.574353552817
30
-5.85759999999991
 70
     32
  0
VERTEX
  8
MY3DLAYER
10
30.5822899310103
20
21.5847088918764
30
-5.85759999999991
 70
     32
  0
VERTEX
  8
MY3DLAYER
10
30.5772949098851
20
21.5967679396213
30
-5.8575999999999
 70
     32
  0
VERTEX
  8
MY3DLAYER
10
30.5755912011995
20
21.6097088918764
30
-5.8575999999999
 70
     32
  0
VERTEX
  8
MY3DLAYER
10
30.5772949098851
20
21.6226498441315
30
-5.85759999999991
 70
     32
  0
VERTEX
  8
MY3DLAYER
10
30.5822899310103
20
21.6347088918764
30
-5.85759999999991
 70
     32
  0
VERTEX
  8
MY3DLAYER
10
30.5902358621402
20
21.6450642309357
30
-5.85759999999991
 70
     32
  0
VERTEX
  8
MY3DLAYER
10
30.6005912011995
20
21.6530101620656
30
-5.8575999999999
 70
     32
  0
VERTEX
  8
MY3DLAYER
10
30.6126502489444
20
21.6580051831908
30
-5.8575999999999
 70
     32
  0
VERTEX
  8
MY3DLAYER
10
30.6255912011995
20
21.6597088918764
30
-5.85759999999991
 70
     32
  0
VERTEX
  8
MY3DLAYER
10
30.6255912011995
20
21.9297088918764
30
-5.8575999999999
 70
     32
  0
VERTEX
  8
MY3DLAYER
10
30.6126502489444
20
21.9314126005619
30
-5.8575999999999
 70
     32
  0
VERTEX
  8
MY3DLAYER
10
30.6005912011995
20
21.9364076216871
30
-5.8575999999999
 70
     32
  0
VERTEX
  8
MY3DLAYER
10
30.5902358621402
20
21.944353552817
30
-5.85759999999991
 70
     32
  0
VERTEX
  8
MY3DLAYER
10
30.5822899310103
20
21.9547088918764
30
-5.8575999999999
 70
     32
  0
VERTEX
  8
MY3DLAYER
10
30.577294909885
20
21.9667679396212
30
-5.8575999999999
 70
     32
  0
VERTEX
  8
MY3DLAYER
10
30.5755912011995
20
21.9797088918764
30
-5.8575999999999
 70
     32
  0
VERTEX
  8
MY3DLAYER
10
30.5772949098851
20
21.9926498441315
30
-5.8575999999999
 70
     32
  0
VERTEX
  8
MY3DLAYER
10
30.5822899310103
20
22.0047088918764
30
-5.8575999999999
 70
     32
  0
VERTEX
  8
MY3DLAYER
10
30.5902358621402
20
22.0150642309357
30
-5.8575999999999
 70
     32
  0
VERTEX
  8
MY3DLAYER
10
30.6005912011995
20
22.0230101620656
30
-5.8575999999999
 70
     32
  0
VERTEX
  8
MY3DLAYER
10
30.6126502489444
20
22.0280051831908
30
-5.8575999999999
 70
     32
  0
VERTEX
  8
MY3DLAYER
10
30.6255912011995
20
22.0297088918764
30
-5.8575999999999
 70
     32
  0
VERTEX
  8
MY3DLAYER
10
30.6385321534546
20
22.0280051831908
30
-5.85759999999991
 70
     32
  0
VERTEX
  8
MY3DLAYER
10
30.6505912011995
20
22.0230101620656
30
-5.8575999999999
 70
     32
  0
VERTEX
  8
MY3DLAYER
10
30.6609465402588
20
22.0150642309357
30
-5.8575999999999
 70
     32
  0
VERTEX
  8
MY3DLAYER
10
30.6688924713887
20
22.0047088918764
30
-5.8575999999999
 70
     32
  0
VERTEX
  8
MY3DLAYER
10
30.9027193304105
20
22.1397088918764
30
-5.8575999999999
 70
     32
  0
VERTEX
  8
MY3DLAYER
10
30.8977243092853
20
22.1517679396213
30
-5.8575999999999
 70
     32
  0
VERTEX
  8
MY3DLAYER
10
30.8960206005997
20
22.1647088918764
30
-5.8575999999999
 70
     32
  0
VERTEX
  8
MY3DLAYER
10
30.8977243092853
20
22.1776498441315
30
-5.85759999999991
 70
     32
  0
VERTEX
  8
MY3DLAYER
10
30.9027193304105
20
22.1897088918764
30
-5.85759999999991
 70
     32
  0
VERTEX
  8
MY3DLAYER
10
30.9106652615404
20
22.2000642309357
30
-5.85759999999991
 70
     32
  0
VERTEX
  8
MY3DLAYER
10
30.9210206005998
20
22.2080101620656
30
-5.8575999999999
 70
     32
  0
VERTEX
  8
MY3DLAYER
10
30.9330796483446
20
22.2130051831908
30
-5.8575999999999
 70
     32
  0
VERTEX
  8
MY3DLAYER
10
30.9460206005998
20
22.2147088918764
30
-5.8575999999999
 70
     32
  0
VERTEX
  8
MY3DLAYER
10
30.9589615528549
20
22.2130051831908
30
-5.85759999999991
 70
     32
  0
VERTEX
  8
MY3DLAYER
10
30.9710206005998
20
22.2080101620656
30
-5.8575999999999
 70
     32
  0
VERTEX
  8
MY3DLAYER
10
30.9813759396591
20
22.2000642309357
30
-5.8575999999999
 70
     32
  0
VERTEX
  8
MY3DLAYER
10
30.989321870789
20
22.1897088918764
30
-5.85759999999991
 70
     32
  0
VERTEX
  8
MY3DLAYER
10
30.9943168919142
20
22.1776498441315
30
-5.8575999999999
 70
     32
  0
VERTEX
  8
MY3DLAYER
10
30.9960206005998
20
22.1647088918764
30
-5.85759999999991
 70
     32
  0
VERTEX
  8
MY3DLAYER
10
30.9943168919142
20
22.1517679396213
30
-5.8575999999999
 70
     32
  0
VERTEX
  8
MY3DLAYER
10
30.989321870789
20
22.1397088918764
30
-5.8575999999999
 70
     32
  0
VERTEX
  8
MY3DLAYER
10
31.2231487298108
20
22.0047088918764
30
-5.8575999999999
 70
     32
  0
VERTEX
  8
MY3DLAYER
10
31.2310946609407
20
22.0150642309357
30
-5.8575999999999
 70
     32
  0
VERTEX
  8
MY3DLAYER
10
31.24145
20
22.0230101620656
30
-5.8575999999999
 70
     32
  0
VERTEX
  8
MY3DLAYER
10
31.2535090477449
20
22.0280051831908
30
-5.8575999999999
 70
     32
  0
VERTEX
  8
MY3DLAYER
10
31.26645
20
22.0297088918764
30
-5.85759999999991
 70
     32
  0
VERTEX
  8
MY3DLAYER
10
31.2793909522551
20
22.0280051831908
30
-5.8575999999999
 70
     32
  0
VERTEX
  8
MY3DLAYER
10
31.29145
20
22.0230101620656
30
-5.8575999999999
 70
     32
  0
VERTEX
  8
MY3DLAYER
10
31.3018053390593
20
22.0150642309357
30
-5.8575999999999
 70
     32
  0
VERTEX
  8
MY3DLAYER
10
31.3097512701892
20
22.0047088918764
30
-5.8575999999999
 70
     32
  0
VERTEX
  8
MY3DLAYER
10
31.3147462913144
20
21.9926498441315
30
-5.8575999999999
 70
     32
  0
SEQEND
  0
POLYLINE
 8
Layer0
 66
     1
70
    8
 10
0.0
 20
 0.0
 30
0.0
  0
VERTEX
  8
MY3DLAYER
10
31.3147462913145
20
20.1809828441315
30
-5.85759999999991
 70
     32
  0
VERTEX
  8
MY3DLAYER
10
31.31645
20
20.1680418918764
30
-5.85759999999991
 70
     32
  0
VERTEX
  8
MY3DLAYER
10
31.3147462913144
20
20.1551009396212
30
-5.85759999999991
 70
     32
  0
VERTEX
  8
MY3DLAYER
10
31.3097512701892
20
20.1430418918764
30
-5.85759999999992
 70
     32
  0
VERTEX
  8
MY3DLAYER
10
31.3018053390593
20
20.132686552817
30
-5.85759999999991
 70
     32
  0
VERTEX
  8
MY3DLAYER
10
31.29145
20
20.1247406216872
30
-5.85759999999992
 70
     32
  0
VERTEX
  8
MY3DLAYER
10
31.2793909522551
20
20.1197456005619
30
-5.85759999999991
 70
     32
  0
VERTEX
  8
MY3DLAYER
10
31.26645
20
20.1180418918764
30
-5.85759999999992
 70
     32
  0
VERTEX
  8
MY3DLAYER
10
31.26645
20
19.8480418918764
30
-5.85759999999991
 70
     32
  0
VERTEX
  8
MY3DLAYER
10
31.2793909522551
20
19.8463381831908
30
-5.85759999999993
 70
     32
  0
VERTEX
  8
MY3DLAYER
10
31.29145
20
19.8413431620656
30
-5.85759999999992
 70
     32
  0
VERTEX
  8
MY3DLAYER
10
31.3018053390593
20
19.8333972309357
30
-5.85759999999991
 70
     32
  0
VERTEX
  8
MY3DLAYER
10
31.3097512701892
20
19.8230418918764
30
-5.85759999999992
 70
     32
  0
VERTEX
  8
MY3DLAYER
10
31.3147462913144
20
19.8109828441315
30
-5.85759999999992
 70
     32
  0
VERTEX
  8
MY3DLAYER
10
31.31645
20
19.7980418918764
30
-5.85759999999992
 70
     32
  0
VERTEX
  8
MY3DLAYER
10
31.3147462913144
20
19.7851009396213
30
-5.85759999999992
 70
     32
  0
VERTEX
  8
MY3DLAYER
10
31.3097512701892
20
19.7730418918764
30
-5.85759999999992
 70
     32
  0
VERTEX
  8
MY3DLAYER
10
31.3018053390593
20
19.762686552817
30
-5.85759999999992
 70
     32
  0
VERTEX
  8
MY3DLAYER
10
31.29145
20
19.7547406216872
30
-5.85759999999992
 70
     32
  0
VERTEX
  8
MY3DLAYER
10
31.2793909522551
20
19.7497456005619
30
-5.85759999999992
 70
     32
  0
VERTEX
  8
MY3DLAYER
10
31.26645
20
19.7480418918764
30
-5.85759999999992
 70
     32
  0
VERTEX
  8
MY3DLAYER
10
31.2535090477449
20
19.7497456005619
30
-5.85759999999991
 70
     32
  0
VERTEX
  8
MY3DLAYER
10
31.24145
20
19.7547406216872
30
-5.85759999999992
 70
     32
  0
VERTEX
  8
MY3DLAYER
10
31.2310946609407
20
19.7626865528171
30
-5.85759999999993
 70
     32
  0
VERTEX
  8
MY3DLAYER
10
31.2231487298108
20
19.7730418918764
30
-5.85759999999992
 70
     32
  0
VERTEX
  8
MY3DLAYER
10
30.989321870789
20
19.6380418918764
30
-5.85759999999992
 70
     32
  0
VERTEX
  8
MY3DLAYER
10
30.9943168919142
20
19.6259828441315
30
-5.85759999999991
 70
     32
  0
VERTEX
  8
MY3DLAYER
10
30.9960206005998
20
19.6130418918764
30
-5.85759999999992
 70
     32
  0
VERTEX
  8
MY3DLAYER
10
30.9943168919142
20
19.6001009396213
30
-5.85759999999991
 70
     32
  0
VERTEX
  8
MY3DLAYER
10
30.989321870789
20
19.5880418918764
30
-5.85759999999991
 70
     32
  0
VERTEX
  8
MY3DLAYER
10
30.9813759396591
20
19.5776865528171
30
-5.85759999999991
 70
     32
  0
VERTEX
  8
MY3DLAYER
10
30.9710206005998
20
19.5697406216872
30
-5.85759999999992
 70
     32
  0
VERTEX
  8
MY3DLAYER
10
30.9589615528549
20
19.5647456005619
30
-5.85759999999991
 70
     32
  0
VERTEX
  8
MY3DLAYER
10
30.9460206005998
20
19.5630418918764
30
-5.85759999999992
 70
     32
  0
VERTEX
  8
MY3DLAYER
10
30.9330796483446
20
19.5647456005619
30
-5.85759999999992
 70
     32
  0
VERTEX
  8
MY3DLAYER
10
30.9210206005998
20
19.5697406216872
30
-5.85759999999991
 70
     32
  0
VERTEX
  8
MY3DLAYER
10
30.9106652615404
20
19.5776865528171
30
-5.85759999999992
 70
     32
  0
VERTEX
  8
MY3DLAYER
10
30.9027193304105
20
19.5880418918764
30
-5.85759999999992
 70
     32
  0
VERTEX
  8
MY3DLAYER
10
30.8977243092853
20
19.6001009396213
30
-5.85759999999992
 70
     32
  0
VERTEX
  8
MY3DLAYER
10
30.8960206005998
20
19.6130418918764
30
-5.85759999999991
 70
     32
  0
VERTEX
  8
MY3DLAYER
10
30.8977243092853
20
19.6259828441315
30
-5.85759999999991
 70
     32
  0
VERTEX
  8
MY3DLAYER
10
30.9027193304105
20
19.6380418918764
30
-5.85759999999992
 70
     32
  0
VERTEX
  8
MY3DLAYER
10
30.6688924713888
20
19.7730418918764
30
-5.85759999999992
 70
     32
  0
VERTEX
  8
MY3DLAYER
10
30.6609465402589
20
19.7626865528171
30
-5.85759999999992
 70
     32
  0
VERTEX
  8
MY3DLAYER
10
30.6505912011995
20
19.7547406216872
30
-5.85759999999992
 70
     32
  0
VERTEX
  8
MY3DLAYER
10
30.6385321534547
20
19.7497456005619
30
-5.85759999999992
 70
     32
  0
VERTEX
  8
MY3DLAYER
10
30.6255912011995
20
19.7480418918764
30
-5.85759999999992
 70
     32
  0
VERTEX
  8
MY3DLAYER
10
30.6126502489444
20
19.7497456005619
30
-5.85759999999991
 70
     32
  0
VERTEX
  8
MY3DLAYER
10
30.6005912011995
20
19.7547406216871
30
-5.85759999999992
 70
     32
  0
VERTEX
  8
MY3DLAYER
10
30.5902358621402
20
19.762686552817
30
-5.85759999999992
 70
     32
  0
VERTEX
  8
MY3DLAYER
10
30.5822899310103
20
19.7730418918764
30
-5.85759999999992
 70
     32
  0
VERTEX
  8
MY3DLAYER
10
30.5772949098851
20
19.7851009396213
30
-5.85759999999992
 70
     32
  0
VERTEX
  8
MY3DLAYER
10
30.5755912011995
20
19.7980418918764
30
-5.85759999999992
 70
     32
  0
VERTEX
  8
MY3DLAYER
10
30.5772949098851
20
19.8109828441315
30
-5.85759999999992
 70
     32
  0
VERTEX
  8
MY3DLAYER
10
30.5822899310103
20
19.8230418918764
30
-5.85759999999992
 70
     32
  0
VERTEX
  8
MY3DLAYER
10
30.5902358621402
20
19.8333972309357
30
-5.85759999999992
 70
     32
  0
VERTEX
  8
MY3DLAYER
10
30.6005912011995
20
19.8413431620656
30
-5.85759999999992
 70
     32
  0
VERTEX
  8
MY3DLAYER
10
30.6126502489444
20
19.8463381831908
30
-5.85759999999992
 70
     32
  0
VERTEX
  8
MY3DLAYER
10
30.6255912011995
20
19.8480418918764
30
-5.85759999999992
 70
     32
  0
VERTEX
  8
MY3DLAYER
10
30.6255912011995
20
20.1180418918764
30
-5.85759999999992
 70
     32
  0
VERTEX
  8
MY3DLAYER
10
30.6126502489444
20
20.1197456005619
30
-5.85759999999991
 70
     32
  0
VERTEX
  8
MY3DLAYER
10
30.6005912011995
20
20.1247406216871
30
-5.85759999999992
 70
     32
  0
VERTEX
  8
MY3DLAYER
10
30.5902358621402
20
20.132686552817
30
-5.85759999999992
 70
     32
  0
VERTEX
  8
MY3DLAYER
10
30.5822899310103
20
20.1430418918764
30
-5.85759999999992
 70
     32
  0
VERTEX
  8
MY3DLAYER
10
30.5772949098851
20
20.1551009396212
30
-5.85759999999992
 70
     32
  0
VERTEX
  8
MY3DLAYER
10
30.5755912011995
20
20.1680418918764
30
-5.85759999999992
 70
     32
  0
VERTEX
  8
MY3DLAYER
10
30.5772949098851
20
20.1809828441315
30
-5.85759999999991
 70
     32
  0
VERTEX
  8
MY3DLAYER
10
30.5822899310103
20
20.1930418918764
30
-5.85759999999992
 70
     32
  0
VERTEX
  8
MY3DLAYER
10
30.5902358621402
20
20.2033972309357
30
-5.85759999999991
 70
     32
  0
VERTEX
  8
MY3DLAYER
10
30.6005912011995
20
20.2113431620656
30
-5.85759999999992
 70
     32
  0
VERTEX
  8
MY3DLAYER
10
30.6126502489444
20
20.2163381831908
30
-5.85759999999992
 70
     32
  0
VERTEX
  8
MY3DLAYER
10
30.6255912011995
20
20.2180418918764
30
-5.85759999999992
 70
     32
  0
VERTEX
  8
MY3DLAYER
10
30.6385321534546
20
20.2163381831908
30
-5.85759999999992
 70
     32
  0
VERTEX
  8
MY3DLAYER
10
30.6505912011995
20
20.2113431620656
30
-5.85759999999992
 70
     32
  0
VERTEX
  8
MY3DLAYER
10
30.6609465402588
20
20.2033972309357
30
-5.85759999999992
 70
     32
  0
VERTEX
  8
MY3DLAYER
10
30.6688924713887
20
20.1930418918764
30
-5.85759999999992
 70
     32
  0
VERTEX
  8
MY3DLAYER
10
30.9027193304105
20
20.3280418918764
30
-5.85759999999991
 70
     32
  0
VERTEX
  8
MY3DLAYER
10
30.8977243092853
20
20.3401009396213
30
-5.85759999999992
 70
     32
  0
VERTEX
  8
MY3DLAYER
10
30.8960206005997
20
20.3530418918764
30
-5.85759999999991
 70
     32
  0
VERTEX
  8
MY3DLAYER
10
30.8977243092853
20
20.3659828441315
30
-5.85759999999992
 70
     32
  0
VERTEX
  8
MY3DLAYER
10
30.9027193304105
20
20.3780418918764
30
-5.85759999999992
 70
     32
  0
VERTEX
  8
MY3DLAYER
10
30.9106652615404
20
20.3883972309357
30
-5.85759999999992
 70
     32
  0
VERTEX
  8
MY3DLAYER
10
30.9210206005998
20
20.3963431620656
30
-5.85759999999991
 70
     32
  0
VERTEX
  8
MY3DLAYER
10
30.9330796483446
20
20.4013381831908
30
-5.85759999999992
 70
     32
  0
VERTEX
  8
MY3DLAYER
10
30.9460206005998
20
20.4030418918764
30
-5.85759999999992
 70
     32
  0
VERTEX
  8
MY3DLAYER
10
30.9589615528549
20
20.4013381831908
30
-5.85759999999992
 70
     32
  0
VERTEX
  8
MY3DLAYER
10
30.9710206005998
20
20.3963431620656
30
-5.85759999999992
 70
     32
  0
VERTEX
  8
MY3DLAYER
10
30.9813759396591
20
20.3883972309357
30
-5.85759999999992
 70
     32
  0
VERTEX
  8
MY3DLAYER
10
30.989321870789
20
20.3780418918764
30
-5.85759999999992
 70
     32
  0
VERTEX
  8
MY3DLAYER
10
30.9943168919142
20
20.3659828441315
30
-5.85759999999992
 70
     32
  0
VERTEX
  8
MY3DLAYER
10
30.9960206005998
20
20.3530418918764
30
-5.85759999999992
 70
     32
  0
VERTEX
  8
MY3DLAYER
10
30.9943168919142
20
20.3401009396213
30
-5.85759999999992
 70
     32
  0
VERTEX
  8
MY3DLAYER
10
30.989321870789
20
20.3280418918764
30
-5.85759999999992
 70
     32
  0
VERTEX
  8
MY3DLAYER
10
31.2231487298108
20
20.1930418918764
30
-5.85759999999992
 70
     32
  0
VERTEX
  8
MY3DLAYER
10
31.2310946609407
20
20.2033972309357
30
-5.85759999999991
 70
     32
  0
VERTEX
  8
MY3DLAYER
10
31.24145
20
20.2113431620656
30
-5.85759999999991
 70
     32
  0
VERTEX
  8
MY3DLAYER
10
31.2535090477449
20
20.2163381831908
30
-5.85759999999992
 70
     32
  0
VERTEX
  8
MY3DLAYER
10
31.26645
20
20.2180418918764
30
-5.85759999999992
 70
     32
  0
VERTEX
  8
MY3DLAYER
10
31.2793909522551
20
20.2163381831908
30
-5.85759999999991
 70
     32
  0
VERTEX
  8
MY3DLAYER
10
31.29145
20
20.2113431620656
30
-5.85759999999991
 70
     32
  0
VERTEX
  8
MY3DLAYER
10
31.3018053390593
20
20.2033972309357
30
-5.85759999999992
 70
     32
  0
VERTEX
  8
MY3DLAYER
10
31.3097512701892
20
20.1930418918764
30
-5.85759999999992
 70
     32
  0
VERTEX
  8
MY3DLAYER
10
31.3147462913145
20
20.1809828441315
30
-5.85759999999991
 70
     32
  0
SEQEND
  0
POLYLINE
 8
Layer0
 66
     1
70
    8
 10
0.0
 20
 0.0
 30
0.0
  0
VERTEX
  8
MY3DLAYER
10
28.9556050901149
20
21.9926498441316
30
-5.85759999999994
 70
     32
  0
VERTEX
  8
MY3DLAYER
10
28.9573087988005
20
21.9797088918764
30
-5.85759999999994
 70
     32
  0
VERTEX
  8
MY3DLAYER
10
28.9556050901149
20
21.9667679396213
30
-5.85759999999994
 70
     32
  0
VERTEX
  8
MY3DLAYER
10
28.9506100689897
20
21.9547088918764
30
-5.85759999999994
 70
     32
  0
VERTEX
  8
MY3DLAYER
10
28.9426641378598
20
21.9443535528171
30
-5.85759999999994
 70
     32
  0
VERTEX
  8
MY3DLAYER
10
28.9323087988005
20
21.9364076216872
30
-5.85759999999995
 70
     32
  0
VERTEX
  8
MY3DLAYER
10
28.9202497510556
20
21.931412600562
30
-5.85759999999994
 70
     32
  0
VERTEX
  8
MY3DLAYER
10
28.9073087988005
20
21.9297088918765
30
-5.85759999999994
 70
     32
  0
VERTEX
  8
MY3DLAYER
10
28.9073087988005
20
21.6597088918764
30
-5.85759999999994
 70
     32
  0
VERTEX
  8
MY3DLAYER
10
28.9202497510556
20
21.6580051831909
30
-5.85759999999995
 70
     32
  0
VERTEX
  8
MY3DLAYER
10
28.9323087988005
20
21.6530101620657
30
-5.85759999999995
 70
     32
  0
VERTEX
  8
MY3DLAYER
10
28.9426641378598
20
21.6450642309358
30
-5.85759999999994
 70
     32
  0
VERTEX
  8
MY3DLAYER
10
28.9506100689897
20
21.6347088918765
30
-5.85759999999995
 70
     32
  0
VERTEX
  8
MY3DLAYER
10
28.9556050901149
20
21.6226498441316
30
-5.85759999999995
 70
     32
  0
VERTEX
  8
MY3DLAYER
10
28.9573087988005
20
21.6097088918765
30
-5.85759999999995
 70
     32
  0
VERTEX
  8
MY3DLAYER
10
28.9556050901149
20
21.5967679396213
30
-5.85759999999995
 70
     32
  0
VERTEX
  8
MY3DLAYER
10
28.9506100689897
20
21.5847088918764
30
-5.85759999999994
 70
     32
  0
VERTEX
  8
MY3DLAYER
10
28.9426641378598
20
21.5743535528171
30
-5.85759999999995
 70
     32
  0
VERTEX
  8
MY3DLAYER
10
28.9323087988005
20
21.5664076216872
30
-5.85759999999995
 70
     32
  0
VERTEX
  8
MY3DLAYER
10
28.9202497510556
20
21.561412600562
30
-5.85759999999995
 70
     32
  0
VERTEX
  8
MY3DLAYER
10
28.9073087988005
20
21.5597088918765
30
-5.85759999999995
 70
     32
  0
VERTEX
  8
MY3DLAYER
10
28.8943678465454
20
21.561412600562
30
-5.85759999999994
 70
     32
  0
VERTEX
  8
MY3DLAYER
10
28.8823087988005
20
21.5664076216872
30
-5.85759999999995
 70
     32
  0
VERTEX
  8
MY3DLAYER
10
28.8719534597411
20
21.5743535528171
30
-5.85759999999995
 70
     32
  0
VERTEX
  8
MY3DLAYER
10
28.8640075286113
20
21.5847088918765
30
-5.85759999999994
 70
     32
  0
VERTEX
  8
MY3DLAYER
10
28.6301806695895
20
21.4497088918765
30
-5.85759999999995
 70
     32
  0
VERTEX
  8
MY3DLAYER
10
28.6351756907147
20
21.4376498441316
30
-5.85759999999994
 70
     32
  0
VERTEX
  8
MY3DLAYER
10
28.6368793994003
20
21.4247088918765
30
-5.85759999999994
 70
     32
  0
VERTEX
  8
MY3DLAYER
10
28.6351756907147
20
21.4117679396213
30
-5.85759999999994
 70
     32
  0
VERTEX
  8
MY3DLAYER
10
28.6301806695895
20
21.3997088918765
30
-5.85759999999994
 70
     32
  0
VERTEX
  8
MY3DLAYER
10
28.6222347384596
20
21.3893535528171
30
-5.85759999999994
 70
     32
  0
VERTEX
  8
MY3DLAYER
10
28.6118793994003
20
21.3814076216872
30
-5.85759999999994
 70
     32
  0
VERTEX
  8
MY3DLAYER
10
28.5998203516554
20
21.376412600562
30
-5.85759999999994
 70
     32
  0
VERTEX
  8
MY3DLAYER
10
28.5868793994002
20
21.3747088918765
30
-5.85759999999995
 70
     32
  0
VERTEX
  8
MY3DLAYER
10
28.5739384471451
20
21.376412600562
30
-5.85759999999994
 70
     32
  0
VERTEX
  8
MY3DLAYER
10
28.5618793994003
20
21.3814076216872
30
-5.85759999999994
 70
     32
  0
VERTEX
  8
MY3DLAYER
10
28.5515240603409
20
21.3893535528171
30
-5.85759999999994
 70
     32
  0
VERTEX
  8
MY3DLAYER
10
28.543578129211
20
21.3997088918765
30
-5.85759999999995
 70
     32
  0
VERTEX
  8
MY3DLAYER
10
28.5385831080858
20
21.4117679396213
30
-5.85759999999995
 70
     32
  0
VERTEX
  8
MY3DLAYER
10
28.5368793994002
20
21.4247088918765
30
-5.85759999999994
 70
     32
  0
VERTEX
  8
MY3DLAYER
10
28.5385831080858
20
21.4376498441316
30
-5.85759999999994
 70
     32
  0
VERTEX
  8
MY3DLAYER
10
28.543578129211
20
21.4497088918765
30
-5.85759999999995
 70
     32
  0
VERTEX
  8
MY3DLAYER
10
28.3097512701892
20
21.5847088918764
30
-5.85759999999994
 70
     32
  0
VERTEX
  8
MY3DLAYER
10
28.3018053390593
20
21.5743535528171
30
-5.85759999999995
 70
     32
  0
VERTEX
  8
MY3DLAYER
10
28.29145
20
21.5664076216872
30
-5.85759999999995
 70
     32
  0
VERTEX
  8
MY3DLAYER
10
28.2793909522551
20
21.561412600562
30
-5.85759999999994
 70
     32
  0
VERTEX
  8
MY3DLAYER
10
28.26645
20
21.5597088918764
30
-5.85759999999994
 70
     32
  0
VERTEX
  8
MY3DLAYER
10
28.2535090477449
20
21.561412600562
30
-5.85759999999994
 70
     32
  0
VERTEX
  8
MY3DLAYER
10
28.24145
20
21.5664076216872
30
-5.85759999999994
 70
     32
  0
VERTEX
  8
MY3DLAYER
10
28.2310946609407
20
21.5743535528171
30
-5.85759999999995
 70
     32
  0
VERTEX
  8
MY3DLAYER
10
28.2231487298108
20
21.5847088918764
30
-5.85759999999995
 70
     32
  0
VERTEX
  8
MY3DLAYER
10
28.2181537086856
20
21.5967679396213
30
-5.85759999999995
 70
     32
  0
VERTEX
  8
MY3DLAYER
10
28.21645
20
21.6097088918764
30
-5.85759999999994
 70
     32
  0
VERTEX
  8
MY3DLAYER
10
28.2181537086856
20
21.6226498441316
30
-5.85759999999995
 70
     32
  0
VERTEX
  8
MY3DLAYER
10
28.2231487298108
20
21.6347088918764
30
-5.85759999999995
 70
     32
  0
VERTEX
  8
MY3DLAYER
10
28.2310946609407
20
21.6450642309358
30
-5.85759999999995
 70
     32
  0
VERTEX
  8
MY3DLAYER
10
28.24145
20
21.6530101620657
30
-5.85759999999994
 70
     32
  0
VERTEX
  8
MY3DLAYER
10
28.2535090477449
20
21.6580051831909
30
-5.85759999999995
 70
     32
  0
VERTEX
  8
MY3DLAYER
10
28.26645
20
21.6597088918764
30
-5.85759999999995
 70
     32
  0
VERTEX
  8
MY3DLAYER
10
28.26645
20
21.9297088918764
30
-5.85759999999995
 70
     32
  0
VERTEX
  8
MY3DLAYER
10
28.2535090477449
20
21.931412600562
30
-5.85759999999994
 70
     32
  0
VERTEX
  8
MY3DLAYER
10
28.24145
20
21.9364076216872
30
-5.85759999999994
 70
     32
  0
VERTEX
  8
MY3DLAYER
10
28.2310946609407
20
21.9443535528171
30
-5.85759999999995
 70
     32
  0
VERTEX
  8
MY3DLAYER
10
28.2231487298108
20
21.9547088918764
30
-5.85759999999994
 70
     32
  0
VERTEX
  8
MY3DLAYER
10
28.2181537086855
20
21.9667679396213
30
-5.85759999999994
 70
     32
  0
VERTEX
  8
MY3DLAYER
10
28.21645
20
21.9797088918764
30
-5.85759999999995
 70
     32
  0
VERTEX
  8
MY3DLAYER
10
28.2181537086855
20
21.9926498441316
30
-5.85759999999994
 70
     32
  0
VERTEX
  8
MY3DLAYER
10
28.2231487298108
20
22.0047088918764
30
-5.85759999999995
 70
     32
  0
VERTEX
  8
MY3DLAYER
10
28.2310946609407
20
22.0150642309358
30
-5.85759999999994
 70
     32
  0
VERTEX
  8
MY3DLAYER
10
28.24145
20
22.0230101620657
30
-5.85759999999995
 70
     32
  0
VERTEX
  8
MY3DLAYER
10
28.2535090477449
20
22.0280051831909
30
-5.85759999999994
 70
     32
  0
VERTEX
  8
MY3DLAYER
10
28.26645
20
22.0297088918764
30
-5.85759999999994
 70
     32
  0
VERTEX
  8
MY3DLAYER
10
28.2793909522551
20
22.0280051831909
30
-5.85759999999995
 70
     32
  0
VERTEX
  8
MY3DLAYER
10
28.29145
20
22.0230101620657
30
-5.85759999999995
 70
     32
  0
VERTEX
  8
MY3DLAYER
10
28.3018053390593
20
22.0150642309358
30
-5.85759999999994
 70
     32
  0
VERTEX
  8
MY3DLAYER
10
28.3097512701892
20
22.0047088918764
30
-5.85759999999994
 70
     32
  0
VERTEX
  8
MY3DLAYER
10
28.543578129211
20
22.1397088918764
30
-5.85759999999994
 70
     32
  0
VERTEX
  8
MY3DLAYER
10
28.5385831080858
20
22.1517679396213
30
-5.85759999999994
 70
     32
  0
VERTEX
  8
MY3DLAYER
10
28.5368793994002
20
22.1647088918765
30
-5.85759999999994
 70
     32
  0
VERTEX
  8
MY3DLAYER
10
28.5385831080858
20
22.1776498441316
30
-5.85759999999995
 70
     32
  0
VERTEX
  8
MY3DLAYER
10
28.543578129211
20
22.1897088918764
30
-5.85759999999995
 70
     32
  0
VERTEX
  8
MY3DLAYER
10
28.5515240603409
20
22.2000642309358
30
-5.85759999999995
 70
     32
  0
VERTEX
  8
MY3DLAYER
10
28.5618793994002
20
22.2080101620657
30
-5.85759999999994
 70
     32
  0
VERTEX
  8
MY3DLAYER
10
28.5739384471451
20
22.2130051831909
30
-5.85759999999994
 70
     32
  0
VERTEX
  8
MY3DLAYER
10
28.5868793994002
20
22.2147088918765
30
-5.85759999999994
 70
     32
  0
VERTEX
  8
MY3DLAYER
10
28.5998203516554
20
22.2130051831909
30
-5.85759999999995
 70
     32
  0
VERTEX
  8
MY3DLAYER
10
28.6118793994002
20
22.2080101620657
30
-5.85759999999994
 70
     32
  0
VERTEX
  8
MY3DLAYER
10
28.6222347384596
20
22.2000642309358
30
-5.85759999999995
 70
     32
  0
VERTEX
  8
MY3DLAYER
10
28.6301806695895
20
22.1897088918764
30
-5.85759999999995
 70
     32
  0
VERTEX
  8
MY3DLAYER
10
28.6351756907147
20
22.1776498441316
30
-5.85759999999995
 70
     32
  0
VERTEX
  8
MY3DLAYER
10
28.6368793994002
20
22.1647088918764
30
-5.85759999999995
 70
     32
  0
VERTEX
  8
MY3DLAYER
10
28.6351756907147
20
22.1517679396213
30
-5.85759999999994
 70
     32
  0
VERTEX
  8
MY3DLAYER
10
28.6301806695895
20
22.1397088918764
30
-5.85759999999995
 70
     32
  0
VERTEX
  8
MY3DLAYER
10
28.8640075286112
20
22.0047088918765
30
-5.85759999999995
 70
     32
  0
VERTEX
  8
MY3DLAYER
10
28.8719534597412
20
22.0150642309358
30
-5.85759999999994
 70
     32
  0
VERTEX
  8
MY3DLAYER
10
28.8823087988005
20
22.0230101620657
30
-5.85759999999994
 70
     32
  0
VERTEX
  8
MY3DLAYER
10
28.8943678465454
20
22.0280051831909
30
-5.85759999999994
 70
     32
  0
VERTEX
  8
MY3DLAYER
10
28.9073087988005
20
22.0297088918765
30
-5.85759999999995
 70
     32
  0
VERTEX
  8
MY3DLAYER
10
28.9202497510556
20
22.0280051831909
30
-5.85759999999994
 70
     32
  0
VERTEX
  8
MY3DLAYER
10
28.9323087988005
20
22.0230101620657
30
-5.85759999999994
 70
     32
  0
VERTEX
  8
MY3DLAYER
10
28.9426641378598
20
22.0150642309358
30
-5.85759999999995
 70
     32
  0
VERTEX
  8
MY3DLAYER
10
28.9506100689897
20
22.0047088918764
30
-5.85759999999994
 70
     32
  0
VERTEX
  8
MY3DLAYER
10
28.9556050901149
20
21.9926498441316
30
-5.85759999999994
 70
     32
  0
SEQEND
  0
POLYLINE
 8
Layer0
 66
     1
70
    8
 10
0.0
 20
 0.0
 30
0.0
  0
VERTEX
  8
MY3DLAYER
10
28.9556050901149
20
20.1809828441316
30
-5.85759999999996
 70
     32
  0
VERTEX
  8
MY3DLAYER
10
28.9573087988005
20
20.1680418918764
30
-5.85759999999996
 70
     32
  0
VERTEX
  8
MY3DLAYER
10
28.9556050901149
20
20.1551009396213
30
-5.85759999999996
 70
     32
  0
VERTEX
  8
MY3DLAYER
10
28.9506100689897
20
20.1430418918764
30
-5.85759999999996
 70
     32
  0
VERTEX
  8
MY3DLAYER
10
28.9426641378598
20
20.1326865528171
30
-5.85759999999996
 70
     32
  0
VERTEX
  8
MY3DLAYER
10
28.9323087988005
20
20.1247406216872
30
-5.85759999999996
 70
     32
  0
VERTEX
  8
MY3DLAYER
10
28.9202497510556
20
20.119745600562
30
-5.85759999999996
 70
     32
  0
VERTEX
  8
MY3DLAYER
10
28.9073087988005
20
20.1180418918765
30
-5.85759999999996
 70
     32
  0
VERTEX
  8
MY3DLAYER
10
28.9073087988005
20
19.8480418918764
30
-5.85759999999995
 70
     32
  0
VERTEX
  8
MY3DLAYER
10
28.9202497510556
20
19.8463381831909
30
-5.85759999999997
 70
     32
  0
VERTEX
  8
MY3DLAYER
10
28.9323087988005
20
19.8413431620657
30
-5.85759999999996
 70
     32
  0
VERTEX
  8
MY3DLAYER
10
28.9426641378598
20
19.8333972309358
30
-5.85759999999995
 70
     32
  0
VERTEX
  8
MY3DLAYER
10
28.9506100689897
20
19.8230418918765
30
-5.85759999999996
 70
     32
  0
VERTEX
  8
MY3DLAYER
10
28.9556050901149
20
19.8109828441316
30
-5.85759999999996
 70
     32
  0
VERTEX
  8
MY3DLAYER
10
28.9573087988005
20
19.7980418918765
30
-5.85759999999996
 70
     32
  0
VERTEX
  8
MY3DLAYER
10
28.9556050901149
20
19.7851009396213
30
-5.85759999999996
 70
     32
  0
VERTEX
  8
MY3DLAYER
10
28.9506100689897
20
19.7730418918764
30
-5.85759999999996
 70
     32
  0
VERTEX
  8
MY3DLAYER
10
28.9426641378598
20
19.7626865528171
30
-5.85759999999996
 70
     32
  0
VERTEX
  8
MY3DLAYER
10
28.9323087988005
20
19.7547406216872
30
-5.85759999999996
 70
     32
  0
VERTEX
  8
MY3DLAYER
10
28.9202497510556
20
19.749745600562
30
-5.85759999999996
 70
     32
  0
VERTEX
  8
MY3DLAYER
10
28.9073087988005
20
19.7480418918765
30
-5.85759999999996
 70
     32
  0
VERTEX
  8
MY3DLAYER
10
28.8943678465454
20
19.749745600562
30
-5.85759999999995
 70
     32
  0
VERTEX
  8
MY3DLAYER
10
28.8823087988005
20
19.7547406216872
30
-5.85759999999996
 70
     32
  0
VERTEX
  8
MY3DLAYER
10
28.8719534597411
20
19.7626865528171
30
-5.85759999999997
 70
     32
  0
VERTEX
  8
MY3DLAYER
10
28.8640075286113
20
19.7730418918765
30
-5.85759999999996
 70
     32
  0
VERTEX
  8
MY3DLAYER
10
28.6301806695895
20
19.6380418918765
30
-5.85759999999996
 70
     32
  0
VERTEX
  8
MY3DLAYER
10
28.6351756907147
20
19.6259828441316
30
-5.85759999999996
 70
     32
  0
VERTEX
  8
MY3DLAYER
10
28.6368793994003
20
19.6130418918765
30
-5.85759999999996
 70
     32
  0
VERTEX
  8
MY3DLAYER
10
28.6351756907147
20
19.6001009396213
30
-5.85759999999996
 70
     32
  0
VERTEX
  8
MY3DLAYER
10
28.6301806695895
20
19.5880418918765
30
-5.85759999999996
 70
     32
  0
VERTEX
  8
MY3DLAYER
10
28.6222347384596
20
19.5776865528171
30
-5.85759999999996
 70
     32
  0
VERTEX
  8
MY3DLAYER
10
28.6118793994003
20
19.5697406216872
30
-5.85759999999996
 70
     32
  0
VERTEX
  8
MY3DLAYER
10
28.5998203516554
20
19.564745600562
30
-5.85759999999996
 70
     32
  0
VERTEX
  8
MY3DLAYER
10
28.5868793994002
20
19.5630418918765
30
-5.85759999999996
 70
     32
  0
VERTEX
  8
MY3DLAYER
10
28.5739384471451
20
19.564745600562
30
-5.85759999999996
 70
     32
  0
VERTEX
  8
MY3DLAYER
10
28.5618793994003
20
19.5697406216872
30
-5.85759999999996
 70
     32
  0
VERTEX
  8
MY3DLAYER
10
28.5515240603409
20
19.5776865528171
30
-5.85759999999996
 70
     32
  0
VERTEX
  8
MY3DLAYER
10
28.543578129211
20
19.5880418918765
30
-5.85759999999996
 70
     32
  0
VERTEX
  8
MY3DLAYER
10
28.5385831080858
20
19.6001009396213
30
-5.85759999999996
 70
     32
  0
VERTEX
  8
MY3DLAYER
10
28.5368793994003
20
19.6130418918765
30
-5.85759999999996
 70
     32
  0
VERTEX
  8
MY3DLAYER
10
28.5385831080858
20
19.6259828441316
30
-5.85759999999996
 70
     32
  0
VERTEX
  8
MY3DLAYER
10
28.543578129211
20
19.6380418918765
30
-5.85759999999996
 70
     32
  0
VERTEX
  8
MY3DLAYER
10
28.3097512701892
20
19.7730418918764
30
-5.85759999999996
 70
     32
  0
VERTEX
  8
MY3DLAYER
10
28.3018053390593
20
19.7626865528171
30
-5.85759999999996
 70
     32
  0
VERTEX
  8
MY3DLAYER
10
28.29145
20
19.7547406216872
30
-5.85759999999996
 70
     32
  0
VERTEX
  8
MY3DLAYER
10
28.2793909522551
20
19.749745600562
30
-5.85759999999996
 70
     32
  0
VERTEX
  8
MY3DLAYER
10
28.26645
20
19.7480418918764
30
-5.85759999999996
 70
     32
  0
VERTEX
  8
MY3DLAYER
10
28.2535090477449
20
19.749745600562
30
-5.85759999999996
 70
     32
  0
VERTEX
  8
MY3DLAYER
10
28.24145
20
19.7547406216872
30
-5.85759999999996
 70
     32
  0
VERTEX
  8
MY3DLAYER
10
28.2310946609407
20
19.7626865528171
30
-5.85759999999996
 70
     32
  0
VERTEX
  8
MY3DLAYER
10
28.2231487298108
20
19.7730418918764
30
-5.85759999999996
 70
     32
  0
VERTEX
  8
MY3DLAYER
10
28.2181537086856
20
19.7851009396213
30
-5.85759999999996
 70
     32
  0
VERTEX
  8
MY3DLAYER
10
28.21645
20
19.7980418918764
30
-5.85759999999996
 70
     32
  0
VERTEX
  8
MY3DLAYER
10
28.2181537086856
20
19.8109828441316
30
-5.85759999999996
 70
     32
  0
VERTEX
  8
MY3DLAYER
10
28.2231487298108
20
19.8230418918764
30
-5.85759999999996
 70
     32
  0
VERTEX
  8
MY3DLAYER
10
28.2310946609407
20
19.8333972309358
30
-5.85759999999996
 70
     32
  0
VERTEX
  8
MY3DLAYER
10
28.24145
20
19.8413431620657
30
-5.85759999999996
 70
     32
  0
VERTEX
  8
MY3DLAYER
10
28.2535090477449
20
19.8463381831909
30
-5.85759999999996
 70
     32
  0
VERTEX
  8
MY3DLAYER
10
28.26645
20
19.8480418918764
30
-5.85759999999996
 70
     32
  0
VERTEX
  8
MY3DLAYER
10
28.26645
20
20.1180418918764
30
-5.85759999999996
 70
     32
  0
VERTEX
  8
MY3DLAYER
10
28.2535090477449
20
20.119745600562
30
-5.85759999999996
 70
     32
  0
VERTEX
  8
MY3DLAYER
10
28.24145
20
20.1247406216872
30
-5.85759999999996
 70
     32
  0
VERTEX
  8
MY3DLAYER
10
28.2310946609407
20
20.1326865528171
30
-5.85759999999996
 70
     32
  0
VERTEX
  8
MY3DLAYER
10
28.2231487298108
20
20.1430418918764
30
-5.85759999999996
 70
     32
  0
VERTEX
  8
MY3DLAYER
10
28.2181537086855
20
20.1551009396213
30
-5.85759999999996
 70
     32
  0
VERTEX
  8
MY3DLAYER
10
28.21645
20
20.1680418918764
30
-5.85759999999996
 70
     32
  0
VERTEX
  8
MY3DLAYER
10
28.2181537086855
20
20.1809828441316
30
-5.85759999999996
 70
     32
  0
VERTEX
  8
MY3DLAYER
10
28.2231487298108
20
20.1930418918764
30
-5.85759999999996
 70
     32
  0
VERTEX
  8
MY3DLAYER
10
28.2310946609407
20
20.2033972309358
30
-5.85759999999996
 70
     32
  0
VERTEX
  8
MY3DLAYER
10
28.24145
20
20.2113431620657
30
-5.85759999999996
 70
     32
  0
VERTEX
  8
MY3DLAYER
10
28.2535090477449
20
20.2163381831909
30
-5.85759999999996
 70
     32
  0
VERTEX
  8
MY3DLAYER
10
28.26645
20
20.2180418918764
30
-5.85759999999996
 70
     32
  0
VERTEX
  8
MY3DLAYER
10
28.2793909522551
20
20.2163381831909
30
-5.85759999999996
 70
     32
  0
VERTEX
  8
MY3DLAYER
10
28.29145
20
20.2113431620657
30
-5.85759999999996
 70
     32
  0
VERTEX
  8
MY3DLAYER
10
28.3018053390593
20
20.2033972309358
30
-5.85759999999996
 70
     32
  0
VERTEX
  8
MY3DLAYER
10
28.3097512701892
20
20.1930418918764
30
-5.85759999999996
 70
     32
  0
VERTEX
  8
MY3DLAYER
10
28.543578129211
20
20.3280418918764
30
-5.85759999999996
 70
     32
  0
VERTEX
  8
MY3DLAYER
10
28.5385831080858
20
20.3401009396213
30
-5.85759999999996
 70
     32
  0
VERTEX
  8
MY3DLAYER
10
28.5368793994002
20
20.3530418918765
30
-5.85759999999996
 70
     32
  0
VERTEX
  8
MY3DLAYER
10
28.5385831080858
20
20.3659828441316
30
-5.85759999999997
 70
     32
  0
VERTEX
  8
MY3DLAYER
10
28.543578129211
20
20.3780418918764
30
-5.85759999999996
 70
     32
  0
VERTEX
  8
MY3DLAYER
10
28.5515240603409
20
20.3883972309358
30
-5.85759999999997
 70
     32
  0
VERTEX
  8
MY3DLAYER
10
28.5618793994002
20
20.3963431620657
30
-5.85759999999996
 70
     32
  0
VERTEX
  8
MY3DLAYER
10
28.5739384471451
20
20.4013381831909
30
-5.85759999999996
 70
     32
  0
VERTEX
  8
MY3DLAYER
10
28.5868793994002
20
20.4030418918765
30
-5.85759999999996
 70
     32
  0
VERTEX
  8
MY3DLAYER
10
28.5998203516554
20
20.4013381831909
30
-5.85759999999996
 70
     32
  0
VERTEX
  8
MY3DLAYER
10
28.6118793994002
20
20.3963431620657
30
-5.85759999999996
 70
     32
  0
VERTEX
  8
MY3DLAYER
10
28.6222347384596
20
20.3883972309358
30
-5.85759999999996
 70
     32
  0
VERTEX
  8
MY3DLAYER
10
28.6301806695895
20
20.3780418918764
30
-5.85759999999996
 70
     32
  0
VERTEX
  8
MY3DLAYER
10
28.6351756907147
20
20.3659828441316
30
-5.85759999999996
 70
     32
  0
VERTEX
  8
MY3DLAYER
10
28.6368793994003
20
20.3530418918764
30
-5.85759999999997
 70
     32
  0
VERTEX
  8
MY3DLAYER
10
28.6351756907147
20
20.3401009396213
30
-5.85759999999996
 70
     32
  0
VERTEX
  8
MY3DLAYER
10
28.6301806695895
20
20.3280418918764
30
-5.85759999999996
 70
     32
  0
VERTEX
  8
MY3DLAYER
10
28.8640075286112
20
20.1930418918765
30
-5.85759999999996
 70
     32
  0
VERTEX
  8
MY3DLAYER
10
28.8719534597412
20
20.2033972309358
30
-5.85759999999996
 70
     32
  0
VERTEX
  8
MY3DLAYER
10
28.8823087988005
20
20.2113431620657
30
-5.85759999999995
 70
     32
  0
VERTEX
  8
MY3DLAYER
10
28.8943678465454
20
20.2163381831909
30
-5.85759999999996
 70
     32
  0
VERTEX
  8
MY3DLAYER
10
28.9073087988005
20
20.2180418918765
30
-5.85759999999996
 70
     32
  0
VERTEX
  8
MY3DLAYER
10
28.9202497510556
20
20.2163381831909
30
-5.85759999999996
 70
     32
  0
VERTEX
  8
MY3DLAYER
10
28.9323087988005
20
20.2113431620657
30
-5.85759999999996
 70
     32
  0
VERTEX
  8
MY3DLAYER
10
28.9426641378598
20
20.2033972309358
30
-5.85759999999996
 70
     32
  0
VERTEX
  8
MY3DLAYER
10
28.9506100689897
20
20.1930418918764
30
-5.85759999999996
 70
     32
  0
VERTEX
  8
MY3DLAYER
10
28.9556050901149
20
20.1809828441316
30
-5.85759999999996
 70
     32
  0
SEQEND
  0
POLYLINE
 8
Layer0
 66
     1
70
    8
 10
0.0
 20
 0.0
 30
0.0
  0
VERTEX
  8
MY3DLAYER
10
30.2494129131445
20
-2.62059047741303
30
-5.85759999999994
 70
     32
  0
VERTEX
  8
MY3DLAYER
10
30.26645
20
-2.74999999996429
30
-5.85759999999994
 70
     32
  0
VERTEX
  8
MY3DLAYER
10
30.26645
20
-3.24999999996429
30
-5.85759999999994
 70
     32
  0
VERTEX
  8
MY3DLAYER
10
30.2494129131445
20
-3.37940952251555
30
-5.85759999999994
 70
     32
  0
VERTEX
  8
MY3DLAYER
10
30.1994627018922
20
-3.49999999996429
30
-5.85759999999994
 70
     32
  0
VERTEX
  8
MY3DLAYER
10
30.1200033905933
20
-3.60355339055757
30
-5.85759999999994
 70
     32
  0
VERTEX
  8
MY3DLAYER
10
30.01645
20
-3.68301270185651
30
-5.85759999999994
 70
     32
  0
VERTEX
  8
MY3DLAYER
10
29.8958595225513
20
-3.73296291310883
30
-5.85759999999994
 70
     32
  0
VERTEX
  8
MY3DLAYER
10
29.76645
20
-3.74999999996429
30
-5.85759999999994
 70
     32
  0
VERTEX
  8
MY3DLAYER
10
29.6370404774487
20
-3.73296291310883
30
-5.85759999999994
 70
     32
  0
VERTEX
  8
MY3DLAYER
10
29.51645
20
-3.68301270185651
30
-5.85759999999994
 70
     32
  0
VERTEX
  8
MY3DLAYER
10
29.4128966094067
20
-3.60355339055757
30
-5.85759999999994
 70
     32
  0
VERTEX
  8
MY3DLAYER
10
29.3334372981078
20
-3.49999999996429
30
-5.85759999999994
 70
     32
  0
VERTEX
  8
MY3DLAYER
10
29.2834870868555
20
-3.37940952251555
30
-5.85759999999994
 70
     32
  0
VERTEX
  8
MY3DLAYER
10
29.26645
20
-3.24999999996429
30
-5.85759999999994
 70
     32
  0
VERTEX
  8
MY3DLAYER
10
29.26645
20
-2.74999999996429
30
-5.85759999999994
 70
     32
  0
VERTEX
  8
MY3DLAYER
10
29.2834870868555
20
-2.62059047741303
30
-5.85759999999994
 70
     32
  0
VERTEX
  8
MY3DLAYER
10
29.3334372981078
20
-2.49999999996429
30
-5.85759999999994
 70
     32
  0
VERTEX
  8
MY3DLAYER
10
29.4128966094067
20
-2.39644660937102
30
-5.85759999999994
 70
     32
  0
VERTEX
  8
MY3DLAYER
10
29.51645
20
-2.31698729807207
30
-5.85759999999994
 70
     32
  0
VERTEX
  8
MY3DLAYER
10
29.6370404774487
20
-2.26703708681976
30
-5.85759999999994
 70
     32
  0
VERTEX
  8
MY3DLAYER
10
29.76645
20
-2.24999999996429
30
-5.85759999999994
 70
     32
  0
VERTEX
  8
MY3DLAYER
10
29.8958595225513
20
-2.26703708681976
30
-5.85759999999994
 70
     32
  0
VERTEX
  8
MY3DLAYER
10
30.01645
20
-2.31698729807207
30
-5.85759999999994
 70
     32
  0
VERTEX
  8
MY3DLAYER
10
30.1200033905933
20
-2.39644660937102
30
-5.85759999999994
 70
     32
  0
VERTEX
  8
MY3DLAYER
10
30.1994627018922
20
-2.49999999996429
30
-5.85759999999994
 70
     32
  0
VERTEX
  8
MY3DLAYER
10
30.2494129131445
20
-2.62059047741303
30
-5.85759999999994
 70
     32
  0
SEQEND
  0
POLYLINE
 8
Layer0
 66
     1
70
    8
 10
0.0
 20
 0.0
 30
0.0
  0
VERTEX
  8
MY3DLAYER
10
30.26645
20
1.25000000003571
30
-5.85759999999994
 70
     32
  0
VERTEX
  8
MY3DLAYER
10
30.26645
20
0.750000000035708
30
-5.85759999999994
 70
     32
  0
VERTEX
  8
MY3DLAYER
10
30.2494129131445
20
0.620590477484448
30
-5.85759999999994
 70
     32
  0
VERTEX
  8
MY3DLAYER
10
30.1994627018922
20
0.500000000035707
30
-5.85759999999994
 70
     32
  0
VERTEX
  8
MY3DLAYER
10
30.1200033905933
20
0.396446609442433
30
-5.85759999999994
 70
     32
  0
VERTEX
  8
MY3DLAYER
10
30.01645
20
0.316987298143488
30
-5.85759999999994
 70
     32
  0
VERTEX
  8
MY3DLAYER
10
29.8958595225513
20
0.267037086891173
30
-5.85759999999994
 70
     32
  0
VERTEX
  8
MY3DLAYER
10
29.76645
20
0.250000000035707
30
-5.85759999999994
 70
     32
  0
VERTEX
  8
MY3DLAYER
10
29.6370404774487
20
0.267037086891173
30
-5.85759999999994
 70
     32
  0
VERTEX
  8
MY3DLAYER
10
29.51645
20
0.316987298143488
30
-5.85759999999994
 70
     32
  0
VERTEX
  8
MY3DLAYER
10
29.4128966094067
20
0.396446609442433
30
-5.85759999999994
 70
     32
  0
VERTEX
  8
MY3DLAYER
10
29.3334372981078
20
0.500000000035707
30
-5.85759999999994
 70
     32
  0
VERTEX
  8
MY3DLAYER
10
29.2834870868555
20
0.620590477484447
30
-5.85759999999994
 70
     32
  0
VERTEX
  8
MY3DLAYER
10
29.26645
20
0.750000000035708
30
-5.85759999999994
 70
     32
  0
VERTEX
  8
MY3DLAYER
10
29.26645
20
1.25000000003571
30
-5.85759999999994
 70
     32
  0
VERTEX
  8
MY3DLAYER
10
29.2834870868555
20
1.37940952258697
30
-5.85759999999994
 70
     32
  0
VERTEX
  8
MY3DLAYER
10
29.3334372981078
20
1.50000000003571
30
-5.85759999999994
 70
     32
  0
VERTEX
  8
MY3DLAYER
10
29.4128966094067
20
1.60355339062898
30
-5.85759999999994
 70
     32
  0
VERTEX
  8
MY3DLAYER
10
29.51645
20
1.68301270192793
30
-5.85759999999994
 70
     32
  0
VERTEX
  8
MY3DLAYER
10
29.6370404774487
20
1.73296291318024
30
-5.85759999999994
 70
     32
  0
VERTEX
  8
MY3DLAYER
10
29.76645
20
1.75000000003571
30
-5.85759999999994
 70
     32
  0
VERTEX
  8
MY3DLAYER
10
29.8958595225513
20
1.73296291318024
30
-5.85759999999994
 70
     32
  0
VERTEX
  8
MY3DLAYER
10
30.01645
20
1.68301270192793
30
-5.85759999999994
 70
     32
  0
VERTEX
  8
MY3DLAYER
10
30.1200033905933
20
1.60355339062898
30
-5.85759999999994
 70
     32
  0
VERTEX
  8
MY3DLAYER
10
30.1994627018922
20
1.50000000003571
30
-5.85759999999994
 70
     32
  0
VERTEX
  8
MY3DLAYER
10
30.2494129131445
20
1.37940952258697
30
-5.85759999999994
 70
     32
  0
VERTEX
  8
MY3DLAYER
10
30.26645
20
1.25000000003571
30
-5.85759999999994
 70
     32
  0
SEQEND
  0
POLYLINE
 8
Layer0
 66
     1
70
    8
 10
0.0
 20
 0.0
 30
0.0
  0
VERTEX
  8
MY3DLAYER
10
30.26645
20
41.2500000000193
30
-5.85759999999996
 70
     32
  0
VERTEX
  8
MY3DLAYER
10
30.26645
20
40.7500000000193
30
-5.85759999999996
 70
     32
  0
VERTEX
  8
MY3DLAYER
10
30.2494129131445
20
40.6205904774681
30
-5.85759999999996
 70
     32
  0
VERTEX
  8
MY3DLAYER
10
30.1994627018922
20
40.5000000000193
30
-5.85759999999996
 70
     32
  0
VERTEX
  8
MY3DLAYER
10
30.1200033905933
20
40.396446609426
30
-5.85759999999996
 70
     32
  0
VERTEX
  8
MY3DLAYER
10
30.01645
20
40.3169872981271
30
-5.85759999999996
 70
     32
  0
VERTEX
  8
MY3DLAYER
10
29.8958595225513
20
40.2670370868748
30
-5.85759999999996
 70
     32
  0
VERTEX
  8
MY3DLAYER
10
29.76645
20
40.2500000000193
30
-5.85759999999996
 70
     32
  0
VERTEX
  8
MY3DLAYER
10
29.6370404774487
20
40.2670370868748
30
-5.85759999999996
 70
     32
  0
VERTEX
  8
MY3DLAYER
10
29.51645
20
40.3169872981271
30
-5.85759999999996
 70
     32
  0
VERTEX
  8
MY3DLAYER
10
29.4128966094067
20
40.396446609426
30
-5.85759999999996
 70
     32
  0
VERTEX
  8
MY3DLAYER
10
29.3334372981078
20
40.5000000000193
30
-5.85759999999996
 70
     32
  0
VERTEX
  8
MY3DLAYER
10
29.2834870868555
20
40.6205904774681
30
-5.85759999999996
 70
     32
  0
VERTEX
  8
MY3DLAYER
10
29.26645
20
40.7500000000193
30
-5.85759999999996
 70
     32
  0
VERTEX
  8
MY3DLAYER
10
29.26645
20
41.2500000000193
30
-5.85759999999996
 70
     32
  0
VERTEX
  8
MY3DLAYER
10
29.2834870868555
20
41.3794095225706
30
-5.85759999999996
 70
     32
  0
VERTEX
  8
MY3DLAYER
10
29.3334372981078
20
41.5000000000193
30
-5.85759999999996
 70
     32
  0
VERTEX
  8
MY3DLAYER
10
29.4128966094067
20
41.6035533906126
30
-5.85759999999996
 70
     32
  0
VERTEX
  8
MY3DLAYER
10
29.51645
20
41.6830127019115
30
-5.85759999999996
 70
     32
  0
VERTEX
  8
MY3DLAYER
10
29.6370404774487
20
41.7329629131639
30
-5.85759999999996
 70
     32
  0
VERTEX
  8
MY3DLAYER
10
29.76645
20
41.7500000000193
30
-5.85759999999996
 70
     32
  0
VERTEX
  8
MY3DLAYER
10
29.8958595225513
20
41.7329629131639
30
-5.85759999999996
 70
     32
  0
VERTEX
  8
MY3DLAYER
10
30.01645
20
41.6830127019115
30
-5.85759999999996
 70
     32
  0
VERTEX
  8
MY3DLAYER
10
30.1200033905933
20
41.6035533906126
30
-5.85759999999996
 70
     32
  0
VERTEX
  8
MY3DLAYER
10
30.1994627018922
20
41.5000000000193
30
-5.85759999999996
 70
     32
  0
VERTEX
  8
MY3DLAYER
10
30.2494129131445
20
41.3794095225706
30
-5.85759999999996
 70
     32
  0
VERTEX
  8
MY3DLAYER
10
30.26645
20
41.2500000000193
30
-5.85759999999996
 70
     32
  0
SEQEND
  0
POLYLINE
 8
Layer0
 66
     1
70
    8
 10
0.0
 20
 0.0
 30
0.0
  0
VERTEX
  8
MY3DLAYER
10
30.26645
20
37.2500000000193
30
-5.85759999999996
 70
     32
  0
VERTEX
  8
MY3DLAYER
10
30.26645
20
36.7500000000193
30
-5.85759999999996
 70
     32
  0
VERTEX
  8
MY3DLAYER
10
30.2494129131445
20
36.6205904774681
30
-5.85759999999996
 70
     32
  0
VERTEX
  8
MY3DLAYER
10
30.1994627018922
20
36.5000000000193
30
-5.85759999999996
 70
     32
  0
VERTEX
  8
MY3DLAYER
10
30.1200033905933
20
36.396446609426
30
-5.85759999999996
 70
     32
  0
VERTEX
  8
MY3DLAYER
10
30.01645
20
36.3169872981271
30
-5.85759999999996
 70
     32
  0
VERTEX
  8
MY3DLAYER
10
29.8958595225513
20
36.2670370868748
30
-5.85759999999996
 70
     32
  0
VERTEX
  8
MY3DLAYER
10
29.76645
20
36.2500000000193
30
-5.85759999999996
 70
     32
  0
VERTEX
  8
MY3DLAYER
10
29.6370404774487
20
36.2670370868748
30
-5.85759999999996
 70
     32
  0
VERTEX
  8
MY3DLAYER
10
29.51645
20
36.3169872981271
30
-5.85759999999996
 70
     32
  0
VERTEX
  8
MY3DLAYER
10
29.4128966094067
20
36.396446609426
30
-5.85759999999996
 70
     32
  0
VERTEX
  8
MY3DLAYER
10
29.3334372981078
20
36.5000000000193
30
-5.85759999999996
 70
     32
  0
VERTEX
  8
MY3DLAYER
10
29.2834870868555
20
36.6205904774681
30
-5.85759999999996
 70
     32
  0
VERTEX
  8
MY3DLAYER
10
29.26645
20
36.7500000000193
30
-5.85759999999996
 70
     32
  0
VERTEX
  8
MY3DLAYER
10
29.26645
20
37.2500000000193
30
-5.85759999999996
 70
     32
  0
VERTEX
  8
MY3DLAYER
10
29.2834870868555
20
37.3794095225706
30
-5.85759999999996
 70
     32
  0
VERTEX
  8
MY3DLAYER
10
29.3334372981078
20
37.5000000000193
30
-5.85759999999996
 70
     32
  0
VERTEX
  8
MY3DLAYER
10
29.4128966094067
20
37.6035533906126
30
-5.85759999999996
 70
     32
  0
VERTEX
  8
MY3DLAYER
10
29.51645
20
37.6830127019115
30
-5.85759999999996
 70
     32
  0
VERTEX
  8
MY3DLAYER
10
29.6370404774487
20
37.7329629131639
30
-5.85759999999996
 70
     32
  0
VERTEX
  8
MY3DLAYER
10
29.76645
20
37.7500000000193
30
-5.85759999999996
 70
     32
  0
VERTEX
  8
MY3DLAYER
10
29.8958595225513
20
37.7329629131639
30
-5.85759999999996
 70
     32
  0
VERTEX
  8
MY3DLAYER
10
30.01645
20
37.6830127019115
30
-5.85759999999996
 70
     32
  0
VERTEX
  8
MY3DLAYER
10
30.1200033905933
20
37.6035533906126
30
-5.85759999999996
 70
     32
  0
VERTEX
  8
MY3DLAYER
10
30.1994627018922
20
37.5000000000193
30
-5.85759999999996
 70
     32
  0
VERTEX
  8
MY3DLAYER
10
30.2494129131445
20
37.3794095225706
30
-5.85759999999996
 70
     32
  0
VERTEX
  8
MY3DLAYER
10
30.26645
20
37.2500000000193
30
-5.85759999999996
 70
     32
  0
SEQEND
 0
ENDSEC
 0
EOF
