 0
SECTION
 2
ENTITIES
  0
POLYLINE
 8
Layer0
 66
     1
70
    8
 10
0.0
 20
 0.0
 30
0.0
  0
VERTEX
  8
MY3DLAYER
10
-106.386854123699
20
189.100543937214
30
0.0
 70
     32
  0
VERTEX
  8
MY3DLAYER
10
-98.3868541236986
20
189.100543937214
30
0.0
 70
     32
  0
VERTEX
  8
MY3DLAYER
10
-98.3868541236986
20
125.100543937214
30
0.0
 70
     32
  0
VERTEX
  8
MY3DLAYER
10
-106.386854123699
20
125.100543937214
30
0.0
 70
     32
  0
VERTEX
  8
MY3DLAYER
10
-106.386854123699
20
189.100543937214
30
0.0
 70
     32
  0
SEQEND
  0
POLYLINE
 8
Layer0
 66
     1
70
    8
 10
0.0
 20
 0.0
 30
0.0
  0
VERTEX
  8
MY3DLAYER
10
-99.843520846411
20
182.954958224344
30
0.0
 70
     32
  0
VERTEX
  8
MY3DLAYER
10
-99.8243541236986
20
183.100543937214
30
0.0
 70
     32
  0
VERTEX
  8
MY3DLAYER
10
-99.843520846411
20
183.246129650084
30
0.0
 70
     32
  0
VERTEX
  8
MY3DLAYER
10
-99.8997148340699
20
183.381793937214
30
0.0
 70
     32
  0
VERTEX
  8
MY3DLAYER
10
-99.9891065592812
20
183.498291501632
30
0.0
 70
     32
  0
VERTEX
  8
MY3DLAYER
10
-100.105604123699
20
183.587683226843
30
0.0
 70
     32
  0
VERTEX
  8
MY3DLAYER
10
-100.241268410828
20
183.643877214502
30
0.0
 70
     32
  0
VERTEX
  8
MY3DLAYER
10
-100.386854123699
20
183.663043937214
30
0.0
 70
     32
  0
VERTEX
  8
MY3DLAYER
10
-100.532439836569
20
183.643877214502
30
0.0
 70
     32
  0
VERTEX
  8
MY3DLAYER
10
-100.668104123699
20
183.587683226843
30
0.0
 70
     32
  0
VERTEX
  8
MY3DLAYER
10
-100.784601688116
20
183.498291501632
30
0.0
 70
     32
  0
VERTEX
  8
MY3DLAYER
10
-100.873993413327
20
183.381793937214
30
0.0
 70
     32
  0
VERTEX
  8
MY3DLAYER
10
-100.930187400986
20
183.246129650084
30
0.0
 70
     32
  0
VERTEX
  8
MY3DLAYER
10
-100.949354123699
20
183.100543937214
30
0.0
 70
     32
  0
VERTEX
  8
MY3DLAYER
10
-100.930187400986
20
182.954958224344
30
0.0
 70
     32
  0
VERTEX
  8
MY3DLAYER
10
-100.873993413327
20
182.819293937214
30
0.0
 70
     32
  0
VERTEX
  8
MY3DLAYER
10
-100.784601688116
20
182.702796372797
30
0.0
 70
     32
  0
VERTEX
  8
MY3DLAYER
10
-100.668104123699
20
182.613404647585
30
0.0
 70
     32
  0
VERTEX
  8
MY3DLAYER
10
-100.532439836569
20
182.557210659927
30
0.0
 70
     32
  0
VERTEX
  8
MY3DLAYER
10
-100.386854123699
20
182.538043937214
30
0.0
 70
     32
  0
VERTEX
  8
MY3DLAYER
10
-100.241268410828
20
182.557210659927
30
0.0
 70
     32
  0
VERTEX
  8
MY3DLAYER
10
-100.105604123699
20
182.613404647585
30
0.0
 70
     32
  0
VERTEX
  8
MY3DLAYER
10
-99.9891065592812
20
182.702796372797
30
0.0
 70
     32
  0
VERTEX
  8
MY3DLAYER
10
-99.8997148340699
20
182.819293937214
30
0.0
 70
     32
  0
VERTEX
  8
MY3DLAYER
10
-99.843520846411
20
182.954958224344
30
0.0
 70
     32
  0
SEQEND
  0
POLYLINE
 8
Layer0
 66
     1
70
    8
 10
0.0
 20
 0.0
 30
0.0
  0
VERTEX
  8
MY3DLAYER
10
-100.532439836569
20
174.557210659927
30
0.0
 70
     32
  0
VERTEX
  8
MY3DLAYER
10
-100.386854123699
20
174.538043937214
30
0.0
 70
     32
  0
VERTEX
  8
MY3DLAYER
10
-100.241268410828
20
174.557210659927
30
0.0
 70
     32
  0
VERTEX
  8
MY3DLAYER
10
-100.105604123699
20
174.613404647585
30
0.0
 70
     32
  0
VERTEX
  8
MY3DLAYER
10
-99.9891065592812
20
174.702796372797
30
0.0
 70
     32
  0
VERTEX
  8
MY3DLAYER
10
-99.8997148340699
20
174.819293937214
30
0.0
 70
     32
  0
VERTEX
  8
MY3DLAYER
10
-99.843520846411
20
174.954958224344
30
0.0
 70
     32
  0
VERTEX
  8
MY3DLAYER
10
-99.8243541236986
20
175.100543937214
30
0.0
 70
     32
  0
VERTEX
  8
MY3DLAYER
10
-99.843520846411
20
175.246129650084
30
0.0
 70
     32
  0
VERTEX
  8
MY3DLAYER
10
-99.8997148340699
20
175.381793937214
30
0.0
 70
     32
  0
VERTEX
  8
MY3DLAYER
10
-99.9891065592812
20
175.498291501632
30
0.0
 70
     32
  0
VERTEX
  8
MY3DLAYER
10
-100.105604123699
20
175.587683226843
30
0.0
 70
     32
  0
VERTEX
  8
MY3DLAYER
10
-100.241268410828
20
175.643877214502
30
0.0
 70
     32
  0
VERTEX
  8
MY3DLAYER
10
-100.386854123699
20
175.663043937214
30
0.0
 70
     32
  0
VERTEX
  8
MY3DLAYER
10
-100.532439836569
20
175.643877214502
30
0.0
 70
     32
  0
VERTEX
  8
MY3DLAYER
10
-100.668104123699
20
175.587683226843
30
0.0
 70
     32
  0
VERTEX
  8
MY3DLAYER
10
-100.784601688116
20
175.498291501632
30
0.0
 70
     32
  0
VERTEX
  8
MY3DLAYER
10
-100.873993413327
20
175.381793937214
30
0.0
 70
     32
  0
VERTEX
  8
MY3DLAYER
10
-100.930187400986
20
175.246129650084
30
0.0
 70
     32
  0
VERTEX
  8
MY3DLAYER
10
-100.949354123699
20
175.100543937214
30
0.0
 70
     32
  0
VERTEX
  8
MY3DLAYER
10
-100.930187400986
20
174.954958224344
30
0.0
 70
     32
  0
VERTEX
  8
MY3DLAYER
10
-100.873993413327
20
174.819293937214
30
0.0
 70
     32
  0
VERTEX
  8
MY3DLAYER
10
-100.784601688116
20
174.702796372797
30
0.0
 70
     32
  0
VERTEX
  8
MY3DLAYER
10
-100.668104123699
20
174.613404647585
30
0.0
 70
     32
  0
VERTEX
  8
MY3DLAYER
10
-100.532439836569
20
174.557210659927
30
0.0
 70
     32
  0
SEQEND
  0
POLYLINE
 8
Layer0
 66
     1
70
    8
 10
0.0
 20
 0.0
 30
0.0
  0
VERTEX
  8
MY3DLAYER
10
-99.843520846411
20
178.954958224344
30
0.0
 70
     32
  0
VERTEX
  8
MY3DLAYER
10
-99.8243541236986
20
179.100543937214
30
0.0
 70
     32
  0
VERTEX
  8
MY3DLAYER
10
-99.843520846411
20
179.246129650084
30
0.0
 70
     32
  0
VERTEX
  8
MY3DLAYER
10
-99.8997148340699
20
179.381793937214
30
0.0
 70
     32
  0
VERTEX
  8
MY3DLAYER
10
-99.9891065592812
20
179.498291501632
30
0.0
 70
     32
  0
VERTEX
  8
MY3DLAYER
10
-100.105604123699
20
179.587683226843
30
0.0
 70
     32
  0
VERTEX
  8
MY3DLAYER
10
-100.241268410828
20
179.643877214502
30
0.0
 70
     32
  0
VERTEX
  8
MY3DLAYER
10
-100.386854123699
20
179.663043937214
30
0.0
 70
     32
  0
VERTEX
  8
MY3DLAYER
10
-100.532439836569
20
179.643877214502
30
0.0
 70
     32
  0
VERTEX
  8
MY3DLAYER
10
-100.668104123699
20
179.587683226843
30
0.0
 70
     32
  0
VERTEX
  8
MY3DLAYER
10
-100.784601688116
20
179.498291501632
30
0.0
 70
     32
  0
VERTEX
  8
MY3DLAYER
10
-100.873993413327
20
179.381793937214
30
0.0
 70
     32
  0
VERTEX
  8
MY3DLAYER
10
-100.930187400986
20
179.246129650084
30
0.0
 70
     32
  0
VERTEX
  8
MY3DLAYER
10
-100.949354123699
20
179.100543937214
30
0.0
 70
     32
  0
VERTEX
  8
MY3DLAYER
10
-100.930187400986
20
178.954958224344
30
0.0
 70
     32
  0
VERTEX
  8
MY3DLAYER
10
-100.873993413327
20
178.819293937214
30
0.0
 70
     32
  0
VERTEX
  8
MY3DLAYER
10
-100.784601688116
20
178.702796372797
30
0.0
 70
     32
  0
VERTEX
  8
MY3DLAYER
10
-100.668104123699
20
178.613404647585
30
0.0
 70
     32
  0
VERTEX
  8
MY3DLAYER
10
-100.532439836569
20
178.557210659927
30
0.0
 70
     32
  0
VERTEX
  8
MY3DLAYER
10
-100.386854123699
20
178.538043937214
30
0.0
 70
     32
  0
VERTEX
  8
MY3DLAYER
10
-100.241268410828
20
178.557210659927
30
0.0
 70
     32
  0
VERTEX
  8
MY3DLAYER
10
-100.105604123699
20
178.613404647585
30
0.0
 70
     32
  0
VERTEX
  8
MY3DLAYER
10
-99.9891065592812
20
178.702796372797
30
0.0
 70
     32
  0
VERTEX
  8
MY3DLAYER
10
-99.8997148340699
20
178.819293937214
30
0.0
 70
     32
  0
VERTEX
  8
MY3DLAYER
10
-99.843520846411
20
178.954958224344
30
0.0
 70
     32
  0
SEQEND
  0
POLYLINE
 8
Layer0
 66
     1
70
    8
 10
0.0
 20
 0.0
 30
0.0
  0
VERTEX
  8
MY3DLAYER
10
-99.843520846411
20
186.954958224344
30
0.0
 70
     32
  0
VERTEX
  8
MY3DLAYER
10
-99.8243541236986
20
187.100543937214
30
0.0
 70
     32
  0
VERTEX
  8
MY3DLAYER
10
-99.843520846411
20
187.246129650084
30
0.0
 70
     32
  0
VERTEX
  8
MY3DLAYER
10
-99.8997148340699
20
187.381793937214
30
0.0
 70
     32
  0
VERTEX
  8
MY3DLAYER
10
-99.9891065592812
20
187.498291501632
30
0.0
 70
     32
  0
VERTEX
  8
MY3DLAYER
10
-100.105604123699
20
187.587683226843
30
0.0
 70
     32
  0
VERTEX
  8
MY3DLAYER
10
-100.241268410828
20
187.643877214502
30
0.0
 70
     32
  0
VERTEX
  8
MY3DLAYER
10
-100.386854123699
20
187.663043937214
30
0.0
 70
     32
  0
VERTEX
  8
MY3DLAYER
10
-100.532439836569
20
187.643877214502
30
0.0
 70
     32
  0
VERTEX
  8
MY3DLAYER
10
-100.668104123699
20
187.587683226843
30
0.0
 70
     32
  0
VERTEX
  8
MY3DLAYER
10
-100.784601688116
20
187.498291501632
30
0.0
 70
     32
  0
VERTEX
  8
MY3DLAYER
10
-100.873993413327
20
187.381793937214
30
0.0
 70
     32
  0
VERTEX
  8
MY3DLAYER
10
-100.930187400986
20
187.246129650084
30
0.0
 70
     32
  0
VERTEX
  8
MY3DLAYER
10
-100.949354123699
20
187.100543937214
30
0.0
 70
     32
  0
VERTEX
  8
MY3DLAYER
10
-100.930187400986
20
186.954958224344
30
0.0
 70
     32
  0
VERTEX
  8
MY3DLAYER
10
-100.873993413327
20
186.819293937214
30
0.0
 70
     32
  0
VERTEX
  8
MY3DLAYER
10
-100.784601688116
20
186.702796372797
30
0.0
 70
     32
  0
VERTEX
  8
MY3DLAYER
10
-100.668104123699
20
186.613404647585
30
0.0
 70
     32
  0
VERTEX
  8
MY3DLAYER
10
-100.532439836569
20
186.557210659927
30
0.0
 70
     32
  0
VERTEX
  8
MY3DLAYER
10
-100.386854123699
20
186.538043937214
30
0.0
 70
     32
  0
VERTEX
  8
MY3DLAYER
10
-100.241268410828
20
186.557210659927
30
0.0
 70
     32
  0
VERTEX
  8
MY3DLAYER
10
-100.105604123699
20
186.613404647585
30
0.0
 70
     32
  0
VERTEX
  8
MY3DLAYER
10
-99.9891065592812
20
186.702796372797
30
0.0
 70
     32
  0
VERTEX
  8
MY3DLAYER
10
-99.8997148340699
20
186.819293937214
30
0.0
 70
     32
  0
VERTEX
  8
MY3DLAYER
10
-99.843520846411
20
186.954958224344
30
0.0
 70
     32
  0
SEQEND
  0
POLYLINE
 8
Layer0
 66
     1
70
    8
 10
0.0
 20
 0.0
 30
0.0
  0
VERTEX
  8
MY3DLAYER
10
-103.824354123699
20
187.100543937214
30
0.0
 70
     32
  0
VERTEX
  8
MY3DLAYER
10
-103.843520846411
20
187.246129650084
30
0.0
 70
     32
  0
VERTEX
  8
MY3DLAYER
10
-103.89971483407
20
187.381793937214
30
0.0
 70
     32
  0
VERTEX
  8
MY3DLAYER
10
-103.989106559281
20
187.498291501632
30
0.0
 70
     32
  0
VERTEX
  8
MY3DLAYER
10
-104.105604123699
20
187.587683226843
30
0.0
 70
     32
  0
VERTEX
  8
MY3DLAYER
10
-104.241268410828
20
187.643877214502
30
0.0
 70
     32
  0
VERTEX
  8
MY3DLAYER
10
-104.386854123699
20
187.663043937214
30
0.0
 70
     32
  0
VERTEX
  8
MY3DLAYER
10
-104.532439836569
20
187.643877214502
30
0.0
 70
     32
  0
VERTEX
  8
MY3DLAYER
10
-104.668104123699
20
187.587683226843
30
0.0
 70
     32
  0
VERTEX
  8
MY3DLAYER
10
-104.784601688116
20
187.498291501632
30
0.0
 70
     32
  0
VERTEX
  8
MY3DLAYER
10
-104.873993413327
20
187.381793937214
30
0.0
 70
     32
  0
VERTEX
  8
MY3DLAYER
10
-104.930187400986
20
187.246129650084
30
0.0
 70
     32
  0
VERTEX
  8
MY3DLAYER
10
-104.949354123699
20
187.100543937214
30
0.0
 70
     32
  0
VERTEX
  8
MY3DLAYER
10
-104.930187400986
20
186.954958224344
30
0.0
 70
     32
  0
VERTEX
  8
MY3DLAYER
10
-104.873993413327
20
186.819293937214
30
0.0
 70
     32
  0
VERTEX
  8
MY3DLAYER
10
-104.784601688116
20
186.702796372797
30
0.0
 70
     32
  0
VERTEX
  8
MY3DLAYER
10
-104.668104123699
20
186.613404647585
30
0.0
 70
     32
  0
VERTEX
  8
MY3DLAYER
10
-104.532439836569
20
186.557210659927
30
0.0
 70
     32
  0
VERTEX
  8
MY3DLAYER
10
-104.386854123699
20
186.538043937214
30
0.0
 70
     32
  0
VERTEX
  8
MY3DLAYER
10
-104.241268410828
20
186.557210659927
30
0.0
 70
     32
  0
VERTEX
  8
MY3DLAYER
10
-104.105604123699
20
186.613404647585
30
0.0
 70
     32
  0
VERTEX
  8
MY3DLAYER
10
-103.989106559281
20
186.702796372797
30
0.0
 70
     32
  0
VERTEX
  8
MY3DLAYER
10
-103.89971483407
20
186.819293937214
30
0.0
 70
     32
  0
VERTEX
  8
MY3DLAYER
10
-103.843520846411
20
186.954958224344
30
0.0
 70
     32
  0
VERTEX
  8
MY3DLAYER
10
-103.824354123699
20
187.100543937214
30
0.0
 70
     32
  0
SEQEND
  0
POLYLINE
 8
Layer0
 66
     1
70
    8
 10
0.0
 20
 0.0
 30
0.0
  0
VERTEX
  8
MY3DLAYER
10
-103.824354123699
20
183.100543937214
30
0.0
 70
     32
  0
VERTEX
  8
MY3DLAYER
10
-103.843520846411
20
183.246129650084
30
0.0
 70
     32
  0
VERTEX
  8
MY3DLAYER
10
-103.89971483407
20
183.381793937214
30
0.0
 70
     32
  0
VERTEX
  8
MY3DLAYER
10
-103.989106559281
20
183.498291501632
30
0.0
 70
     32
  0
VERTEX
  8
MY3DLAYER
10
-104.105604123699
20
183.587683226843
30
0.0
 70
     32
  0
VERTEX
  8
MY3DLAYER
10
-104.241268410828
20
183.643877214502
30
0.0
 70
     32
  0
VERTEX
  8
MY3DLAYER
10
-104.386854123699
20
183.663043937214
30
0.0
 70
     32
  0
VERTEX
  8
MY3DLAYER
10
-104.532439836569
20
183.643877214502
30
0.0
 70
     32
  0
VERTEX
  8
MY3DLAYER
10
-104.668104123699
20
183.587683226843
30
0.0
 70
     32
  0
VERTEX
  8
MY3DLAYER
10
-104.784601688116
20
183.498291501632
30
0.0
 70
     32
  0
VERTEX
  8
MY3DLAYER
10
-104.873993413327
20
183.381793937214
30
0.0
 70
     32
  0
VERTEX
  8
MY3DLAYER
10
-104.930187400986
20
183.246129650084
30
0.0
 70
     32
  0
VERTEX
  8
MY3DLAYER
10
-104.949354123699
20
183.100543937214
30
0.0
 70
     32
  0
VERTEX
  8
MY3DLAYER
10
-104.930187400986
20
182.954958224344
30
0.0
 70
     32
  0
VERTEX
  8
MY3DLAYER
10
-104.873993413327
20
182.819293937214
30
0.0
 70
     32
  0
VERTEX
  8
MY3DLAYER
10
-104.784601688116
20
182.702796372797
30
0.0
 70
     32
  0
VERTEX
  8
MY3DLAYER
10
-104.668104123699
20
182.613404647585
30
0.0
 70
     32
  0
VERTEX
  8
MY3DLAYER
10
-104.532439836569
20
182.557210659927
30
0.0
 70
     32
  0
VERTEX
  8
MY3DLAYER
10
-104.386854123699
20
182.538043937214
30
0.0
 70
     32
  0
VERTEX
  8
MY3DLAYER
10
-104.241268410828
20
182.557210659927
30
0.0
 70
     32
  0
VERTEX
  8
MY3DLAYER
10
-104.105604123699
20
182.613404647585
30
0.0
 70
     32
  0
VERTEX
  8
MY3DLAYER
10
-103.989106559281
20
182.702796372797
30
0.0
 70
     32
  0
VERTEX
  8
MY3DLAYER
10
-103.89971483407
20
182.819293937214
30
0.0
 70
     32
  0
VERTEX
  8
MY3DLAYER
10
-103.843520846411
20
182.954958224344
30
0.0
 70
     32
  0
VERTEX
  8
MY3DLAYER
10
-103.824354123699
20
183.100543937214
30
0.0
 70
     32
  0
SEQEND
  0
POLYLINE
 8
Layer0
 66
     1
70
    8
 10
0.0
 20
 0.0
 30
0.0
  0
VERTEX
  8
MY3DLAYER
10
-103.824354123699
20
179.100543937214
30
0.0
 70
     32
  0
VERTEX
  8
MY3DLAYER
10
-103.843520846411
20
179.246129650084
30
0.0
 70
     32
  0
VERTEX
  8
MY3DLAYER
10
-103.89971483407
20
179.381793937214
30
0.0
 70
     32
  0
VERTEX
  8
MY3DLAYER
10
-103.989106559281
20
179.498291501632
30
0.0
 70
     32
  0
VERTEX
  8
MY3DLAYER
10
-104.105604123699
20
179.587683226843
30
0.0
 70
     32
  0
VERTEX
  8
MY3DLAYER
10
-104.241268410828
20
179.643877214502
30
0.0
 70
     32
  0
VERTEX
  8
MY3DLAYER
10
-104.386854123699
20
179.663043937214
30
0.0
 70
     32
  0
VERTEX
  8
MY3DLAYER
10
-104.532439836569
20
179.643877214502
30
0.0
 70
     32
  0
VERTEX
  8
MY3DLAYER
10
-104.668104123699
20
179.587683226843
30
0.0
 70
     32
  0
VERTEX
  8
MY3DLAYER
10
-104.784601688116
20
179.498291501632
30
0.0
 70
     32
  0
VERTEX
  8
MY3DLAYER
10
-104.873993413327
20
179.381793937214
30
0.0
 70
     32
  0
VERTEX
  8
MY3DLAYER
10
-104.930187400986
20
179.246129650084
30
0.0
 70
     32
  0
VERTEX
  8
MY3DLAYER
10
-104.949354123699
20
179.100543937214
30
0.0
 70
     32
  0
VERTEX
  8
MY3DLAYER
10
-104.930187400986
20
178.954958224344
30
0.0
 70
     32
  0
VERTEX
  8
MY3DLAYER
10
-104.873993413327
20
178.819293937214
30
0.0
 70
     32
  0
VERTEX
  8
MY3DLAYER
10
-104.784601688116
20
178.702796372797
30
0.0
 70
     32
  0
VERTEX
  8
MY3DLAYER
10
-104.668104123699
20
178.613404647585
30
0.0
 70
     32
  0
VERTEX
  8
MY3DLAYER
10
-104.532439836569
20
178.557210659927
30
0.0
 70
     32
  0
VERTEX
  8
MY3DLAYER
10
-104.386854123699
20
178.538043937214
30
0.0
 70
     32
  0
VERTEX
  8
MY3DLAYER
10
-104.241268410828
20
178.557210659927
30
0.0
 70
     32
  0
VERTEX
  8
MY3DLAYER
10
-104.105604123699
20
178.613404647585
30
0.0
 70
     32
  0
VERTEX
  8
MY3DLAYER
10
-103.989106559281
20
178.702796372797
30
0.0
 70
     32
  0
VERTEX
  8
MY3DLAYER
10
-103.89971483407
20
178.819293937214
30
0.0
 70
     32
  0
VERTEX
  8
MY3DLAYER
10
-103.843520846411
20
178.954958224344
30
0.0
 70
     32
  0
VERTEX
  8
MY3DLAYER
10
-103.824354123699
20
179.100543937214
30
0.0
 70
     32
  0
SEQEND
  0
POLYLINE
 8
Layer0
 66
     1
70
    8
 10
0.0
 20
 0.0
 30
0.0
  0
VERTEX
  8
MY3DLAYER
10
-103.824354123699
20
175.100543937214
30
0.0
 70
     32
  0
VERTEX
  8
MY3DLAYER
10
-103.843520846411
20
175.246129650084
30
0.0
 70
     32
  0
VERTEX
  8
MY3DLAYER
10
-103.89971483407
20
175.381793937214
30
0.0
 70
     32
  0
VERTEX
  8
MY3DLAYER
10
-103.989106559281
20
175.498291501632
30
0.0
 70
     32
  0
VERTEX
  8
MY3DLAYER
10
-104.105604123699
20
175.587683226843
30
0.0
 70
     32
  0
VERTEX
  8
MY3DLAYER
10
-104.241268410828
20
175.643877214502
30
0.0
 70
     32
  0
VERTEX
  8
MY3DLAYER
10
-104.386854123699
20
175.663043937214
30
0.0
 70
     32
  0
VERTEX
  8
MY3DLAYER
10
-104.532439836569
20
175.643877214502
30
0.0
 70
     32
  0
VERTEX
  8
MY3DLAYER
10
-104.668104123699
20
175.587683226843
30
0.0
 70
     32
  0
VERTEX
  8
MY3DLAYER
10
-104.784601688116
20
175.498291501632
30
0.0
 70
     32
  0
VERTEX
  8
MY3DLAYER
10
-104.873993413327
20
175.381793937214
30
0.0
 70
     32
  0
VERTEX
  8
MY3DLAYER
10
-104.930187400986
20
175.246129650084
30
0.0
 70
     32
  0
VERTEX
  8
MY3DLAYER
10
-104.949354123699
20
175.100543937214
30
0.0
 70
     32
  0
VERTEX
  8
MY3DLAYER
10
-104.930187400986
20
174.954958224344
30
0.0
 70
     32
  0
VERTEX
  8
MY3DLAYER
10
-104.873993413327
20
174.819293937214
30
0.0
 70
     32
  0
VERTEX
  8
MY3DLAYER
10
-104.784601688116
20
174.702796372797
30
0.0
 70
     32
  0
VERTEX
  8
MY3DLAYER
10
-104.668104123699
20
174.613404647585
30
0.0
 70
     32
  0
VERTEX
  8
MY3DLAYER
10
-104.532439836569
20
174.557210659927
30
0.0
 70
     32
  0
VERTEX
  8
MY3DLAYER
10
-104.386854123699
20
174.538043937214
30
0.0
 70
     32
  0
VERTEX
  8
MY3DLAYER
10
-104.241268410828
20
174.557210659927
30
0.0
 70
     32
  0
VERTEX
  8
MY3DLAYER
10
-104.105604123699
20
174.613404647585
30
0.0
 70
     32
  0
VERTEX
  8
MY3DLAYER
10
-103.989106559281
20
174.702796372797
30
0.0
 70
     32
  0
VERTEX
  8
MY3DLAYER
10
-103.89971483407
20
174.819293937214
30
0.0
 70
     32
  0
VERTEX
  8
MY3DLAYER
10
-103.843520846411
20
174.954958224344
30
0.0
 70
     32
  0
VERTEX
  8
MY3DLAYER
10
-103.824354123699
20
175.100543937214
30
0.0
 70
     32
  0
SEQEND
  0
POLYLINE
 8
Layer0
 66
     1
70
    8
 10
0.0
 20
 0.0
 30
0.0
  0
VERTEX
  8
MY3DLAYER
10
-99.843520846411
20
166.954958224344
30
0.0
 70
     32
  0
VERTEX
  8
MY3DLAYER
10
-99.8243541236986
20
167.100543937214
30
0.0
 70
     32
  0
VERTEX
  8
MY3DLAYER
10
-99.843520846411
20
167.246129650084
30
0.0
 70
     32
  0
VERTEX
  8
MY3DLAYER
10
-99.8997148340699
20
167.381793937214
30
0.0
 70
     32
  0
VERTEX
  8
MY3DLAYER
10
-99.9891065592812
20
167.498291501632
30
0.0
 70
     32
  0
VERTEX
  8
MY3DLAYER
10
-100.105604123699
20
167.587683226843
30
0.0
 70
     32
  0
VERTEX
  8
MY3DLAYER
10
-100.241268410828
20
167.643877214502
30
0.0
 70
     32
  0
VERTEX
  8
MY3DLAYER
10
-100.386854123699
20
167.663043937214
30
0.0
 70
     32
  0
VERTEX
  8
MY3DLAYER
10
-100.532439836569
20
167.643877214502
30
0.0
 70
     32
  0
VERTEX
  8
MY3DLAYER
10
-100.668104123699
20
167.587683226843
30
0.0
 70
     32
  0
VERTEX
  8
MY3DLAYER
10
-100.784601688116
20
167.498291501632
30
0.0
 70
     32
  0
VERTEX
  8
MY3DLAYER
10
-100.873993413327
20
167.381793937214
30
0.0
 70
     32
  0
VERTEX
  8
MY3DLAYER
10
-100.930187400986
20
167.246129650084
30
0.0
 70
     32
  0
VERTEX
  8
MY3DLAYER
10
-100.949354123699
20
167.100543937214
30
0.0
 70
     32
  0
VERTEX
  8
MY3DLAYER
10
-100.930187400986
20
166.954958224344
30
0.0
 70
     32
  0
VERTEX
  8
MY3DLAYER
10
-100.873993413327
20
166.819293937214
30
0.0
 70
     32
  0
VERTEX
  8
MY3DLAYER
10
-100.784601688116
20
166.702796372797
30
0.0
 70
     32
  0
VERTEX
  8
MY3DLAYER
10
-100.668104123699
20
166.613404647585
30
0.0
 70
     32
  0
VERTEX
  8
MY3DLAYER
10
-100.532439836569
20
166.557210659927
30
0.0
 70
     32
  0
VERTEX
  8
MY3DLAYER
10
-100.386854123699
20
166.538043937214
30
0.0
 70
     32
  0
VERTEX
  8
MY3DLAYER
10
-100.241268410828
20
166.557210659927
30
0.0
 70
     32
  0
VERTEX
  8
MY3DLAYER
10
-100.105604123699
20
166.613404647585
30
0.0
 70
     32
  0
VERTEX
  8
MY3DLAYER
10
-99.9891065592812
20
166.702796372797
30
0.0
 70
     32
  0
VERTEX
  8
MY3DLAYER
10
-99.8997148340699
20
166.819293937214
30
0.0
 70
     32
  0
VERTEX
  8
MY3DLAYER
10
-99.843520846411
20
166.954958224344
30
0.0
 70
     32
  0
SEQEND
  0
POLYLINE
 8
Layer0
 66
     1
70
    8
 10
0.0
 20
 0.0
 30
0.0
  0
VERTEX
  8
MY3DLAYER
10
-100.532439836569
20
158.557210659927
30
0.0
 70
     32
  0
VERTEX
  8
MY3DLAYER
10
-100.386854123699
20
158.538043937214
30
0.0
 70
     32
  0
VERTEX
  8
MY3DLAYER
10
-100.241268410828
20
158.557210659927
30
0.0
 70
     32
  0
VERTEX
  8
MY3DLAYER
10
-100.105604123699
20
158.613404647585
30
0.0
 70
     32
  0
VERTEX
  8
MY3DLAYER
10
-99.9891065592812
20
158.702796372797
30
0.0
 70
     32
  0
VERTEX
  8
MY3DLAYER
10
-99.8997148340699
20
158.819293937214
30
0.0
 70
     32
  0
VERTEX
  8
MY3DLAYER
10
-99.843520846411
20
158.954958224344
30
0.0
 70
     32
  0
VERTEX
  8
MY3DLAYER
10
-99.8243541236986
20
159.100543937214
30
0.0
 70
     32
  0
VERTEX
  8
MY3DLAYER
10
-99.843520846411
20
159.246129650084
30
0.0
 70
     32
  0
VERTEX
  8
MY3DLAYER
10
-99.8997148340699
20
159.381793937214
30
0.0
 70
     32
  0
VERTEX
  8
MY3DLAYER
10
-99.9891065592812
20
159.498291501632
30
0.0
 70
     32
  0
VERTEX
  8
MY3DLAYER
10
-100.105604123699
20
159.587683226843
30
0.0
 70
     32
  0
VERTEX
  8
MY3DLAYER
10
-100.241268410828
20
159.643877214502
30
0.0
 70
     32
  0
VERTEX
  8
MY3DLAYER
10
-100.386854123699
20
159.663043937214
30
0.0
 70
     32
  0
VERTEX
  8
MY3DLAYER
10
-100.532439836569
20
159.643877214502
30
0.0
 70
     32
  0
VERTEX
  8
MY3DLAYER
10
-100.668104123699
20
159.587683226843
30
0.0
 70
     32
  0
VERTEX
  8
MY3DLAYER
10
-100.784601688116
20
159.498291501632
30
0.0
 70
     32
  0
VERTEX
  8
MY3DLAYER
10
-100.873993413327
20
159.381793937214
30
0.0
 70
     32
  0
VERTEX
  8
MY3DLAYER
10
-100.930187400986
20
159.246129650084
30
0.0
 70
     32
  0
VERTEX
  8
MY3DLAYER
10
-100.949354123699
20
159.100543937214
30
0.0
 70
     32
  0
VERTEX
  8
MY3DLAYER
10
-100.930187400986
20
158.954958224344
30
0.0
 70
     32
  0
VERTEX
  8
MY3DLAYER
10
-100.873993413327
20
158.819293937214
30
0.0
 70
     32
  0
VERTEX
  8
MY3DLAYER
10
-100.784601688116
20
158.702796372797
30
0.0
 70
     32
  0
VERTEX
  8
MY3DLAYER
10
-100.668104123699
20
158.613404647585
30
0.0
 70
     32
  0
VERTEX
  8
MY3DLAYER
10
-100.532439836569
20
158.557210659927
30
0.0
 70
     32
  0
SEQEND
  0
POLYLINE
 8
Layer0
 66
     1
70
    8
 10
0.0
 20
 0.0
 30
0.0
  0
VERTEX
  8
MY3DLAYER
10
-99.843520846411
20
162.954958224344
30
0.0
 70
     32
  0
VERTEX
  8
MY3DLAYER
10
-99.8243541236986
20
163.100543937214
30
0.0
 70
     32
  0
VERTEX
  8
MY3DLAYER
10
-99.843520846411
20
163.246129650084
30
0.0
 70
     32
  0
VERTEX
  8
MY3DLAYER
10
-99.8997148340699
20
163.381793937214
30
0.0
 70
     32
  0
VERTEX
  8
MY3DLAYER
10
-99.9891065592812
20
163.498291501632
30
0.0
 70
     32
  0
VERTEX
  8
MY3DLAYER
10
-100.105604123699
20
163.587683226843
30
0.0
 70
     32
  0
VERTEX
  8
MY3DLAYER
10
-100.241268410828
20
163.643877214502
30
0.0
 70
     32
  0
VERTEX
  8
MY3DLAYER
10
-100.386854123699
20
163.663043937214
30
0.0
 70
     32
  0
VERTEX
  8
MY3DLAYER
10
-100.532439836569
20
163.643877214502
30
0.0
 70
     32
  0
VERTEX
  8
MY3DLAYER
10
-100.668104123699
20
163.587683226843
30
0.0
 70
     32
  0
VERTEX
  8
MY3DLAYER
10
-100.784601688116
20
163.498291501632
30
0.0
 70
     32
  0
VERTEX
  8
MY3DLAYER
10
-100.873993413327
20
163.381793937214
30
0.0
 70
     32
  0
VERTEX
  8
MY3DLAYER
10
-100.930187400986
20
163.246129650084
30
0.0
 70
     32
  0
VERTEX
  8
MY3DLAYER
10
-100.949354123699
20
163.100543937214
30
0.0
 70
     32
  0
VERTEX
  8
MY3DLAYER
10
-100.930187400986
20
162.954958224344
30
0.0
 70
     32
  0
VERTEX
  8
MY3DLAYER
10
-100.873993413327
20
162.819293937214
30
0.0
 70
     32
  0
VERTEX
  8
MY3DLAYER
10
-100.784601688116
20
162.702796372797
30
0.0
 70
     32
  0
VERTEX
  8
MY3DLAYER
10
-100.668104123699
20
162.613404647585
30
0.0
 70
     32
  0
VERTEX
  8
MY3DLAYER
10
-100.532439836569
20
162.557210659927
30
0.0
 70
     32
  0
VERTEX
  8
MY3DLAYER
10
-100.386854123699
20
162.538043937214
30
0.0
 70
     32
  0
VERTEX
  8
MY3DLAYER
10
-100.241268410828
20
162.557210659927
30
0.0
 70
     32
  0
VERTEX
  8
MY3DLAYER
10
-100.105604123699
20
162.613404647585
30
0.0
 70
     32
  0
VERTEX
  8
MY3DLAYER
10
-99.9891065592812
20
162.702796372797
30
0.0
 70
     32
  0
VERTEX
  8
MY3DLAYER
10
-99.8997148340699
20
162.819293937214
30
0.0
 70
     32
  0
VERTEX
  8
MY3DLAYER
10
-99.843520846411
20
162.954958224344
30
0.0
 70
     32
  0
SEQEND
  0
POLYLINE
 8
Layer0
 66
     1
70
    8
 10
0.0
 20
 0.0
 30
0.0
  0
VERTEX
  8
MY3DLAYER
10
-99.843520846411
20
170.954958224344
30
0.0
 70
     32
  0
VERTEX
  8
MY3DLAYER
10
-99.8243541236986
20
171.100543937214
30
0.0
 70
     32
  0
VERTEX
  8
MY3DLAYER
10
-99.843520846411
20
171.246129650084
30
0.0
 70
     32
  0
VERTEX
  8
MY3DLAYER
10
-99.8997148340699
20
171.381793937214
30
0.0
 70
     32
  0
VERTEX
  8
MY3DLAYER
10
-99.9891065592812
20
171.498291501632
30
0.0
 70
     32
  0
VERTEX
  8
MY3DLAYER
10
-100.105604123699
20
171.587683226843
30
0.0
 70
     32
  0
VERTEX
  8
MY3DLAYER
10
-100.241268410828
20
171.643877214502
30
0.0
 70
     32
  0
VERTEX
  8
MY3DLAYER
10
-100.386854123699
20
171.663043937214
30
0.0
 70
     32
  0
VERTEX
  8
MY3DLAYER
10
-100.532439836569
20
171.643877214502
30
0.0
 70
     32
  0
VERTEX
  8
MY3DLAYER
10
-100.668104123699
20
171.587683226843
30
0.0
 70
     32
  0
VERTEX
  8
MY3DLAYER
10
-100.784601688116
20
171.498291501632
30
0.0
 70
     32
  0
VERTEX
  8
MY3DLAYER
10
-100.873993413327
20
171.381793937214
30
0.0
 70
     32
  0
VERTEX
  8
MY3DLAYER
10
-100.930187400986
20
171.246129650084
30
0.0
 70
     32
  0
VERTEX
  8
MY3DLAYER
10
-100.949354123699
20
171.100543937214
30
0.0
 70
     32
  0
VERTEX
  8
MY3DLAYER
10
-100.930187400986
20
170.954958224344
30
0.0
 70
     32
  0
VERTEX
  8
MY3DLAYER
10
-100.873993413327
20
170.819293937214
30
0.0
 70
     32
  0
VERTEX
  8
MY3DLAYER
10
-100.784601688116
20
170.702796372797
30
0.0
 70
     32
  0
VERTEX
  8
MY3DLAYER
10
-100.668104123699
20
170.613404647585
30
0.0
 70
     32
  0
VERTEX
  8
MY3DLAYER
10
-100.532439836569
20
170.557210659927
30
0.0
 70
     32
  0
VERTEX
  8
MY3DLAYER
10
-100.386854123699
20
170.538043937214
30
0.0
 70
     32
  0
VERTEX
  8
MY3DLAYER
10
-100.241268410828
20
170.557210659927
30
0.0
 70
     32
  0
VERTEX
  8
MY3DLAYER
10
-100.105604123699
20
170.613404647585
30
0.0
 70
     32
  0
VERTEX
  8
MY3DLAYER
10
-99.9891065592812
20
170.702796372797
30
0.0
 70
     32
  0
VERTEX
  8
MY3DLAYER
10
-99.8997148340699
20
170.819293937214
30
0.0
 70
     32
  0
VERTEX
  8
MY3DLAYER
10
-99.843520846411
20
170.954958224344
30
0.0
 70
     32
  0
SEQEND
  0
POLYLINE
 8
Layer0
 66
     1
70
    8
 10
0.0
 20
 0.0
 30
0.0
  0
VERTEX
  8
MY3DLAYER
10
-103.824354123699
20
171.100543937214
30
0.0
 70
     32
  0
VERTEX
  8
MY3DLAYER
10
-103.843520846411
20
171.246129650084
30
0.0
 70
     32
  0
VERTEX
  8
MY3DLAYER
10
-103.89971483407
20
171.381793937214
30
0.0
 70
     32
  0
VERTEX
  8
MY3DLAYER
10
-103.989106559281
20
171.498291501632
30
0.0
 70
     32
  0
VERTEX
  8
MY3DLAYER
10
-104.105604123699
20
171.587683226843
30
0.0
 70
     32
  0
VERTEX
  8
MY3DLAYER
10
-104.241268410828
20
171.643877214502
30
0.0
 70
     32
  0
VERTEX
  8
MY3DLAYER
10
-104.386854123699
20
171.663043937214
30
0.0
 70
     32
  0
VERTEX
  8
MY3DLAYER
10
-104.532439836569
20
171.643877214502
30
0.0
 70
     32
  0
VERTEX
  8
MY3DLAYER
10
-104.668104123699
20
171.587683226843
30
0.0
 70
     32
  0
VERTEX
  8
MY3DLAYER
10
-104.784601688116
20
171.498291501632
30
0.0
 70
     32
  0
VERTEX
  8
MY3DLAYER
10
-104.873993413327
20
171.381793937214
30
0.0
 70
     32
  0
VERTEX
  8
MY3DLAYER
10
-104.930187400986
20
171.246129650084
30
0.0
 70
     32
  0
VERTEX
  8
MY3DLAYER
10
-104.949354123699
20
171.100543937214
30
0.0
 70
     32
  0
VERTEX
  8
MY3DLAYER
10
-104.930187400986
20
170.954958224344
30
0.0
 70
     32
  0
VERTEX
  8
MY3DLAYER
10
-104.873993413327
20
170.819293937214
30
0.0
 70
     32
  0
VERTEX
  8
MY3DLAYER
10
-104.784601688116
20
170.702796372797
30
0.0
 70
     32
  0
VERTEX
  8
MY3DLAYER
10
-104.668104123699
20
170.613404647585
30
0.0
 70
     32
  0
VERTEX
  8
MY3DLAYER
10
-104.532439836569
20
170.557210659927
30
0.0
 70
     32
  0
VERTEX
  8
MY3DLAYER
10
-104.386854123699
20
170.538043937214
30
0.0
 70
     32
  0
VERTEX
  8
MY3DLAYER
10
-104.241268410828
20
170.557210659927
30
0.0
 70
     32
  0
VERTEX
  8
MY3DLAYER
10
-104.105604123699
20
170.613404647585
30
0.0
 70
     32
  0
VERTEX
  8
MY3DLAYER
10
-103.989106559281
20
170.702796372797
30
0.0
 70
     32
  0
VERTEX
  8
MY3DLAYER
10
-103.89971483407
20
170.819293937214
30
0.0
 70
     32
  0
VERTEX
  8
MY3DLAYER
10
-103.843520846411
20
170.954958224344
30
0.0
 70
     32
  0
VERTEX
  8
MY3DLAYER
10
-103.824354123699
20
171.100543937214
30
0.0
 70
     32
  0
SEQEND
  0
POLYLINE
 8
Layer0
 66
     1
70
    8
 10
0.0
 20
 0.0
 30
0.0
  0
VERTEX
  8
MY3DLAYER
10
-103.824354123699
20
167.100543937214
30
0.0
 70
     32
  0
VERTEX
  8
MY3DLAYER
10
-103.843520846411
20
167.246129650084
30
0.0
 70
     32
  0
VERTEX
  8
MY3DLAYER
10
-103.89971483407
20
167.381793937214
30
0.0
 70
     32
  0
VERTEX
  8
MY3DLAYER
10
-103.989106559281
20
167.498291501632
30
0.0
 70
     32
  0
VERTEX
  8
MY3DLAYER
10
-104.105604123699
20
167.587683226843
30
0.0
 70
     32
  0
VERTEX
  8
MY3DLAYER
10
-104.241268410828
20
167.643877214502
30
0.0
 70
     32
  0
VERTEX
  8
MY3DLAYER
10
-104.386854123699
20
167.663043937214
30
0.0
 70
     32
  0
VERTEX
  8
MY3DLAYER
10
-104.532439836569
20
167.643877214502
30
0.0
 70
     32
  0
VERTEX
  8
MY3DLAYER
10
-104.668104123699
20
167.587683226843
30
0.0
 70
     32
  0
VERTEX
  8
MY3DLAYER
10
-104.784601688116
20
167.498291501632
30
0.0
 70
     32
  0
VERTEX
  8
MY3DLAYER
10
-104.873993413327
20
167.381793937214
30
0.0
 70
     32
  0
VERTEX
  8
MY3DLAYER
10
-104.930187400986
20
167.246129650084
30
0.0
 70
     32
  0
VERTEX
  8
MY3DLAYER
10
-104.949354123699
20
167.100543937214
30
0.0
 70
     32
  0
VERTEX
  8
MY3DLAYER
10
-104.930187400986
20
166.954958224344
30
0.0
 70
     32
  0
VERTEX
  8
MY3DLAYER
10
-104.873993413327
20
166.819293937214
30
0.0
 70
     32
  0
VERTEX
  8
MY3DLAYER
10
-104.784601688116
20
166.702796372797
30
0.0
 70
     32
  0
VERTEX
  8
MY3DLAYER
10
-104.668104123699
20
166.613404647585
30
0.0
 70
     32
  0
VERTEX
  8
MY3DLAYER
10
-104.532439836569
20
166.557210659927
30
0.0
 70
     32
  0
VERTEX
  8
MY3DLAYER
10
-104.386854123699
20
166.538043937214
30
0.0
 70
     32
  0
VERTEX
  8
MY3DLAYER
10
-104.241268410828
20
166.557210659927
30
0.0
 70
     32
  0
VERTEX
  8
MY3DLAYER
10
-104.105604123699
20
166.613404647585
30
0.0
 70
     32
  0
VERTEX
  8
MY3DLAYER
10
-103.989106559281
20
166.702796372797
30
0.0
 70
     32
  0
VERTEX
  8
MY3DLAYER
10
-103.89971483407
20
166.819293937214
30
0.0
 70
     32
  0
VERTEX
  8
MY3DLAYER
10
-103.843520846411
20
166.954958224344
30
0.0
 70
     32
  0
VERTEX
  8
MY3DLAYER
10
-103.824354123699
20
167.100543937214
30
0.0
 70
     32
  0
SEQEND
  0
POLYLINE
 8
Layer0
 66
     1
70
    8
 10
0.0
 20
 0.0
 30
0.0
  0
VERTEX
  8
MY3DLAYER
10
-103.824354123699
20
163.100543937214
30
0.0
 70
     32
  0
VERTEX
  8
MY3DLAYER
10
-103.843520846411
20
163.246129650084
30
0.0
 70
     32
  0
VERTEX
  8
MY3DLAYER
10
-103.89971483407
20
163.381793937214
30
0.0
 70
     32
  0
VERTEX
  8
MY3DLAYER
10
-103.989106559281
20
163.498291501632
30
0.0
 70
     32
  0
VERTEX
  8
MY3DLAYER
10
-104.105604123699
20
163.587683226843
30
0.0
 70
     32
  0
VERTEX
  8
MY3DLAYER
10
-104.241268410828
20
163.643877214502
30
0.0
 70
     32
  0
VERTEX
  8
MY3DLAYER
10
-104.386854123699
20
163.663043937214
30
0.0
 70
     32
  0
VERTEX
  8
MY3DLAYER
10
-104.532439836569
20
163.643877214502
30
0.0
 70
     32
  0
VERTEX
  8
MY3DLAYER
10
-104.668104123699
20
163.587683226843
30
0.0
 70
     32
  0
VERTEX
  8
MY3DLAYER
10
-104.784601688116
20
163.498291501632
30
0.0
 70
     32
  0
VERTEX
  8
MY3DLAYER
10
-104.873993413327
20
163.381793937214
30
0.0
 70
     32
  0
VERTEX
  8
MY3DLAYER
10
-104.930187400986
20
163.246129650084
30
0.0
 70
     32
  0
VERTEX
  8
MY3DLAYER
10
-104.949354123699
20
163.100543937214
30
0.0
 70
     32
  0
VERTEX
  8
MY3DLAYER
10
-104.930187400986
20
162.954958224344
30
0.0
 70
     32
  0
VERTEX
  8
MY3DLAYER
10
-104.873993413327
20
162.819293937214
30
0.0
 70
     32
  0
VERTEX
  8
MY3DLAYER
10
-104.784601688116
20
162.702796372797
30
0.0
 70
     32
  0
VERTEX
  8
MY3DLAYER
10
-104.668104123699
20
162.613404647585
30
0.0
 70
     32
  0
VERTEX
  8
MY3DLAYER
10
-104.532439836569
20
162.557210659927
30
0.0
 70
     32
  0
VERTEX
  8
MY3DLAYER
10
-104.386854123699
20
162.538043937214
30
0.0
 70
     32
  0
VERTEX
  8
MY3DLAYER
10
-104.241268410828
20
162.557210659927
30
0.0
 70
     32
  0
VERTEX
  8
MY3DLAYER
10
-104.105604123699
20
162.613404647585
30
0.0
 70
     32
  0
VERTEX
  8
MY3DLAYER
10
-103.989106559281
20
162.702796372797
30
0.0
 70
     32
  0
VERTEX
  8
MY3DLAYER
10
-103.89971483407
20
162.819293937214
30
0.0
 70
     32
  0
VERTEX
  8
MY3DLAYER
10
-103.843520846411
20
162.954958224344
30
0.0
 70
     32
  0
VERTEX
  8
MY3DLAYER
10
-103.824354123699
20
163.100543937214
30
0.0
 70
     32
  0
SEQEND
  0
POLYLINE
 8
Layer0
 66
     1
70
    8
 10
0.0
 20
 0.0
 30
0.0
  0
VERTEX
  8
MY3DLAYER
10
-103.824354123699
20
159.100543937214
30
0.0
 70
     32
  0
VERTEX
  8
MY3DLAYER
10
-103.843520846411
20
159.246129650084
30
0.0
 70
     32
  0
VERTEX
  8
MY3DLAYER
10
-103.89971483407
20
159.381793937214
30
0.0
 70
     32
  0
VERTEX
  8
MY3DLAYER
10
-103.989106559281
20
159.498291501632
30
0.0
 70
     32
  0
VERTEX
  8
MY3DLAYER
10
-104.105604123699
20
159.587683226843
30
0.0
 70
     32
  0
VERTEX
  8
MY3DLAYER
10
-104.241268410828
20
159.643877214502
30
0.0
 70
     32
  0
VERTEX
  8
MY3DLAYER
10
-104.386854123699
20
159.663043937214
30
0.0
 70
     32
  0
VERTEX
  8
MY3DLAYER
10
-104.532439836569
20
159.643877214502
30
0.0
 70
     32
  0
VERTEX
  8
MY3DLAYER
10
-104.668104123699
20
159.587683226843
30
0.0
 70
     32
  0
VERTEX
  8
MY3DLAYER
10
-104.784601688116
20
159.498291501632
30
0.0
 70
     32
  0
VERTEX
  8
MY3DLAYER
10
-104.873993413327
20
159.381793937214
30
0.0
 70
     32
  0
VERTEX
  8
MY3DLAYER
10
-104.930187400986
20
159.246129650084
30
0.0
 70
     32
  0
VERTEX
  8
MY3DLAYER
10
-104.949354123699
20
159.100543937214
30
0.0
 70
     32
  0
VERTEX
  8
MY3DLAYER
10
-104.930187400986
20
158.954958224344
30
0.0
 70
     32
  0
VERTEX
  8
MY3DLAYER
10
-104.873993413327
20
158.819293937214
30
0.0
 70
     32
  0
VERTEX
  8
MY3DLAYER
10
-104.784601688116
20
158.702796372797
30
0.0
 70
     32
  0
VERTEX
  8
MY3DLAYER
10
-104.668104123699
20
158.613404647585
30
0.0
 70
     32
  0
VERTEX
  8
MY3DLAYER
10
-104.532439836569
20
158.557210659927
30
0.0
 70
     32
  0
VERTEX
  8
MY3DLAYER
10
-104.386854123699
20
158.538043937214
30
0.0
 70
     32
  0
VERTEX
  8
MY3DLAYER
10
-104.241268410828
20
158.557210659927
30
0.0
 70
     32
  0
VERTEX
  8
MY3DLAYER
10
-104.105604123699
20
158.613404647585
30
0.0
 70
     32
  0
VERTEX
  8
MY3DLAYER
10
-103.989106559281
20
158.702796372797
30
0.0
 70
     32
  0
VERTEX
  8
MY3DLAYER
10
-103.89971483407
20
158.819293937214
30
0.0
 70
     32
  0
VERTEX
  8
MY3DLAYER
10
-103.843520846411
20
158.954958224344
30
0.0
 70
     32
  0
VERTEX
  8
MY3DLAYER
10
-103.824354123699
20
159.100543937214
30
0.0
 70
     32
  0
SEQEND
  0
POLYLINE
 8
Layer0
 66
     1
70
    8
 10
0.0
 20
 0.0
 30
0.0
  0
VERTEX
  8
MY3DLAYER
10
-99.843520846411
20
150.954958224344
30
0.0
 70
     32
  0
VERTEX
  8
MY3DLAYER
10
-99.8243541236986
20
151.100543937214
30
0.0
 70
     32
  0
VERTEX
  8
MY3DLAYER
10
-99.843520846411
20
151.246129650084
30
0.0
 70
     32
  0
VERTEX
  8
MY3DLAYER
10
-99.8997148340699
20
151.381793937214
30
0.0
 70
     32
  0
VERTEX
  8
MY3DLAYER
10
-99.9891065592812
20
151.498291501632
30
0.0
 70
     32
  0
VERTEX
  8
MY3DLAYER
10
-100.105604123699
20
151.587683226843
30
0.0
 70
     32
  0
VERTEX
  8
MY3DLAYER
10
-100.241268410828
20
151.643877214502
30
0.0
 70
     32
  0
VERTEX
  8
MY3DLAYER
10
-100.386854123699
20
151.663043937214
30
0.0
 70
     32
  0
VERTEX
  8
MY3DLAYER
10
-100.532439836569
20
151.643877214502
30
0.0
 70
     32
  0
VERTEX
  8
MY3DLAYER
10
-100.668104123699
20
151.587683226843
30
0.0
 70
     32
  0
VERTEX
  8
MY3DLAYER
10
-100.784601688116
20
151.498291501632
30
0.0
 70
     32
  0
VERTEX
  8
MY3DLAYER
10
-100.873993413327
20
151.381793937214
30
0.0
 70
     32
  0
VERTEX
  8
MY3DLAYER
10
-100.930187400986
20
151.246129650084
30
0.0
 70
     32
  0
VERTEX
  8
MY3DLAYER
10
-100.949354123699
20
151.100543937214
30
0.0
 70
     32
  0
VERTEX
  8
MY3DLAYER
10
-100.930187400986
20
150.954958224344
30
0.0
 70
     32
  0
VERTEX
  8
MY3DLAYER
10
-100.873993413327
20
150.819293937214
30
0.0
 70
     32
  0
VERTEX
  8
MY3DLAYER
10
-100.784601688116
20
150.702796372797
30
0.0
 70
     32
  0
VERTEX
  8
MY3DLAYER
10
-100.668104123699
20
150.613404647585
30
0.0
 70
     32
  0
VERTEX
  8
MY3DLAYER
10
-100.532439836569
20
150.557210659927
30
0.0
 70
     32
  0
VERTEX
  8
MY3DLAYER
10
-100.386854123699
20
150.538043937214
30
0.0
 70
     32
  0
VERTEX
  8
MY3DLAYER
10
-100.241268410828
20
150.557210659927
30
0.0
 70
     32
  0
VERTEX
  8
MY3DLAYER
10
-100.105604123699
20
150.613404647585
30
0.0
 70
     32
  0
VERTEX
  8
MY3DLAYER
10
-99.9891065592812
20
150.702796372797
30
0.0
 70
     32
  0
VERTEX
  8
MY3DLAYER
10
-99.8997148340699
20
150.819293937214
30
0.0
 70
     32
  0
VERTEX
  8
MY3DLAYER
10
-99.843520846411
20
150.954958224344
30
0.0
 70
     32
  0
SEQEND
  0
POLYLINE
 8
Layer0
 66
     1
70
    8
 10
0.0
 20
 0.0
 30
0.0
  0
VERTEX
  8
MY3DLAYER
10
-100.532439836569
20
142.557210659927
30
0.0
 70
     32
  0
VERTEX
  8
MY3DLAYER
10
-100.386854123699
20
142.538043937214
30
0.0
 70
     32
  0
VERTEX
  8
MY3DLAYER
10
-100.241268410828
20
142.557210659927
30
0.0
 70
     32
  0
VERTEX
  8
MY3DLAYER
10
-100.105604123699
20
142.613404647585
30
0.0
 70
     32
  0
VERTEX
  8
MY3DLAYER
10
-99.9891065592812
20
142.702796372797
30
0.0
 70
     32
  0
VERTEX
  8
MY3DLAYER
10
-99.8997148340699
20
142.819293937214
30
0.0
 70
     32
  0
VERTEX
  8
MY3DLAYER
10
-99.843520846411
20
142.954958224344
30
0.0
 70
     32
  0
VERTEX
  8
MY3DLAYER
10
-99.8243541236986
20
143.100543937214
30
0.0
 70
     32
  0
VERTEX
  8
MY3DLAYER
10
-99.843520846411
20
143.246129650084
30
0.0
 70
     32
  0
VERTEX
  8
MY3DLAYER
10
-99.8997148340699
20
143.381793937214
30
0.0
 70
     32
  0
VERTEX
  8
MY3DLAYER
10
-99.9891065592812
20
143.498291501632
30
0.0
 70
     32
  0
VERTEX
  8
MY3DLAYER
10
-100.105604123699
20
143.587683226843
30
0.0
 70
     32
  0
VERTEX
  8
MY3DLAYER
10
-100.241268410828
20
143.643877214502
30
0.0
 70
     32
  0
VERTEX
  8
MY3DLAYER
10
-100.386854123699
20
143.663043937214
30
0.0
 70
     32
  0
VERTEX
  8
MY3DLAYER
10
-100.532439836569
20
143.643877214502
30
0.0
 70
     32
  0
VERTEX
  8
MY3DLAYER
10
-100.668104123699
20
143.587683226843
30
0.0
 70
     32
  0
VERTEX
  8
MY3DLAYER
10
-100.784601688116
20
143.498291501632
30
0.0
 70
     32
  0
VERTEX
  8
MY3DLAYER
10
-100.873993413327
20
143.381793937214
30
0.0
 70
     32
  0
VERTEX
  8
MY3DLAYER
10
-100.930187400986
20
143.246129650084
30
0.0
 70
     32
  0
VERTEX
  8
MY3DLAYER
10
-100.949354123699
20
143.100543937214
30
0.0
 70
     32
  0
VERTEX
  8
MY3DLAYER
10
-100.930187400986
20
142.954958224344
30
0.0
 70
     32
  0
VERTEX
  8
MY3DLAYER
10
-100.873993413327
20
142.819293937214
30
0.0
 70
     32
  0
VERTEX
  8
MY3DLAYER
10
-100.784601688116
20
142.702796372797
30
0.0
 70
     32
  0
VERTEX
  8
MY3DLAYER
10
-100.668104123699
20
142.613404647585
30
0.0
 70
     32
  0
VERTEX
  8
MY3DLAYER
10
-100.532439836569
20
142.557210659927
30
0.0
 70
     32
  0
SEQEND
  0
POLYLINE
 8
Layer0
 66
     1
70
    8
 10
0.0
 20
 0.0
 30
0.0
  0
VERTEX
  8
MY3DLAYER
10
-99.843520846411
20
146.954958224344
30
0.0
 70
     32
  0
VERTEX
  8
MY3DLAYER
10
-99.8243541236986
20
147.100543937214
30
0.0
 70
     32
  0
VERTEX
  8
MY3DLAYER
10
-99.843520846411
20
147.246129650084
30
0.0
 70
     32
  0
VERTEX
  8
MY3DLAYER
10
-99.8997148340699
20
147.381793937214
30
0.0
 70
     32
  0
VERTEX
  8
MY3DLAYER
10
-99.9891065592812
20
147.498291501632
30
0.0
 70
     32
  0
VERTEX
  8
MY3DLAYER
10
-100.105604123699
20
147.587683226843
30
0.0
 70
     32
  0
VERTEX
  8
MY3DLAYER
10
-100.241268410828
20
147.643877214502
30
0.0
 70
     32
  0
VERTEX
  8
MY3DLAYER
10
-100.386854123699
20
147.663043937214
30
0.0
 70
     32
  0
VERTEX
  8
MY3DLAYER
10
-100.532439836569
20
147.643877214502
30
0.0
 70
     32
  0
VERTEX
  8
MY3DLAYER
10
-100.668104123699
20
147.587683226843
30
0.0
 70
     32
  0
VERTEX
  8
MY3DLAYER
10
-100.784601688116
20
147.498291501632
30
0.0
 70
     32
  0
VERTEX
  8
MY3DLAYER
10
-100.873993413327
20
147.381793937214
30
0.0
 70
     32
  0
VERTEX
  8
MY3DLAYER
10
-100.930187400986
20
147.246129650084
30
0.0
 70
     32
  0
VERTEX
  8
MY3DLAYER
10
-100.949354123699
20
147.100543937214
30
0.0
 70
     32
  0
VERTEX
  8
MY3DLAYER
10
-100.930187400986
20
146.954958224344
30
0.0
 70
     32
  0
VERTEX
  8
MY3DLAYER
10
-100.873993413327
20
146.819293937214
30
0.0
 70
     32
  0
VERTEX
  8
MY3DLAYER
10
-100.784601688116
20
146.702796372797
30
0.0
 70
     32
  0
VERTEX
  8
MY3DLAYER
10
-100.668104123699
20
146.613404647585
30
0.0
 70
     32
  0
VERTEX
  8
MY3DLAYER
10
-100.532439836569
20
146.557210659927
30
0.0
 70
     32
  0
VERTEX
  8
MY3DLAYER
10
-100.386854123699
20
146.538043937214
30
0.0
 70
     32
  0
VERTEX
  8
MY3DLAYER
10
-100.241268410828
20
146.557210659927
30
0.0
 70
     32
  0
VERTEX
  8
MY3DLAYER
10
-100.105604123699
20
146.613404647585
30
0.0
 70
     32
  0
VERTEX
  8
MY3DLAYER
10
-99.9891065592812
20
146.702796372797
30
0.0
 70
     32
  0
VERTEX
  8
MY3DLAYER
10
-99.8997148340699
20
146.819293937214
30
0.0
 70
     32
  0
VERTEX
  8
MY3DLAYER
10
-99.843520846411
20
146.954958224344
30
0.0
 70
     32
  0
SEQEND
  0
POLYLINE
 8
Layer0
 66
     1
70
    8
 10
0.0
 20
 0.0
 30
0.0
  0
VERTEX
  8
MY3DLAYER
10
-99.843520846411
20
154.954958224344
30
0.0
 70
     32
  0
VERTEX
  8
MY3DLAYER
10
-99.8243541236986
20
155.100543937214
30
0.0
 70
     32
  0
VERTEX
  8
MY3DLAYER
10
-99.843520846411
20
155.246129650084
30
0.0
 70
     32
  0
VERTEX
  8
MY3DLAYER
10
-99.8997148340699
20
155.381793937214
30
0.0
 70
     32
  0
VERTEX
  8
MY3DLAYER
10
-99.9891065592812
20
155.498291501632
30
0.0
 70
     32
  0
VERTEX
  8
MY3DLAYER
10
-100.105604123699
20
155.587683226843
30
0.0
 70
     32
  0
VERTEX
  8
MY3DLAYER
10
-100.241268410828
20
155.643877214502
30
0.0
 70
     32
  0
VERTEX
  8
MY3DLAYER
10
-100.386854123699
20
155.663043937214
30
0.0
 70
     32
  0
VERTEX
  8
MY3DLAYER
10
-100.532439836569
20
155.643877214502
30
0.0
 70
     32
  0
VERTEX
  8
MY3DLAYER
10
-100.668104123699
20
155.587683226843
30
0.0
 70
     32
  0
VERTEX
  8
MY3DLAYER
10
-100.784601688116
20
155.498291501632
30
0.0
 70
     32
  0
VERTEX
  8
MY3DLAYER
10
-100.873993413327
20
155.381793937214
30
0.0
 70
     32
  0
VERTEX
  8
MY3DLAYER
10
-100.930187400986
20
155.246129650084
30
0.0
 70
     32
  0
VERTEX
  8
MY3DLAYER
10
-100.949354123699
20
155.100543937214
30
0.0
 70
     32
  0
VERTEX
  8
MY3DLAYER
10
-100.930187400986
20
154.954958224344
30
0.0
 70
     32
  0
VERTEX
  8
MY3DLAYER
10
-100.873993413327
20
154.819293937214
30
0.0
 70
     32
  0
VERTEX
  8
MY3DLAYER
10
-100.784601688116
20
154.702796372797
30
0.0
 70
     32
  0
VERTEX
  8
MY3DLAYER
10
-100.668104123699
20
154.613404647585
30
0.0
 70
     32
  0
VERTEX
  8
MY3DLAYER
10
-100.532439836569
20
154.557210659927
30
0.0
 70
     32
  0
VERTEX
  8
MY3DLAYER
10
-100.386854123699
20
154.538043937214
30
0.0
 70
     32
  0
VERTEX
  8
MY3DLAYER
10
-100.241268410828
20
154.557210659927
30
0.0
 70
     32
  0
VERTEX
  8
MY3DLAYER
10
-100.105604123699
20
154.613404647585
30
0.0
 70
     32
  0
VERTEX
  8
MY3DLAYER
10
-99.9891065592812
20
154.702796372797
30
0.0
 70
     32
  0
VERTEX
  8
MY3DLAYER
10
-99.8997148340699
20
154.819293937214
30
0.0
 70
     32
  0
VERTEX
  8
MY3DLAYER
10
-99.843520846411
20
154.954958224344
30
0.0
 70
     32
  0
SEQEND
  0
POLYLINE
 8
Layer0
 66
     1
70
    8
 10
0.0
 20
 0.0
 30
0.0
  0
VERTEX
  8
MY3DLAYER
10
-103.824354123699
20
155.100543937214
30
0.0
 70
     32
  0
VERTEX
  8
MY3DLAYER
10
-103.843520846411
20
155.246129650084
30
0.0
 70
     32
  0
VERTEX
  8
MY3DLAYER
10
-103.89971483407
20
155.381793937214
30
0.0
 70
     32
  0
VERTEX
  8
MY3DLAYER
10
-103.989106559281
20
155.498291501632
30
0.0
 70
     32
  0
VERTEX
  8
MY3DLAYER
10
-104.105604123699
20
155.587683226843
30
0.0
 70
     32
  0
VERTEX
  8
MY3DLAYER
10
-104.241268410828
20
155.643877214502
30
0.0
 70
     32
  0
VERTEX
  8
MY3DLAYER
10
-104.386854123699
20
155.663043937214
30
0.0
 70
     32
  0
VERTEX
  8
MY3DLAYER
10
-104.532439836569
20
155.643877214502
30
0.0
 70
     32
  0
VERTEX
  8
MY3DLAYER
10
-104.668104123699
20
155.587683226843
30
0.0
 70
     32
  0
VERTEX
  8
MY3DLAYER
10
-104.784601688116
20
155.498291501632
30
0.0
 70
     32
  0
VERTEX
  8
MY3DLAYER
10
-104.873993413327
20
155.381793937214
30
0.0
 70
     32
  0
VERTEX
  8
MY3DLAYER
10
-104.930187400986
20
155.246129650084
30
0.0
 70
     32
  0
VERTEX
  8
MY3DLAYER
10
-104.949354123699
20
155.100543937214
30
0.0
 70
     32
  0
VERTEX
  8
MY3DLAYER
10
-104.930187400986
20
154.954958224344
30
0.0
 70
     32
  0
VERTEX
  8
MY3DLAYER
10
-104.873993413327
20
154.819293937214
30
0.0
 70
     32
  0
VERTEX
  8
MY3DLAYER
10
-104.784601688116
20
154.702796372797
30
0.0
 70
     32
  0
VERTEX
  8
MY3DLAYER
10
-104.668104123699
20
154.613404647585
30
0.0
 70
     32
  0
VERTEX
  8
MY3DLAYER
10
-104.532439836569
20
154.557210659927
30
0.0
 70
     32
  0
VERTEX
  8
MY3DLAYER
10
-104.386854123699
20
154.538043937214
30
0.0
 70
     32
  0
VERTEX
  8
MY3DLAYER
10
-104.241268410828
20
154.557210659927
30
0.0
 70
     32
  0
VERTEX
  8
MY3DLAYER
10
-104.105604123699
20
154.613404647585
30
0.0
 70
     32
  0
VERTEX
  8
MY3DLAYER
10
-103.989106559281
20
154.702796372797
30
0.0
 70
     32
  0
VERTEX
  8
MY3DLAYER
10
-103.89971483407
20
154.819293937214
30
0.0
 70
     32
  0
VERTEX
  8
MY3DLAYER
10
-103.843520846411
20
154.954958224344
30
0.0
 70
     32
  0
VERTEX
  8
MY3DLAYER
10
-103.824354123699
20
155.100543937214
30
0.0
 70
     32
  0
SEQEND
  0
POLYLINE
 8
Layer0
 66
     1
70
    8
 10
0.0
 20
 0.0
 30
0.0
  0
VERTEX
  8
MY3DLAYER
10
-103.824354123699
20
151.100543937214
30
0.0
 70
     32
  0
VERTEX
  8
MY3DLAYER
10
-103.843520846411
20
151.246129650084
30
0.0
 70
     32
  0
VERTEX
  8
MY3DLAYER
10
-103.89971483407
20
151.381793937214
30
0.0
 70
     32
  0
VERTEX
  8
MY3DLAYER
10
-103.989106559281
20
151.498291501632
30
0.0
 70
     32
  0
VERTEX
  8
MY3DLAYER
10
-104.105604123699
20
151.587683226843
30
0.0
 70
     32
  0
VERTEX
  8
MY3DLAYER
10
-104.241268410828
20
151.643877214502
30
0.0
 70
     32
  0
VERTEX
  8
MY3DLAYER
10
-104.386854123699
20
151.663043937214
30
0.0
 70
     32
  0
VERTEX
  8
MY3DLAYER
10
-104.532439836569
20
151.643877214502
30
0.0
 70
     32
  0
VERTEX
  8
MY3DLAYER
10
-104.668104123699
20
151.587683226843
30
0.0
 70
     32
  0
VERTEX
  8
MY3DLAYER
10
-104.784601688116
20
151.498291501632
30
0.0
 70
     32
  0
VERTEX
  8
MY3DLAYER
10
-104.873993413327
20
151.381793937214
30
0.0
 70
     32
  0
VERTEX
  8
MY3DLAYER
10
-104.930187400986
20
151.246129650084
30
0.0
 70
     32
  0
VERTEX
  8
MY3DLAYER
10
-104.949354123699
20
151.100543937214
30
0.0
 70
     32
  0
VERTEX
  8
MY3DLAYER
10
-104.930187400986
20
150.954958224344
30
0.0
 70
     32
  0
VERTEX
  8
MY3DLAYER
10
-104.873993413327
20
150.819293937214
30
0.0
 70
     32
  0
VERTEX
  8
MY3DLAYER
10
-104.784601688116
20
150.702796372797
30
0.0
 70
     32
  0
VERTEX
  8
MY3DLAYER
10
-104.668104123699
20
150.613404647585
30
0.0
 70
     32
  0
VERTEX
  8
MY3DLAYER
10
-104.532439836569
20
150.557210659927
30
0.0
 70
     32
  0
VERTEX
  8
MY3DLAYER
10
-104.386854123699
20
150.538043937214
30
0.0
 70
     32
  0
VERTEX
  8
MY3DLAYER
10
-104.241268410828
20
150.557210659927
30
0.0
 70
     32
  0
VERTEX
  8
MY3DLAYER
10
-104.105604123699
20
150.613404647585
30
0.0
 70
     32
  0
VERTEX
  8
MY3DLAYER
10
-103.989106559281
20
150.702796372797
30
0.0
 70
     32
  0
VERTEX
  8
MY3DLAYER
10
-103.89971483407
20
150.819293937214
30
0.0
 70
     32
  0
VERTEX
  8
MY3DLAYER
10
-103.843520846411
20
150.954958224344
30
0.0
 70
     32
  0
VERTEX
  8
MY3DLAYER
10
-103.824354123699
20
151.100543937214
30
0.0
 70
     32
  0
SEQEND
  0
POLYLINE
 8
Layer0
 66
     1
70
    8
 10
0.0
 20
 0.0
 30
0.0
  0
VERTEX
  8
MY3DLAYER
10
-103.824354123699
20
147.100543937214
30
0.0
 70
     32
  0
VERTEX
  8
MY3DLAYER
10
-103.843520846411
20
147.246129650084
30
0.0
 70
     32
  0
VERTEX
  8
MY3DLAYER
10
-103.89971483407
20
147.381793937214
30
0.0
 70
     32
  0
VERTEX
  8
MY3DLAYER
10
-103.989106559281
20
147.498291501632
30
0.0
 70
     32
  0
VERTEX
  8
MY3DLAYER
10
-104.105604123699
20
147.587683226843
30
0.0
 70
     32
  0
VERTEX
  8
MY3DLAYER
10
-104.241268410828
20
147.643877214502
30
0.0
 70
     32
  0
VERTEX
  8
MY3DLAYER
10
-104.386854123699
20
147.663043937214
30
0.0
 70
     32
  0
VERTEX
  8
MY3DLAYER
10
-104.532439836569
20
147.643877214502
30
0.0
 70
     32
  0
VERTEX
  8
MY3DLAYER
10
-104.668104123699
20
147.587683226843
30
0.0
 70
     32
  0
VERTEX
  8
MY3DLAYER
10
-104.784601688116
20
147.498291501632
30
0.0
 70
     32
  0
VERTEX
  8
MY3DLAYER
10
-104.873993413327
20
147.381793937214
30
0.0
 70
     32
  0
VERTEX
  8
MY3DLAYER
10
-104.930187400986
20
147.246129650084
30
0.0
 70
     32
  0
VERTEX
  8
MY3DLAYER
10
-104.949354123699
20
147.100543937214
30
0.0
 70
     32
  0
VERTEX
  8
MY3DLAYER
10
-104.930187400986
20
146.954958224344
30
0.0
 70
     32
  0
VERTEX
  8
MY3DLAYER
10
-104.873993413327
20
146.819293937214
30
0.0
 70
     32
  0
VERTEX
  8
MY3DLAYER
10
-104.784601688116
20
146.702796372797
30
0.0
 70
     32
  0
VERTEX
  8
MY3DLAYER
10
-104.668104123699
20
146.613404647585
30
0.0
 70
     32
  0
VERTEX
  8
MY3DLAYER
10
-104.532439836569
20
146.557210659927
30
0.0
 70
     32
  0
VERTEX
  8
MY3DLAYER
10
-104.386854123699
20
146.538043937214
30
0.0
 70
     32
  0
VERTEX
  8
MY3DLAYER
10
-104.241268410828
20
146.557210659927
30
0.0
 70
     32
  0
VERTEX
  8
MY3DLAYER
10
-104.105604123699
20
146.613404647585
30
0.0
 70
     32
  0
VERTEX
  8
MY3DLAYER
10
-103.989106559281
20
146.702796372797
30
0.0
 70
     32
  0
VERTEX
  8
MY3DLAYER
10
-103.89971483407
20
146.819293937214
30
0.0
 70
     32
  0
VERTEX
  8
MY3DLAYER
10
-103.843520846411
20
146.954958224344
30
0.0
 70
     32
  0
VERTEX
  8
MY3DLAYER
10
-103.824354123699
20
147.100543937214
30
0.0
 70
     32
  0
SEQEND
  0
POLYLINE
 8
Layer0
 66
     1
70
    8
 10
0.0
 20
 0.0
 30
0.0
  0
VERTEX
  8
MY3DLAYER
10
-103.824354123699
20
143.100543937214
30
0.0
 70
     32
  0
VERTEX
  8
MY3DLAYER
10
-103.843520846411
20
143.246129650084
30
0.0
 70
     32
  0
VERTEX
  8
MY3DLAYER
10
-103.89971483407
20
143.381793937214
30
0.0
 70
     32
  0
VERTEX
  8
MY3DLAYER
10
-103.989106559281
20
143.498291501632
30
0.0
 70
     32
  0
VERTEX
  8
MY3DLAYER
10
-104.105604123699
20
143.587683226843
30
0.0
 70
     32
  0
VERTEX
  8
MY3DLAYER
10
-104.241268410828
20
143.643877214502
30
0.0
 70
     32
  0
VERTEX
  8
MY3DLAYER
10
-104.386854123699
20
143.663043937214
30
0.0
 70
     32
  0
VERTEX
  8
MY3DLAYER
10
-104.532439836569
20
143.643877214502
30
0.0
 70
     32
  0
VERTEX
  8
MY3DLAYER
10
-104.668104123699
20
143.587683226843
30
0.0
 70
     32
  0
VERTEX
  8
MY3DLAYER
10
-104.784601688116
20
143.498291501632
30
0.0
 70
     32
  0
VERTEX
  8
MY3DLAYER
10
-104.873993413327
20
143.381793937214
30
0.0
 70
     32
  0
VERTEX
  8
MY3DLAYER
10
-104.930187400986
20
143.246129650084
30
0.0
 70
     32
  0
VERTEX
  8
MY3DLAYER
10
-104.949354123699
20
143.100543937214
30
0.0
 70
     32
  0
VERTEX
  8
MY3DLAYER
10
-104.930187400986
20
142.954958224344
30
0.0
 70
     32
  0
VERTEX
  8
MY3DLAYER
10
-104.873993413327
20
142.819293937214
30
0.0
 70
     32
  0
VERTEX
  8
MY3DLAYER
10
-104.784601688116
20
142.702796372797
30
0.0
 70
     32
  0
VERTEX
  8
MY3DLAYER
10
-104.668104123699
20
142.613404647585
30
0.0
 70
     32
  0
VERTEX
  8
MY3DLAYER
10
-104.532439836569
20
142.557210659927
30
0.0
 70
     32
  0
VERTEX
  8
MY3DLAYER
10
-104.386854123699
20
142.538043937214
30
0.0
 70
     32
  0
VERTEX
  8
MY3DLAYER
10
-104.241268410828
20
142.557210659927
30
0.0
 70
     32
  0
VERTEX
  8
MY3DLAYER
10
-104.105604123699
20
142.613404647585
30
0.0
 70
     32
  0
VERTEX
  8
MY3DLAYER
10
-103.989106559281
20
142.702796372797
30
0.0
 70
     32
  0
VERTEX
  8
MY3DLAYER
10
-103.89971483407
20
142.819293937214
30
0.0
 70
     32
  0
VERTEX
  8
MY3DLAYER
10
-103.843520846411
20
142.954958224344
30
0.0
 70
     32
  0
VERTEX
  8
MY3DLAYER
10
-103.824354123699
20
143.100543937214
30
0.0
 70
     32
  0
SEQEND
  0
POLYLINE
 8
Layer0
 66
     1
70
    8
 10
0.0
 20
 0.0
 30
0.0
  0
VERTEX
  8
MY3DLAYER
10
-103.824354123699
20
127.100543937214
30
0.0
 70
     32
  0
VERTEX
  8
MY3DLAYER
10
-103.843520846411
20
127.246129650084
30
0.0
 70
     32
  0
VERTEX
  8
MY3DLAYER
10
-103.89971483407
20
127.381793937214
30
0.0
 70
     32
  0
VERTEX
  8
MY3DLAYER
10
-103.989106559281
20
127.498291501632
30
0.0
 70
     32
  0
VERTEX
  8
MY3DLAYER
10
-104.105604123699
20
127.587683226843
30
0.0
 70
     32
  0
VERTEX
  8
MY3DLAYER
10
-104.241268410828
20
127.643877214502
30
0.0
 70
     32
  0
VERTEX
  8
MY3DLAYER
10
-104.386854123699
20
127.663043937214
30
0.0
 70
     32
  0
VERTEX
  8
MY3DLAYER
10
-104.532439836569
20
127.643877214502
30
0.0
 70
     32
  0
VERTEX
  8
MY3DLAYER
10
-104.668104123699
20
127.587683226843
30
0.0
 70
     32
  0
VERTEX
  8
MY3DLAYER
10
-104.784601688116
20
127.498291501632
30
0.0
 70
     32
  0
VERTEX
  8
MY3DLAYER
10
-104.873993413327
20
127.381793937214
30
0.0
 70
     32
  0
VERTEX
  8
MY3DLAYER
10
-104.930187400986
20
127.246129650084
30
0.0
 70
     32
  0
VERTEX
  8
MY3DLAYER
10
-104.949354123699
20
127.100543937214
30
0.0
 70
     32
  0
VERTEX
  8
MY3DLAYER
10
-104.930187400986
20
126.954958224344
30
0.0
 70
     32
  0
VERTEX
  8
MY3DLAYER
10
-104.873993413327
20
126.819293937214
30
0.0
 70
     32
  0
VERTEX
  8
MY3DLAYER
10
-104.784601688116
20
126.702796372797
30
0.0
 70
     32
  0
VERTEX
  8
MY3DLAYER
10
-104.668104123699
20
126.613404647585
30
0.0
 70
     32
  0
VERTEX
  8
MY3DLAYER
10
-104.532439836569
20
126.557210659927
30
0.0
 70
     32
  0
VERTEX
  8
MY3DLAYER
10
-104.386854123699
20
126.538043937214
30
0.0
 70
     32
  0
VERTEX
  8
MY3DLAYER
10
-104.241268410828
20
126.557210659927
30
0.0
 70
     32
  0
VERTEX
  8
MY3DLAYER
10
-104.105604123699
20
126.613404647585
30
0.0
 70
     32
  0
VERTEX
  8
MY3DLAYER
10
-103.989106559281
20
126.702796372797
30
0.0
 70
     32
  0
VERTEX
  8
MY3DLAYER
10
-103.89971483407
20
126.819293937214
30
0.0
 70
     32
  0
VERTEX
  8
MY3DLAYER
10
-103.843520846411
20
126.954958224344
30
0.0
 70
     32
  0
VERTEX
  8
MY3DLAYER
10
-103.824354123699
20
127.100543937214
30
0.0
 70
     32
  0
SEQEND
  0
POLYLINE
 8
Layer0
 66
     1
70
    8
 10
0.0
 20
 0.0
 30
0.0
  0
VERTEX
  8
MY3DLAYER
10
-103.824354123699
20
131.100543937214
30
0.0
 70
     32
  0
VERTEX
  8
MY3DLAYER
10
-103.843520846411
20
131.246129650084
30
0.0
 70
     32
  0
VERTEX
  8
MY3DLAYER
10
-103.89971483407
20
131.381793937214
30
0.0
 70
     32
  0
VERTEX
  8
MY3DLAYER
10
-103.989106559281
20
131.498291501632
30
0.0
 70
     32
  0
VERTEX
  8
MY3DLAYER
10
-104.105604123699
20
131.587683226843
30
0.0
 70
     32
  0
VERTEX
  8
MY3DLAYER
10
-104.241268410828
20
131.643877214502
30
0.0
 70
     32
  0
VERTEX
  8
MY3DLAYER
10
-104.386854123699
20
131.663043937214
30
0.0
 70
     32
  0
VERTEX
  8
MY3DLAYER
10
-104.532439836569
20
131.643877214502
30
0.0
 70
     32
  0
VERTEX
  8
MY3DLAYER
10
-104.668104123699
20
131.587683226843
30
0.0
 70
     32
  0
VERTEX
  8
MY3DLAYER
10
-104.784601688116
20
131.498291501632
30
0.0
 70
     32
  0
VERTEX
  8
MY3DLAYER
10
-104.873993413327
20
131.381793937214
30
0.0
 70
     32
  0
VERTEX
  8
MY3DLAYER
10
-104.930187400986
20
131.246129650084
30
0.0
 70
     32
  0
VERTEX
  8
MY3DLAYER
10
-104.949354123699
20
131.100543937214
30
0.0
 70
     32
  0
VERTEX
  8
MY3DLAYER
10
-104.930187400986
20
130.954958224344
30
0.0
 70
     32
  0
VERTEX
  8
MY3DLAYER
10
-104.873993413327
20
130.819293937214
30
0.0
 70
     32
  0
VERTEX
  8
MY3DLAYER
10
-104.784601688116
20
130.702796372797
30
0.0
 70
     32
  0
VERTEX
  8
MY3DLAYER
10
-104.668104123699
20
130.613404647585
30
0.0
 70
     32
  0
VERTEX
  8
MY3DLAYER
10
-104.532439836569
20
130.557210659927
30
0.0
 70
     32
  0
VERTEX
  8
MY3DLAYER
10
-104.386854123699
20
130.538043937214
30
0.0
 70
     32
  0
VERTEX
  8
MY3DLAYER
10
-104.241268410828
20
130.557210659927
30
0.0
 70
     32
  0
VERTEX
  8
MY3DLAYER
10
-104.105604123699
20
130.613404647585
30
0.0
 70
     32
  0
VERTEX
  8
MY3DLAYER
10
-103.989106559281
20
130.702796372797
30
0.0
 70
     32
  0
VERTEX
  8
MY3DLAYER
10
-103.89971483407
20
130.819293937214
30
0.0
 70
     32
  0
VERTEX
  8
MY3DLAYER
10
-103.843520846411
20
130.954958224344
30
0.0
 70
     32
  0
VERTEX
  8
MY3DLAYER
10
-103.824354123699
20
131.100543937214
30
0.0
 70
     32
  0
SEQEND
  0
POLYLINE
 8
Layer0
 66
     1
70
    8
 10
0.0
 20
 0.0
 30
0.0
  0
VERTEX
  8
MY3DLAYER
10
-103.824354123699
20
135.100543937214
30
0.0
 70
     32
  0
VERTEX
  8
MY3DLAYER
10
-103.843520846411
20
135.246129650084
30
0.0
 70
     32
  0
VERTEX
  8
MY3DLAYER
10
-103.89971483407
20
135.381793937214
30
0.0
 70
     32
  0
VERTEX
  8
MY3DLAYER
10
-103.989106559281
20
135.498291501632
30
0.0
 70
     32
  0
VERTEX
  8
MY3DLAYER
10
-104.105604123699
20
135.587683226843
30
0.0
 70
     32
  0
VERTEX
  8
MY3DLAYER
10
-104.241268410828
20
135.643877214502
30
0.0
 70
     32
  0
VERTEX
  8
MY3DLAYER
10
-104.386854123699
20
135.663043937214
30
0.0
 70
     32
  0
VERTEX
  8
MY3DLAYER
10
-104.532439836569
20
135.643877214502
30
0.0
 70
     32
  0
VERTEX
  8
MY3DLAYER
10
-104.668104123699
20
135.587683226843
30
0.0
 70
     32
  0
VERTEX
  8
MY3DLAYER
10
-104.784601688116
20
135.498291501632
30
0.0
 70
     32
  0
VERTEX
  8
MY3DLAYER
10
-104.873993413327
20
135.381793937214
30
0.0
 70
     32
  0
VERTEX
  8
MY3DLAYER
10
-104.930187400986
20
135.246129650084
30
0.0
 70
     32
  0
VERTEX
  8
MY3DLAYER
10
-104.949354123699
20
135.100543937214
30
0.0
 70
     32
  0
VERTEX
  8
MY3DLAYER
10
-104.930187400986
20
134.954958224344
30
0.0
 70
     32
  0
VERTEX
  8
MY3DLAYER
10
-104.873993413327
20
134.819293937214
30
0.0
 70
     32
  0
VERTEX
  8
MY3DLAYER
10
-104.784601688116
20
134.702796372797
30
0.0
 70
     32
  0
VERTEX
  8
MY3DLAYER
10
-104.668104123699
20
134.613404647585
30
0.0
 70
     32
  0
VERTEX
  8
MY3DLAYER
10
-104.532439836569
20
134.557210659927
30
0.0
 70
     32
  0
VERTEX
  8
MY3DLAYER
10
-104.386854123699
20
134.538043937214
30
0.0
 70
     32
  0
VERTEX
  8
MY3DLAYER
10
-104.241268410828
20
134.557210659927
30
0.0
 70
     32
  0
VERTEX
  8
MY3DLAYER
10
-104.105604123699
20
134.613404647585
30
0.0
 70
     32
  0
VERTEX
  8
MY3DLAYER
10
-103.989106559281
20
134.702796372797
30
0.0
 70
     32
  0
VERTEX
  8
MY3DLAYER
10
-103.89971483407
20
134.819293937214
30
0.0
 70
     32
  0
VERTEX
  8
MY3DLAYER
10
-103.843520846411
20
134.954958224344
30
0.0
 70
     32
  0
VERTEX
  8
MY3DLAYER
10
-103.824354123699
20
135.100543937214
30
0.0
 70
     32
  0
SEQEND
  0
POLYLINE
 8
Layer0
 66
     1
70
    8
 10
0.0
 20
 0.0
 30
0.0
  0
VERTEX
  8
MY3DLAYER
10
-103.824354123699
20
139.100543937214
30
0.0
 70
     32
  0
VERTEX
  8
MY3DLAYER
10
-103.843520846411
20
139.246129650084
30
0.0
 70
     32
  0
VERTEX
  8
MY3DLAYER
10
-103.89971483407
20
139.381793937214
30
0.0
 70
     32
  0
VERTEX
  8
MY3DLAYER
10
-103.989106559281
20
139.498291501632
30
0.0
 70
     32
  0
VERTEX
  8
MY3DLAYER
10
-104.105604123699
20
139.587683226843
30
0.0
 70
     32
  0
VERTEX
  8
MY3DLAYER
10
-104.241268410828
20
139.643877214502
30
0.0
 70
     32
  0
VERTEX
  8
MY3DLAYER
10
-104.386854123699
20
139.663043937214
30
0.0
 70
     32
  0
VERTEX
  8
MY3DLAYER
10
-104.532439836569
20
139.643877214502
30
0.0
 70
     32
  0
VERTEX
  8
MY3DLAYER
10
-104.668104123699
20
139.587683226843
30
0.0
 70
     32
  0
VERTEX
  8
MY3DLAYER
10
-104.784601688116
20
139.498291501632
30
0.0
 70
     32
  0
VERTEX
  8
MY3DLAYER
10
-104.873993413327
20
139.381793937214
30
0.0
 70
     32
  0
VERTEX
  8
MY3DLAYER
10
-104.930187400986
20
139.246129650084
30
0.0
 70
     32
  0
VERTEX
  8
MY3DLAYER
10
-104.949354123699
20
139.100543937214
30
0.0
 70
     32
  0
VERTEX
  8
MY3DLAYER
10
-104.930187400986
20
138.954958224344
30
0.0
 70
     32
  0
VERTEX
  8
MY3DLAYER
10
-104.873993413327
20
138.819293937214
30
0.0
 70
     32
  0
VERTEX
  8
MY3DLAYER
10
-104.784601688116
20
138.702796372797
30
0.0
 70
     32
  0
VERTEX
  8
MY3DLAYER
10
-104.668104123699
20
138.613404647585
30
0.0
 70
     32
  0
VERTEX
  8
MY3DLAYER
10
-104.532439836569
20
138.557210659927
30
0.0
 70
     32
  0
VERTEX
  8
MY3DLAYER
10
-104.386854123699
20
138.538043937214
30
0.0
 70
     32
  0
VERTEX
  8
MY3DLAYER
10
-104.241268410828
20
138.557210659927
30
0.0
 70
     32
  0
VERTEX
  8
MY3DLAYER
10
-104.105604123699
20
138.613404647585
30
0.0
 70
     32
  0
VERTEX
  8
MY3DLAYER
10
-103.989106559281
20
138.702796372797
30
0.0
 70
     32
  0
VERTEX
  8
MY3DLAYER
10
-103.89971483407
20
138.819293937214
30
0.0
 70
     32
  0
VERTEX
  8
MY3DLAYER
10
-103.843520846411
20
138.954958224344
30
0.0
 70
     32
  0
VERTEX
  8
MY3DLAYER
10
-103.824354123699
20
139.100543937214
30
0.0
 70
     32
  0
SEQEND
  0
POLYLINE
 8
Layer0
 66
     1
70
    8
 10
0.0
 20
 0.0
 30
0.0
  0
VERTEX
  8
MY3DLAYER
10
-99.843520846411
20
138.954958224344
30
0.0
 70
     32
  0
VERTEX
  8
MY3DLAYER
10
-99.8243541236986
20
139.100543937214
30
0.0
 70
     32
  0
VERTEX
  8
MY3DLAYER
10
-99.843520846411
20
139.246129650084
30
0.0
 70
     32
  0
VERTEX
  8
MY3DLAYER
10
-99.8997148340699
20
139.381793937214
30
0.0
 70
     32
  0
VERTEX
  8
MY3DLAYER
10
-99.9891065592812
20
139.498291501632
30
0.0
 70
     32
  0
VERTEX
  8
MY3DLAYER
10
-100.105604123699
20
139.587683226843
30
0.0
 70
     32
  0
VERTEX
  8
MY3DLAYER
10
-100.241268410828
20
139.643877214502
30
0.0
 70
     32
  0
VERTEX
  8
MY3DLAYER
10
-100.386854123699
20
139.663043937214
30
0.0
 70
     32
  0
VERTEX
  8
MY3DLAYER
10
-100.532439836569
20
139.643877214502
30
0.0
 70
     32
  0
VERTEX
  8
MY3DLAYER
10
-100.668104123699
20
139.587683226843
30
0.0
 70
     32
  0
VERTEX
  8
MY3DLAYER
10
-100.784601688116
20
139.498291501632
30
0.0
 70
     32
  0
VERTEX
  8
MY3DLAYER
10
-100.873993413327
20
139.381793937214
30
0.0
 70
     32
  0
VERTEX
  8
MY3DLAYER
10
-100.930187400986
20
139.246129650084
30
0.0
 70
     32
  0
VERTEX
  8
MY3DLAYER
10
-100.949354123699
20
139.100543937214
30
0.0
 70
     32
  0
VERTEX
  8
MY3DLAYER
10
-100.930187400986
20
138.954958224344
30
0.0
 70
     32
  0
VERTEX
  8
MY3DLAYER
10
-100.873993413327
20
138.819293937214
30
0.0
 70
     32
  0
VERTEX
  8
MY3DLAYER
10
-100.784601688116
20
138.702796372797
30
0.0
 70
     32
  0
VERTEX
  8
MY3DLAYER
10
-100.668104123699
20
138.613404647585
30
0.0
 70
     32
  0
VERTEX
  8
MY3DLAYER
10
-100.532439836569
20
138.557210659927
30
0.0
 70
     32
  0
VERTEX
  8
MY3DLAYER
10
-100.386854123699
20
138.538043937214
30
0.0
 70
     32
  0
VERTEX
  8
MY3DLAYER
10
-100.241268410828
20
138.557210659927
30
0.0
 70
     32
  0
VERTEX
  8
MY3DLAYER
10
-100.105604123699
20
138.613404647585
30
0.0
 70
     32
  0
VERTEX
  8
MY3DLAYER
10
-99.9891065592812
20
138.702796372797
30
0.0
 70
     32
  0
VERTEX
  8
MY3DLAYER
10
-99.8997148340699
20
138.819293937214
30
0.0
 70
     32
  0
VERTEX
  8
MY3DLAYER
10
-99.843520846411
20
138.954958224344
30
0.0
 70
     32
  0
SEQEND
  0
POLYLINE
 8
Layer0
 66
     1
70
    8
 10
0.0
 20
 0.0
 30
0.0
  0
VERTEX
  8
MY3DLAYER
10
-99.843520846411
20
130.954958224344
30
0.0
 70
     32
  0
VERTEX
  8
MY3DLAYER
10
-99.8243541236986
20
131.100543937214
30
0.0
 70
     32
  0
VERTEX
  8
MY3DLAYER
10
-99.843520846411
20
131.246129650084
30
0.0
 70
     32
  0
VERTEX
  8
MY3DLAYER
10
-99.8997148340699
20
131.381793937214
30
0.0
 70
     32
  0
VERTEX
  8
MY3DLAYER
10
-99.9891065592812
20
131.498291501632
30
0.0
 70
     32
  0
VERTEX
  8
MY3DLAYER
10
-100.105604123699
20
131.587683226843
30
0.0
 70
     32
  0
VERTEX
  8
MY3DLAYER
10
-100.241268410828
20
131.643877214502
30
0.0
 70
     32
  0
VERTEX
  8
MY3DLAYER
10
-100.386854123699
20
131.663043937214
30
0.0
 70
     32
  0
VERTEX
  8
MY3DLAYER
10
-100.532439836569
20
131.643877214502
30
0.0
 70
     32
  0
VERTEX
  8
MY3DLAYER
10
-100.668104123699
20
131.587683226843
30
0.0
 70
     32
  0
VERTEX
  8
MY3DLAYER
10
-100.784601688116
20
131.498291501632
30
0.0
 70
     32
  0
VERTEX
  8
MY3DLAYER
10
-100.873993413327
20
131.381793937214
30
0.0
 70
     32
  0
VERTEX
  8
MY3DLAYER
10
-100.930187400986
20
131.246129650084
30
0.0
 70
     32
  0
VERTEX
  8
MY3DLAYER
10
-100.949354123699
20
131.100543937214
30
0.0
 70
     32
  0
VERTEX
  8
MY3DLAYER
10
-100.930187400986
20
130.954958224344
30
0.0
 70
     32
  0
VERTEX
  8
MY3DLAYER
10
-100.873993413327
20
130.819293937214
30
0.0
 70
     32
  0
VERTEX
  8
MY3DLAYER
10
-100.784601688116
20
130.702796372797
30
0.0
 70
     32
  0
VERTEX
  8
MY3DLAYER
10
-100.668104123699
20
130.613404647585
30
0.0
 70
     32
  0
VERTEX
  8
MY3DLAYER
10
-100.532439836569
20
130.557210659927
30
0.0
 70
     32
  0
VERTEX
  8
MY3DLAYER
10
-100.386854123699
20
130.538043937214
30
0.0
 70
     32
  0
VERTEX
  8
MY3DLAYER
10
-100.241268410828
20
130.557210659927
30
0.0
 70
     32
  0
VERTEX
  8
MY3DLAYER
10
-100.105604123699
20
130.613404647585
30
0.0
 70
     32
  0
VERTEX
  8
MY3DLAYER
10
-99.9891065592812
20
130.702796372797
30
0.0
 70
     32
  0
VERTEX
  8
MY3DLAYER
10
-99.8997148340699
20
130.819293937214
30
0.0
 70
     32
  0
VERTEX
  8
MY3DLAYER
10
-99.843520846411
20
130.954958224344
30
0.0
 70
     32
  0
SEQEND
  0
POLYLINE
 8
Layer0
 66
     1
70
    8
 10
0.0
 20
 0.0
 30
0.0
  0
VERTEX
  8
MY3DLAYER
10
-100.532439836569
20
126.557210659927
30
0.0
 70
     32
  0
VERTEX
  8
MY3DLAYER
10
-100.386854123699
20
126.538043937214
30
0.0
 70
     32
  0
VERTEX
  8
MY3DLAYER
10
-100.241268410828
20
126.557210659927
30
0.0
 70
     32
  0
VERTEX
  8
MY3DLAYER
10
-100.105604123699
20
126.613404647585
30
0.0
 70
     32
  0
VERTEX
  8
MY3DLAYER
10
-99.9891065592812
20
126.702796372797
30
0.0
 70
     32
  0
VERTEX
  8
MY3DLAYER
10
-99.8997148340699
20
126.819293937214
30
0.0
 70
     32
  0
VERTEX
  8
MY3DLAYER
10
-99.843520846411
20
126.954958224344
30
0.0
 70
     32
  0
VERTEX
  8
MY3DLAYER
10
-99.8243541236986
20
127.100543937214
30
0.0
 70
     32
  0
VERTEX
  8
MY3DLAYER
10
-99.843520846411
20
127.246129650084
30
0.0
 70
     32
  0
VERTEX
  8
MY3DLAYER
10
-99.8997148340699
20
127.381793937214
30
0.0
 70
     32
  0
VERTEX
  8
MY3DLAYER
10
-99.9891065592812
20
127.498291501632
30
0.0
 70
     32
  0
VERTEX
  8
MY3DLAYER
10
-100.105604123699
20
127.587683226843
30
0.0
 70
     32
  0
VERTEX
  8
MY3DLAYER
10
-100.241268410828
20
127.643877214502
30
0.0
 70
     32
  0
VERTEX
  8
MY3DLAYER
10
-100.386854123699
20
127.663043937214
30
0.0
 70
     32
  0
VERTEX
  8
MY3DLAYER
10
-100.532439836569
20
127.643877214502
30
0.0
 70
     32
  0
VERTEX
  8
MY3DLAYER
10
-100.668104123699
20
127.587683226843
30
0.0
 70
     32
  0
VERTEX
  8
MY3DLAYER
10
-100.784601688116
20
127.498291501632
30
0.0
 70
     32
  0
VERTEX
  8
MY3DLAYER
10
-100.873993413327
20
127.381793937214
30
0.0
 70
     32
  0
VERTEX
  8
MY3DLAYER
10
-100.930187400986
20
127.246129650084
30
0.0
 70
     32
  0
VERTEX
  8
MY3DLAYER
10
-100.949354123699
20
127.100543937214
30
0.0
 70
     32
  0
VERTEX
  8
MY3DLAYER
10
-100.930187400986
20
126.954958224344
30
0.0
 70
     32
  0
VERTEX
  8
MY3DLAYER
10
-100.873993413327
20
126.819293937214
30
0.0
 70
     32
  0
VERTEX
  8
MY3DLAYER
10
-100.784601688116
20
126.702796372797
30
0.0
 70
     32
  0
VERTEX
  8
MY3DLAYER
10
-100.668104123699
20
126.613404647585
30
0.0
 70
     32
  0
VERTEX
  8
MY3DLAYER
10
-100.532439836569
20
126.557210659927
30
0.0
 70
     32
  0
SEQEND
  0
POLYLINE
 8
Layer0
 66
     1
70
    8
 10
0.0
 20
 0.0
 30
0.0
  0
VERTEX
  8
MY3DLAYER
10
-99.843520846411
20
134.954958224344
30
0.0
 70
     32
  0
VERTEX
  8
MY3DLAYER
10
-99.8243541236986
20
135.100543937214
30
0.0
 70
     32
  0
VERTEX
  8
MY3DLAYER
10
-99.843520846411
20
135.246129650084
30
0.0
 70
     32
  0
VERTEX
  8
MY3DLAYER
10
-99.8997148340699
20
135.381793937214
30
0.0
 70
     32
  0
VERTEX
  8
MY3DLAYER
10
-99.9891065592812
20
135.498291501632
30
0.0
 70
     32
  0
VERTEX
  8
MY3DLAYER
10
-100.105604123699
20
135.587683226843
30
0.0
 70
     32
  0
VERTEX
  8
MY3DLAYER
10
-100.241268410828
20
135.643877214502
30
0.0
 70
     32
  0
VERTEX
  8
MY3DLAYER
10
-100.386854123699
20
135.663043937214
30
0.0
 70
     32
  0
VERTEX
  8
MY3DLAYER
10
-100.532439836569
20
135.643877214502
30
0.0
 70
     32
  0
VERTEX
  8
MY3DLAYER
10
-100.668104123699
20
135.587683226843
30
0.0
 70
     32
  0
VERTEX
  8
MY3DLAYER
10
-100.784601688116
20
135.498291501632
30
0.0
 70
     32
  0
VERTEX
  8
MY3DLAYER
10
-100.873993413327
20
135.381793937214
30
0.0
 70
     32
  0
VERTEX
  8
MY3DLAYER
10
-100.930187400986
20
135.246129650084
30
0.0
 70
     32
  0
VERTEX
  8
MY3DLAYER
10
-100.949354123699
20
135.100543937214
30
0.0
 70
     32
  0
VERTEX
  8
MY3DLAYER
10
-100.930187400986
20
134.954958224344
30
0.0
 70
     32
  0
VERTEX
  8
MY3DLAYER
10
-100.873993413327
20
134.819293937214
30
0.0
 70
     32
  0
VERTEX
  8
MY3DLAYER
10
-100.784601688116
20
134.702796372797
30
0.0
 70
     32
  0
VERTEX
  8
MY3DLAYER
10
-100.668104123699
20
134.613404647585
30
0.0
 70
     32
  0
VERTEX
  8
MY3DLAYER
10
-100.532439836569
20
134.557210659927
30
0.0
 70
     32
  0
VERTEX
  8
MY3DLAYER
10
-100.386854123699
20
134.538043937214
30
0.0
 70
     32
  0
VERTEX
  8
MY3DLAYER
10
-100.241268410828
20
134.557210659927
30
0.0
 70
     32
  0
VERTEX
  8
MY3DLAYER
10
-100.105604123699
20
134.613404647585
30
0.0
 70
     32
  0
VERTEX
  8
MY3DLAYER
10
-99.9891065592812
20
134.702796372797
30
0.0
 70
     32
  0
VERTEX
  8
MY3DLAYER
10
-99.8997148340699
20
134.819293937214
30
0.0
 70
     32
  0
VERTEX
  8
MY3DLAYER
10
-99.843520846411
20
134.954958224344
30
0.0
 70
     32
  0
SEQEND
 0
ENDSEC
 0
EOF
