ISO-10303-21;
HEADER;
FILE_DESCRIPTION (( 'STEP AP203' ),
    '1' );
FILE_NAME ('SleeveBearing.STEP',
    '2012-03-27T20:23:14',
    ( '' ),
    ( '' ),
    'SwSTEP 2.0',
    'SolidWorks 2010',
    '' );
FILE_SCHEMA (( 'CONFIG_CONTROL_DESIGN' ));
ENDSEC;

DATA;
#1 = DESIGN_CONTEXT ( 'detailed design', #185, 'design' ) ;
#2 = PRODUCT_DEFINITION_SHAPE ( 'NONE', 'NONE',  #28 ) ;
#3 = ADVANCED_FACE ( 'NONE', ( #253 ), #255, .T. ) ;
#4 = ADVANCED_FACE ( 'NONE', ( #251, #256 ), #104, .T. ) ;
#5 = ADVANCED_FACE ( 'NONE', ( #238 ), #259, .T. ) ;
#6 = ADVANCED_FACE ( 'NONE', ( #257, #260 ), #99, .F. ) ;
#7 = ADVANCED_FACE ( 'NONE', ( #258 ), #263, .T. ) ;
#8 = ADVANCED_FACE ( 'NONE', ( #261, #264 ), #92, .T. ) ;
#9 = ADVANCED_FACE ( 'NONE', ( #262 ), #267, .F. ) ;
#10 = ADVANCED_FACE ( 'NONE', ( #265 ), #269, .T. ) ;
#11 = ADVANCED_FACE ( 'NONE', ( #254 ), #271, .F. ) ;
#12 = MANIFOLD_SOLID_BREP ( 'Cut-Extrude1', #252 ) ;
#13 = UNCERTAINTY_MEASURE_WITH_UNIT (LENGTH_MEASURE( 1.000000000000000100E-005 ), #175, 'distance_accuracy_value', 'NONE');
#14 = ADVANCED_BREP_SHAPE_REPRESENTATION ( 'SleeveBearing', ( #12, #26 ), #293 ) ;
#15 = PRODUCT_RELATED_PRODUCT_CATEGORY ( 'detail', '', ( #201 ) ) ;
#16 = CC_DESIGN_SECURITY_CLASSIFICATION ( #21, ( #31 ) ) ;
#17 = CC_DESIGN_APPROVAL ( #18, ( #21 ) ) ;
#18 = APPROVAL ( #198, 'UNSPECIFIED' ) ;
#19 = CC_DESIGN_DATE_AND_TIME_ASSIGNMENT ( #322, #197, ( #21 ) ) ;
#20 = CC_DESIGN_PERSON_AND_ORGANIZATION_ASSIGNMENT ( #318, #196, ( #21 ) ) ;
#21 = SECURITY_CLASSIFICATION ( '', '', #195 ) ;
#22 = CC_DESIGN_PERSON_AND_ORGANIZATION_ASSIGNMENT ( #317, #194, ( #31 ) ) ;
#23 = CC_DESIGN_PERSON_AND_ORGANIZATION_ASSIGNMENT ( #316, #193, ( #31 ) ) ;
#24 = CC_DESIGN_APPROVAL ( #25, ( #31 ) ) ;
#25 = APPROVAL ( #191, 'UNSPECIFIED' ) ;
#26 = AXIS2_PLACEMENT_3D ( 'NONE', #179, #176, #180 ) ;
#27 = CC_DESIGN_PERSON_AND_ORGANIZATION_ASSIGNMENT ( #296, #184, ( #201 ) ) ;
#28 = PRODUCT_DEFINITION ( 'UNKNOWN', '', #31, #1 ) ;
#29 = APPROVAL ( #187, 'UNSPECIFIED' ) ;
#30 = CC_DESIGN_PERSON_AND_ORGANIZATION_ASSIGNMENT ( #304, #189, ( #28 ) ) ;
#31 = PRODUCT_DEFINITION_FORMATION_WITH_SPECIFIED_SOURCE ( 'ANY', '', #201, .NOT_KNOWN. ) ;
#32 = CC_DESIGN_APPROVAL ( #29, ( #28 ) ) ;
#33 = CC_DESIGN_DATE_AND_TIME_ASSIGNMENT ( #308, #190, ( #28 ) ) ;
#34 = AXIS2_PLACEMENT_3D ( 'NONE', #156, #164, #165 ) ;
#35 = AXIS2_PLACEMENT_3D ( 'NONE', #153, #160, #161 ) ;
#36 = AXIS2_PLACEMENT_3D ( 'NONE', #150, #157, #158 ) ;
#37 = AXIS2_PLACEMENT_3D ( 'NONE', #147, #154, #155 ) ;
#38 = AXIS2_PLACEMENT_3D ( 'NONE', #144, #151, #152 ) ;
#39 = AXIS2_PLACEMENT_3D ( 'NONE', #128, #143, #138 ) ;
#40 = AXIS2_PLACEMENT_3D ( 'NONE', #131, #137, #130 ) ;
#41 = AXIS2_PLACEMENT_3D ( 'NONE', #129, #142, #134 ) ;
#42 = AXIS2_PLACEMENT_3D ( 'NONE', #78, #83, #87 ) ;
#43 = AXIS2_PLACEMENT_3D ( 'NONE', #85, #86, #88 ) ;
#44 = AXIS2_PLACEMENT_3D ( 'NONE', #106, #120, #103 ) ;
#45 = AXIS2_PLACEMENT_3D ( 'NONE', #95, #94, #91 ) ;
#46 = AXIS2_PLACEMENT_3D ( 'NONE', #93, #90, #89 ) ;
#47 = AXIS2_PLACEMENT_3D ( 'NONE', #102, #101, #98 ) ;
#48 = AXIS2_PLACEMENT_3D ( 'NONE', #100, #97, #96 ) ;
#49 = AXIS2_PLACEMENT_3D ( 'NONE', #105, #76, #77 ) ;
#50 = AXIS2_PLACEMENT_3D ( 'NONE', #111, #121, #119 ) ;
#51 = EDGE_CURVE ( 'NONE', #108, #107, #272, .T. ) ;
#52 = EDGE_CURVE ( 'NONE', #113, #114, #273, .T. ) ;
#53 = EDGE_CURVE ( 'NONE', #117, #118, #275, .T. ) ;
#54 = EDGE_CURVE ( 'NONE', #112, #113, #274, .T. ) ;
#55 = EDGE_CURVE ( 'NONE', #122, #114, #276, .T. ) ;
#56 = EDGE_CURVE ( 'NONE', #112, #122, #281, .T. ) ;
#57 = EDGE_CURVE ( 'NONE', #115, #117, #280, .T. ) ;
#58 = EDGE_CURVE ( 'NONE', #115, #116, #283, .T. ) ;
#59 = EDGE_CURVE ( 'NONE', #116, #118, #282, .T. ) ;
#60 = EDGE_CURVE ( 'NONE', #110, #108, #270, .T. ) ;
#61 = EDGE_CURVE ( 'NONE', #110, #109, #286, .T. ) ;
#62 = EDGE_CURVE ( 'NONE', #109, #107, #285, .T. ) ;
#63 = EDGE_CURVE ( 'NONE', #107, #108, #287, .T. ) ;
#64 = EDGE_CURVE ( 'NONE', #109, #110, #288, .T. ) ;
#65 = EDGE_CURVE ( 'NONE', #118, #117, #289, .T. ) ;
#66 = EDGE_CURVE ( 'NONE', #116, #115, #290, .T. ) ;
#67 = EDGE_CURVE ( 'NONE', #122, #112, #291, .T. ) ;
#68 = AXIS2_PLACEMENT_3D ( 'NONE', #84, #79, #81 ) ;
#69 = AXIS2_PLACEMENT_3D ( 'NONE', #146, #148, #149 ) ;
#70 = AXIS2_PLACEMENT_3D ( 'NONE', #74, #123, #124 ) ;
#71 = EDGE_CURVE ( 'NONE', #114, #113, #292, .T. ) ;
#72 = AXIS2_PLACEMENT_3D ( 'NONE', #82, #75, #73 ) ;
#73 = DIRECTION ( 'NONE',  ( 0.0000000000000000000, 0.0000000000000000000, 1.000000000000000000 ) ) ;
#74 = CARTESIAN_POINT ( 'NONE',  ( 0.0000000000000000000, 3.000000000000000000, 0.0000000000000000000 ) ) ;
#75 = DIRECTION ( 'NONE',  ( 0.0000000000000000000, 1.000000000000000000, 0.0000000000000000000 ) ) ;
#76 = DIRECTION ( 'NONE',  ( 0.0000000000000000000, 1.000000000000000000, 0.0000000000000000000 ) ) ;
#77 = DIRECTION ( 'NONE',  ( 0.0000000000000000000, -0.0000000000000000000, 1.000000000000000000 ) ) ;
#78 = CARTESIAN_POINT ( 'NONE',  ( 0.0000000000000000000, 0.0000000000000000000, 0.0000000000000000000 ) ) ;
#79 = DIRECTION ( 'NONE',  ( 0.0000000000000000000, 1.000000000000000000, 0.0000000000000000000 ) ) ;
#80 = CARTESIAN_POINT ( 'NONE',  ( 7.347880794884120700E-016, 0.0000000000000000000, -6.000000000000000900 ) ) ;
#81 = DIRECTION ( 'NONE',  ( 0.0000000000000000000, 0.0000000000000000000, 1.000000000000000000 ) ) ;
#82 = CARTESIAN_POINT ( 'NONE',  ( 0.0000000000000000000, 11.00000000000000000, 0.0000000000000000000 ) ) ;
#83 = DIRECTION ( 'NONE',  ( -0.0000000000000000000, 1.000000000000000000, -0.0000000000000000000 ) ) ;
#84 = CARTESIAN_POINT ( 'NONE',  ( 0.0000000000000000000, 0.0000000000000000000, 0.0000000000000000000 ) ) ;
#85 = CARTESIAN_POINT ( 'NONE',  ( 0.0000000000000000000, 11.00000000000000000, 0.0000000000000000000 ) ) ;
#86 = DIRECTION ( 'NONE',  ( -0.0000000000000000000, -1.000000000000000000, -0.0000000000000000000 ) ) ;
#87 = DIRECTION ( 'NONE',  ( 0.0000000000000000000, 0.0000000000000000000, 1.000000000000000000 ) ) ;
#88 = DIRECTION ( 'NONE',  ( 0.0000000000000000000, 0.0000000000000000000, -1.000000000000000000 ) ) ;
#89 = DIRECTION ( 'NONE',  ( 0.0000000000000000000, -0.0000000000000000000, 1.000000000000000000 ) ) ;
#90 = DIRECTION ( 'NONE',  ( 0.0000000000000000000, 1.000000000000000000, 0.0000000000000000000 ) ) ;
#91 = DIRECTION ( 'NONE',  ( 0.0000000000000000000, 0.0000000000000000000, 1.000000000000000000 ) ) ;
#92 = PLANE ( 'NONE',  #46 ) ;
#93 = CARTESIAN_POINT ( 'NONE',  ( 0.0000000000000000000, 11.00000000000000000, 0.0000000000000000000 ) ) ;
#94 = DIRECTION ( 'NONE',  ( -0.0000000000000000000, 1.000000000000000000, -0.0000000000000000000 ) ) ;
#95 = CARTESIAN_POINT ( 'NONE',  ( 0.0000000000000000000, 0.0000000000000000000, 0.0000000000000000000 ) ) ;
#96 = DIRECTION ( 'NONE',  ( 0.0000000000000000000, -0.0000000000000000000, 1.000000000000000000 ) ) ;
#97 = DIRECTION ( 'NONE',  ( 0.0000000000000000000, 1.000000000000000000, 0.0000000000000000000 ) ) ;
#98 = DIRECTION ( 'NONE',  ( 0.0000000000000000000, 0.0000000000000000000, -1.000000000000000000 ) ) ;
#99 = PLANE ( 'NONE',  #48 ) ;
#100 = CARTESIAN_POINT ( 'NONE',  ( 0.0000000000000000000, 0.0000000000000000000, 0.0000000000000000000 ) ) ;
#101 = DIRECTION ( 'NONE',  ( -0.0000000000000000000, -1.000000000000000000, -0.0000000000000000000 ) ) ;
#102 = CARTESIAN_POINT ( 'NONE',  ( 0.0000000000000000000, 11.00000000000000000, 0.0000000000000000000 ) ) ;
#103 = DIRECTION ( 'NONE',  ( 0.0000000000000000000, 0.0000000000000000000, -1.000000000000000000 ) ) ;
#104 = PLANE ( 'NONE',  #49 ) ;
#105 = CARTESIAN_POINT ( 'NONE',  ( 0.0000000000000000000, 3.000000000000000000, 0.0000000000000000000 ) ) ;
#106 = CARTESIAN_POINT ( 'NONE',  ( 0.0000000000000000000, 3.000000000000000000, 0.0000000000000000000 ) ) ;
#107 = VERTEX_POINT ( 'NONE', #162 ) ;
#108 = VERTEX_POINT ( 'NONE', #163 ) ;
#109 = VERTEX_POINT ( 'NONE', #166 ) ;
#110 = VERTEX_POINT ( 'NONE', #167 ) ;
#111 = CARTESIAN_POINT ( 'NONE',  ( 0.0000000000000000000, 3.000000000000000000, 0.0000000000000000000 ) ) ;
#112 = VERTEX_POINT ( 'NONE', #168 ) ;
#113 = VERTEX_POINT ( 'NONE', #169 ) ;
#114 = VERTEX_POINT ( 'NONE', #159 ) ;
#115 = VERTEX_POINT ( 'NONE', #170 ) ;
#116 = VERTEX_POINT ( 'NONE', #171 ) ;
#117 = VERTEX_POINT ( 'NONE', #172 ) ;
#118 = VERTEX_POINT ( 'NONE', #173 ) ;
#119 = DIRECTION ( 'NONE',  ( 0.0000000000000000000, 0.0000000000000000000, -1.000000000000000000 ) ) ;
#120 = DIRECTION ( 'NONE',  ( -0.0000000000000000000, -1.000000000000000000, -0.0000000000000000000 ) ) ;
#121 = DIRECTION ( 'NONE',  ( -0.0000000000000000000, -1.000000000000000000, -0.0000000000000000000 ) ) ;
#122 = VERTEX_POINT ( 'NONE', #174 ) ;
#123 = DIRECTION ( 'NONE',  ( 0.0000000000000000000, 1.000000000000000000, 0.0000000000000000000 ) ) ;
#124 = DIRECTION ( 'NONE',  ( 0.0000000000000000000, 0.0000000000000000000, 1.000000000000000000 ) ) ;
#125 = CARTESIAN_POINT ( 'NONE',  ( 0.0000000000000000000, 11.00000000000000000, -9.000000000000000000 ) ) ;
#126 = DIRECTION ( 'NONE',  ( -0.0000000000000000000, 1.000000000000000000, -0.0000000000000000000 ) ) ;
#127 = CARTESIAN_POINT ( 'NONE',  ( 1.102182119232617700E-015, 11.00000000000000000, 9.000000000000000000 ) ) ;
#128 = CARTESIAN_POINT ( 'NONE',  ( 0.0000000000000000000, 11.00000000000000000, 0.0000000000000000000 ) ) ;
#129 = CARTESIAN_POINT ( 'NONE',  ( 0.0000000000000000000, 0.0000000000000000000, 0.0000000000000000000 ) ) ;
#130 = DIRECTION ( 'NONE',  ( 0.0000000000000000000, 0.0000000000000000000, 1.000000000000000000 ) ) ;
#131 = CARTESIAN_POINT ( 'NONE',  ( 0.0000000000000000000, 3.000000000000000000, 0.0000000000000000000 ) ) ;
#132 = CARTESIAN_POINT ( 'NONE',  ( 1.469576158976823600E-015, 3.000000000000000000, 11.99999999999999600 ) ) ;
#133 = DIRECTION ( 'NONE',  ( -0.0000000000000000000, -1.000000000000000000, -0.0000000000000000000 ) ) ;
#134 = DIRECTION ( 'NONE',  ( 0.0000000000000000000, 0.0000000000000000000, 1.000000000000000000 ) ) ;
#135 = CARTESIAN_POINT ( 'NONE',  ( 0.0000000000000000000, 3.000000000000000000, -11.99999999999999600 ) ) ;
#136 = DIRECTION ( 'NONE',  ( -0.0000000000000000000, -1.000000000000000000, -0.0000000000000000000 ) ) ;
#137 = DIRECTION ( 'NONE',  ( 0.0000000000000000000, 1.000000000000000000, 0.0000000000000000000 ) ) ;
#138 = DIRECTION ( 'NONE',  ( 0.0000000000000000000, 0.0000000000000000000, 1.000000000000000000 ) ) ;
#139 = DIRECTION ( 'NONE',  ( -0.0000000000000000000, 1.000000000000000000, -0.0000000000000000000 ) ) ;
#140 = CARTESIAN_POINT ( 'NONE',  ( 0.0000000000000000000, 0.0000000000000000000, 6.000000000000000900 ) ) ;
#141 = DIRECTION ( 'NONE',  ( -0.0000000000000000000, -1.000000000000000000, -0.0000000000000000000 ) ) ;
#142 = DIRECTION ( 'NONE',  ( 0.0000000000000000000, 1.000000000000000000, 0.0000000000000000000 ) ) ;
#143 = DIRECTION ( 'NONE',  ( 0.0000000000000000000, 1.000000000000000000, 0.0000000000000000000 ) ) ;
#144 = CARTESIAN_POINT ( 'NONE',  ( 0.0000000000000000000, 3.000000000000000000, 0.0000000000000000000 ) ) ;
#145 = DIRECTION ( 'NONE',  ( -0.0000000000000000000, -1.000000000000000000, -0.0000000000000000000 ) ) ;
#146 = CARTESIAN_POINT ( 'NONE',  ( 0.0000000000000000000, 0.0000000000000000000, 0.0000000000000000000 ) ) ;
#147 = CARTESIAN_POINT ( 'NONE',  ( 0.0000000000000000000, 3.000000000000000000, 0.0000000000000000000 ) ) ;
#148 = DIRECTION ( 'NONE',  ( 0.0000000000000000000, 1.000000000000000000, 0.0000000000000000000 ) ) ;
#149 = DIRECTION ( 'NONE',  ( 0.0000000000000000000, 0.0000000000000000000, 1.000000000000000000 ) ) ;
#150 = CARTESIAN_POINT ( 'NONE',  ( 0.0000000000000000000, 11.00000000000000000, 0.0000000000000000000 ) ) ;
#151 = DIRECTION ( 'NONE',  ( 0.0000000000000000000, 1.000000000000000000, 0.0000000000000000000 ) ) ;
#152 = DIRECTION ( 'NONE',  ( 0.0000000000000000000, 0.0000000000000000000, 1.000000000000000000 ) ) ;
#153 = CARTESIAN_POINT ( 'NONE',  ( 0.0000000000000000000, 0.0000000000000000000, 0.0000000000000000000 ) ) ;
#154 = DIRECTION ( 'NONE',  ( 0.0000000000000000000, 1.000000000000000000, 0.0000000000000000000 ) ) ;
#155 = DIRECTION ( 'NONE',  ( 0.0000000000000000000, 0.0000000000000000000, 1.000000000000000000 ) ) ;
#156 = CARTESIAN_POINT ( 'NONE',  ( 0.0000000000000000000, 11.00000000000000000, 0.0000000000000000000 ) ) ;
#157 = DIRECTION ( 'NONE',  ( 0.0000000000000000000, 1.000000000000000000, 0.0000000000000000000 ) ) ;
#158 = DIRECTION ( 'NONE',  ( 0.0000000000000000000, 0.0000000000000000000, 1.000000000000000000 ) ) ;
#159 = CARTESIAN_POINT ( 'NONE',  ( 0.0000000000000000000, 11.00000000000000000, 6.000000000000000900 ) ) ;
#160 = DIRECTION ( 'NONE',  ( 0.0000000000000000000, 1.000000000000000000, 0.0000000000000000000 ) ) ;
#161 = DIRECTION ( 'NONE',  ( 0.0000000000000000000, 0.0000000000000000000, 1.000000000000000000 ) ) ;
#162 = CARTESIAN_POINT ( 'NONE',  ( 0.0000000000000000000, 0.0000000000000000000, -11.99999999999999600 ) ) ;
#163 = CARTESIAN_POINT ( 'NONE',  ( 1.469576158976823600E-015, 0.0000000000000000000, 11.99999999999999600 ) ) ;
#164 = DIRECTION ( 'NONE',  ( 0.0000000000000000000, 1.000000000000000000, 0.0000000000000000000 ) ) ;
#165 = DIRECTION ( 'NONE',  ( 0.0000000000000000000, 0.0000000000000000000, 1.000000000000000000 ) ) ;
#166 = CARTESIAN_POINT ( 'NONE',  ( 0.0000000000000000000, 3.000000000000000000, -11.99999999999999600 ) ) ;
#167 = CARTESIAN_POINT ( 'NONE',  ( 1.469576158976823600E-015, 3.000000000000000000, 11.99999999999999600 ) ) ;
#168 = CARTESIAN_POINT ( 'NONE',  ( 7.347880794884120700E-016, 0.0000000000000000000, -6.000000000000000900 ) ) ;
#169 = CARTESIAN_POINT ( 'NONE',  ( 7.347880794884120700E-016, 11.00000000000000000, -6.000000000000000900 ) ) ;
#170 = CARTESIAN_POINT ( 'NONE',  ( 1.102182119232617700E-015, 11.00000000000000000, 9.000000000000000000 ) ) ;
#171 = CARTESIAN_POINT ( 'NONE',  ( 0.0000000000000000000, 11.00000000000000000, -9.000000000000000000 ) ) ;
#172 = CARTESIAN_POINT ( 'NONE',  ( 1.102182119232617700E-015, 3.000000000000000000, 9.000000000000000000 ) ) ;
#173 = CARTESIAN_POINT ( 'NONE',  ( 0.0000000000000000000, 3.000000000000000000, -9.000000000000000000 ) ) ;
#174 = CARTESIAN_POINT ( 'NONE',  ( 0.0000000000000000000, 0.0000000000000000000, 6.000000000000000900 ) ) ;
#175 =( LENGTH_UNIT ( ) NAMED_UNIT ( * ) SI_UNIT ( .MILLI., .METRE. ) );
#176 = DIRECTION ( 'NONE',  ( 0.0000000000000000000, 0.0000000000000000000, 1.000000000000000000 ) ) ;
#177 =( NAMED_UNIT ( * ) PLANE_ANGLE_UNIT ( ) SI_UNIT ( $, .RADIAN. ) );
#178 =( NAMED_UNIT ( * ) SI_UNIT ( $, .STERADIAN. ) SOLID_ANGLE_UNIT ( ) );
#179 = CARTESIAN_POINT ( 'NONE',  ( 0.0000000000000000000, 0.0000000000000000000, 0.0000000000000000000 ) ) ;
#180 = DIRECTION ( 'NONE',  ( 1.000000000000000000, 0.0000000000000000000, 0.0000000000000000000 ) ) ;
#181 = APPLICATION_CONTEXT ( 'configuration controlled 3d designs of mechanical parts and assemblies' ) ;
#182 = APPLICATION_PROTOCOL_DEFINITION ( 'international standard', 'config_control_design', 1994, #181 ) ;
#183 = MECHANICAL_CONTEXT ( 'NONE', #181, 'mechanical' ) ;
#184 = PERSON_AND_ORGANIZATION_ROLE ( 'design_owner' ) ;
#185 = APPLICATION_CONTEXT ( 'configuration controlled 3d designs of mechanical parts and assemblies' ) ;
#186 = APPLICATION_PROTOCOL_DEFINITION ( 'international standard', 'config_control_design', 1994, #185 ) ;
#187 = APPROVAL_STATUS ( 'not_yet_approved' ) ;
#188 = APPROVAL_ROLE ( '' ) ;
#189 = PERSON_AND_ORGANIZATION_ROLE ( 'creator' ) ;
#190 = DATE_TIME_ROLE ( 'creation_date' ) ;
#191 = APPROVAL_STATUS ( 'not_yet_approved' ) ;
#192 = APPROVAL_ROLE ( '' ) ;
#193 = PERSON_AND_ORGANIZATION_ROLE ( 'creator' ) ;
#194 = PERSON_AND_ORGANIZATION_ROLE ( 'design_supplier' ) ;
#195 = SECURITY_CLASSIFICATION_LEVEL ( 'unclassified' ) ;
#196 = PERSON_AND_ORGANIZATION_ROLE ( 'classification_officer' ) ;
#197 = DATE_TIME_ROLE ( 'classification_date' ) ;
#198 = APPROVAL_STATUS ( 'not_yet_approved' ) ;
#199 = APPROVAL_ROLE ( '' ) ;
#200 = PERSON ( 'UNSPECIFIED', 'UNSPECIFIED', 'UNSPECIFIED', ('UNSPECIFIED'), ('UNSPECIFIED'), ('UNSPECIFIED') ) ;
#201 = PRODUCT ( 'SleeveBearing', 'SleeveBearing', '', ( #183 ) ) ;
#202 = ORIENTED_EDGE ( 'NONE', *, *, #53, .T. ) ;
#203 = ORIENTED_EDGE ( 'NONE', *, *, #59, .F. ) ;
#204 = ORIENTED_EDGE ( 'NONE', *, *, #58, .F. ) ;
#205 = ORIENTED_EDGE ( 'NONE', *, *, #54, .T. ) ;
#206 = ORIENTED_EDGE ( 'NONE', *, *, #51, .T. ) ;
#207 = ORIENTED_EDGE ( 'NONE', *, *, #61, .F. ) ;
#208 = ORIENTED_EDGE ( 'NONE', *, *, #57, .T. ) ;
#209 = ORIENTED_EDGE ( 'NONE', *, *, #52, .T. ) ;
#210 = ORIENTED_EDGE ( 'NONE', *, *, #60, .T. ) ;
#211 = ORIENTED_EDGE ( 'NONE', *, *, #56, .F. ) ;
#212 = ORIENTED_EDGE ( 'NONE', *, *, #55, .F. ) ;
#213 = ORIENTED_EDGE ( 'NONE', *, *, #62, .F. ) ;
#214 = ORIENTED_EDGE ( 'NONE', *, *, #64, .T. ) ;
#215 = ORIENTED_EDGE ( 'NONE', *, *, #61, .T. ) ;
#216 = ORIENTED_EDGE ( 'NONE', *, *, #65, .F. ) ;
#217 = ORIENTED_EDGE ( 'NONE', *, *, #53, .F. ) ;
#218 = ORIENTED_EDGE ( 'NONE', *, *, #60, .F. ) ;
#219 = ORIENTED_EDGE ( 'NONE', *, *, #62, .T. ) ;
#220 = ORIENTED_EDGE ( 'NONE', *, *, #63, .T. ) ;
#221 = ORIENTED_EDGE ( 'NONE', *, *, #64, .F. ) ;
#222 = ORIENTED_EDGE ( 'NONE', *, *, #67, .T. ) ;
#223 = ORIENTED_EDGE ( 'NONE', *, *, #56, .T. ) ;
#224 = ORIENTED_EDGE ( 'NONE', *, *, #57, .F. ) ;
#225 = ORIENTED_EDGE ( 'NONE', *, *, #51, .F. ) ;
#226 = ORIENTED_EDGE ( 'NONE', *, *, #66, .F. ) ;
#227 = ORIENTED_EDGE ( 'NONE', *, *, #63, .F. ) ;
#228 = ORIENTED_EDGE ( 'NONE', *, *, #59, .T. ) ;
#229 = ORIENTED_EDGE ( 'NONE', *, *, #65, .T. ) ;
#230 = ORIENTED_EDGE ( 'NONE', *, *, #66, .T. ) ;
#231 = ORIENTED_EDGE ( 'NONE', *, *, #71, .F. ) ;
#232 = ORIENTED_EDGE ( 'NONE', *, *, #52, .F. ) ;
#233 = ORIENTED_EDGE ( 'NONE', *, *, #58, .T. ) ;
#234 = ORIENTED_EDGE ( 'NONE', *, *, #54, .F. ) ;
#235 = ORIENTED_EDGE ( 'NONE', *, *, #67, .F. ) ;
#236 = ORIENTED_EDGE ( 'NONE', *, *, #55, .T. ) ;
#237 = ORIENTED_EDGE ( 'NONE', *, *, #71, .T. ) ;
#238 = FACE_OUTER_BOUND ( 'NONE', #243, .T. ) ;
#239 = EDGE_LOOP ( 'NONE', ( #230, #233 ) ) ;
#240 = EDGE_LOOP ( 'NONE', ( #227, #225 ) ) ;
#241 = EDGE_LOOP ( 'NONE', ( #214, #215 ) ) ;
#242 = EDGE_LOOP ( 'NONE', ( #211, #205, #209, #212 ) ) ;
#243 = EDGE_LOOP ( 'NONE', ( #218, #221, #219, #220 ) ) ;
#244 = EDGE_LOOP ( 'NONE', ( #204, #208, #202, #203 ) ) ;
#245 = EDGE_LOOP ( 'NONE', ( #207, #210, #206, #213 ) ) ;
#246 = EDGE_LOOP ( 'NONE', ( #224, #226, #228, #229 ) ) ;
#247 = EDGE_LOOP ( 'NONE', ( #222, #223 ) ) ;
#248 = EDGE_LOOP ( 'NONE', ( #234, #235, #236, #237 ) ) ;
#249 = EDGE_LOOP ( 'NONE', ( #231, #232 ) ) ;
#250 = EDGE_LOOP ( 'NONE', ( #216, #217 ) ) ;
#251 = FACE_OUTER_BOUND ( 'NONE', #241, .T. ) ;
#252 = CLOSED_SHELL ( 'NONE', ( #11, #10, #3, #4, #5, #6, #7, #8, #9 ) ) ;
#253 = FACE_OUTER_BOUND ( 'NONE', #245, .T. ) ;
#254 = FACE_OUTER_BOUND ( 'NONE', #242, .T. ) ;
#255 = CYLINDRICAL_SURFACE ( 'NONE', #50, 11.99999999999999600 ) ;
#256 = FACE_BOUND ( 'NONE', #250, .T. ) ;
#257 = FACE_BOUND ( 'NONE', #247, .T. ) ;
#258 = FACE_OUTER_BOUND ( 'NONE', #246, .T. ) ;
#259 = CYLINDRICAL_SURFACE ( 'NONE', #44, 11.99999999999999600 ) ;
#260 = FACE_OUTER_BOUND ( 'NONE', #240, .T. ) ;
#261 = FACE_BOUND ( 'NONE', #249, .T. ) ;
#262 = FACE_OUTER_BOUND ( 'NONE', #248, .T. ) ;
#263 = CYLINDRICAL_SURFACE ( 'NONE', #47, 9.000000000000000000 ) ;
#264 = FACE_OUTER_BOUND ( 'NONE', #239, .T. ) ;
#265 = FACE_OUTER_BOUND ( 'NONE', #244, .T. ) ;
#266 = VECTOR ( 'NONE', #141, 1000.000000000000000 ) ;
#267 = CYLINDRICAL_SURFACE ( 'NONE', #45, 6.000000000000000900 ) ;
#268 = VECTOR ( 'NONE', #126, 1000.000000000000000 ) ;
#269 = CYLINDRICAL_SURFACE ( 'NONE', #43, 9.000000000000000000 ) ;
#270 = LINE ( 'NONE', #132, #284 ) ;
#271 = CYLINDRICAL_SURFACE ( 'NONE', #42, 6.000000000000000900 ) ;
#272 = CIRCLE ( 'NONE', #68, 11.99999999999999600 ) ;
#273 = CIRCLE ( 'NONE', #72, 6.000000000000000900 ) ;
#274 = LINE ( 'NONE', #80, #268 ) ;
#275 = CIRCLE ( 'NONE', #70, 9.000000000000000000 ) ;
#276 = LINE ( 'NONE', #140, #277 ) ;
#277 = VECTOR ( 'NONE', #139, 1000.000000000000000 ) ;
#278 = VECTOR ( 'NONE', #133, 1000.000000000000000 ) ;
#279 = VECTOR ( 'NONE', #145, 1000.000000000000000 ) ;
#280 = LINE ( 'NONE', #127, #266 ) ;
#281 = CIRCLE ( 'NONE', #41, 6.000000000000000900 ) ;
#282 = LINE ( 'NONE', #125, #278 ) ;
#283 = CIRCLE ( 'NONE', #39, 9.000000000000000000 ) ;
#284 = VECTOR ( 'NONE', #136, 1000.000000000000000 ) ;
#285 = LINE ( 'NONE', #135, #279 ) ;
#286 = CIRCLE ( 'NONE', #40, 11.99999999999999600 ) ;
#287 = CIRCLE ( 'NONE', #69, 11.99999999999999600 ) ;
#288 = CIRCLE ( 'NONE', #38, 11.99999999999999600 ) ;
#289 = CIRCLE ( 'NONE', #37, 9.000000000000000000 ) ;
#290 = CIRCLE ( 'NONE', #36, 9.000000000000000000 ) ;
#291 = CIRCLE ( 'NONE', #35, 6.000000000000000900 ) ;
#292 = CIRCLE ( 'NONE', #34, 6.000000000000000900 ) ;
#293 =( GEOMETRIC_REPRESENTATION_CONTEXT ( 3 ) GLOBAL_UNCERTAINTY_ASSIGNED_CONTEXT ( ( #13 ) ) GLOBAL_UNIT_ASSIGNED_CONTEXT ( ( #175, #177, #178 ) ) REPRESENTATION_CONTEXT ( 'NONE', 'WORKASPACE' ) );
#294 = SHAPE_DEFINITION_REPRESENTATION ( #2, #14 ) ;
#295 = ORGANIZATION ( 'UNSPECIFIED', 'UNSPECIFIED', '' ) ;
#296 = PERSON_AND_ORGANIZATION ( #200, #295 ) ;
#297 = PERSON_AND_ORGANIZATION ( #200, #295 ) ;
#298 = APPROVAL_PERSON_ORGANIZATION ( #297, #29, #188 ) ;
#299 = COORDINATED_UNIVERSAL_TIME_OFFSET ( 5, 0, .BEHIND. ) ;
#300 = LOCAL_TIME ( 16, 23, 14.00000000000000000, #299 ) ;
#301 = CALENDAR_DATE ( 2012, 27, 3 ) ;
#302 = DATE_AND_TIME ( #301, #300 ) ;
#303 = APPROVAL_DATE_TIME ( #302, #29 ) ;
#304 = PERSON_AND_ORGANIZATION ( #200, #295 ) ;
#305 = COORDINATED_UNIVERSAL_TIME_OFFSET ( 5, 0, .BEHIND. ) ;
#306 = LOCAL_TIME ( 16, 23, 14.00000000000000000, #305 ) ;
#307 = CALENDAR_DATE ( 2012, 27, 3 ) ;
#308 = DATE_AND_TIME ( #307, #306 ) ;
#309 = PERSON_AND_ORGANIZATION ( #200, #295 ) ;
#310 = APPROVAL_PERSON_ORGANIZATION ( #309, #25, #192 ) ;
#311 = COORDINATED_UNIVERSAL_TIME_OFFSET ( 5, 0, .BEHIND. ) ;
#312 = LOCAL_TIME ( 16, 23, 14.00000000000000000, #311 ) ;
#313 = CALENDAR_DATE ( 2012, 27, 3 ) ;
#314 = DATE_AND_TIME ( #313, #312 ) ;
#315 = APPROVAL_DATE_TIME ( #314, #25 ) ;
#316 = PERSON_AND_ORGANIZATION ( #200, #295 ) ;
#317 = PERSON_AND_ORGANIZATION ( #200, #295 ) ;
#318 = PERSON_AND_ORGANIZATION ( #200, #295 ) ;
#319 = COORDINATED_UNIVERSAL_TIME_OFFSET ( 5, 0, .BEHIND. ) ;
#320 = LOCAL_TIME ( 16, 23, 14.00000000000000000, #319 ) ;
#321 = CALENDAR_DATE ( 2012, 27, 3 ) ;
#322 = DATE_AND_TIME ( #321, #320 ) ;
#323 = PERSON_AND_ORGANIZATION ( #200, #295 ) ;
#324 = APPROVAL_PERSON_ORGANIZATION ( #323, #18, #199 ) ;
#325 = COORDINATED_UNIVERSAL_TIME_OFFSET ( 5, 0, .BEHIND. ) ;
#326 = LOCAL_TIME ( 16, 23, 14.00000000000000000, #325 ) ;
#327 = CALENDAR_DATE ( 2012, 27, 3 ) ;
#328 = DATE_AND_TIME ( #327, #326 ) ;
#329 = APPROVAL_DATE_TIME ( #328, #18 ) ;
ENDSEC;
END-ISO-10303-21;
