ISO-10303-21;
HEADER;
/* Generated by software containing ST-Developer
 * from STEP Tools, Inc. (www.steptools.com) 
 */

FILE_DESCRIPTION(
/* description */ ('Alibre Inc.'),
/* implementation_level */ '2;1');

FILE_NAME(
/* name */ 'export0',
/* time_stamp */ '2012-03-24T09:36:18-06:00',
/* author */ (''),
/* organization */ (''),
/* preprocessor_version */ 'ST-DEVELOPER v14',
/* originating_system */ 'Alibre',
/* authorisation */ '');

FILE_SCHEMA (('CONFIG_CONTROL_DESIGN'));
ENDSEC;

DATA;
#10=MECHANICAL_CONTEXT('detailed design',#18,'mechanical');
#11=PRODUCT_RELATED_PRODUCT_CATEGORY('detail','',(#98));
#12=CC_DESIGN_SECURITY_CLASSIFICATION(#14,(#97));
#13=SECURITY_CLASSIFICATION_LEVEL('unclassified');
#14=SECURITY_CLASSIFICATION('name','Security for version',#13);
#15=SHAPE_DEFINITION_REPRESENTATION(#16,#380);
#16=PRODUCT_DEFINITION_SHAPE('','DefinitionDesc',#96);
#17=APPLICATION_PROTOCOL_DEFINITION('AP definition status',
'config_control_design',1994,#18);
#18=APPLICATION_CONTEXT(
'control the configuration of three dimensional design');
#19=DESIGN_CONTEXT('detailed design',#18,'design');
#20=PERSON_AND_ORGANIZATION_ROLE('creator');
#21=PERSON_AND_ORGANIZATION_ROLE('classification_officer');
#22=PERSON_AND_ORGANIZATION_ROLE('creator');
#23=PERSON_AND_ORGANIZATION_ROLE('design_supplier');
#24=PERSON_AND_ORGANIZATION_ROLE('design_owner');
#25=CC_DESIGN_PERSON_AND_ORGANIZATION_ASSIGNMENT(#57,#20,(#96));
#26=CC_DESIGN_PERSON_AND_ORGANIZATION_ASSIGNMENT(#60,#21,(#14));
#27=CC_DESIGN_PERSON_AND_ORGANIZATION_ASSIGNMENT(#61,#22,(#97));
#28=CC_DESIGN_PERSON_AND_ORGANIZATION_ASSIGNMENT(#62,#23,(#97));
#29=CC_DESIGN_PERSON_AND_ORGANIZATION_ASSIGNMENT(#63,#24,(#98));
#30=DATE_TIME_ROLE('creation_date');
#31=DATE_TIME_ROLE('classification_date');
#32=CC_DESIGN_DATE_AND_TIME_ASSIGNMENT(#86,#30,(#96));
#33=CC_DESIGN_DATE_AND_TIME_ASSIGNMENT(#89,#31,(#14));
#34=CC_DESIGN_APPROVAL(#93,(#96));
#35=CC_DESIGN_APPROVAL(#94,(#97));
#36=CC_DESIGN_APPROVAL(#95,(#14));
#37=APPROVAL_PERSON_ORGANIZATION(#56,#93,#64);
#38=APPROVAL_PERSON_ORGANIZATION(#58,#94,#65);
#39=APPROVAL_PERSON_ORGANIZATION(#59,#95,#66);
#40=ORGANIZATION('DEFINITION_APPROVEDBY_ORG_ID',
'DEFINITION_APPROVEDBY_ORG_NAME','DEFINITION_APPROVEDBY_ORG_DESCR');
#41=ORGANIZATION('DEF_CREATOR_ORG_ID','DEF_CREATOR_ORG_NAME',
'DEF_CREATOR_ORG_DESCR');
#42=ORGANIZATION('APPROVEDBY_ORG_ID','APPROVEDBY_ORG_NAME',
'APPROVEDBY_ORG_DESCR');
#43=ORGANIZATION('SECURITY_APPROVEDBY_ORG_ID',
'SECURITY_APPROVEDBY_ORG_NAME','SECURITY_APPROVEDBY_ORG_DESCR');
#44=ORGANIZATION('CLASSOFFICER_ORG_ID','CLASSOFFICER_ORG_NAME',
'CLASSOFFICER_ORG_DESCR');
#45=ORGANIZATION('CREATOR_ORG_ID','CREATOR_ORG_NAME','CREATOR_ORG_DESCR');
#46=ORGANIZATION('SUPPLIER_ORG_ID','SUPPLIER_ORG_NAME',
'SUPPLIER_ORG_DESCR');
#47=ORGANIZATION('OWNER_ORG_ID','OWNER_ORG_NAME','OWNER_ORG_DESCR');
#48=PERSON('DEFINITION_approverID','DEFINITION_APPROVEDBY_LASTNAME',
'DEFINITION_APPROVEDBY_FIRSTNAME',$,$,$);
#49=PERSON('DEF_createrID','DEF_CREATOR_LASTNAME',
'DEF_CREATOR_FIRSTNAME',$,$,$);
#50=PERSON('approverID','APPROVEDBY_LASTNAME','APPROVEDBY_FIRSTNAME',$,$,
$);
#51=PERSON('SECURITY_approverID','SECURITY_LASTNAME',
'SECURITY_APPROVEDBY_FIRSTNAME',$,$,$);
#52=PERSON('classifierID','CLASSOFFICER_LASTNAME',
'CLASSOFFICER_FIRSTNAME',$,$,$);
#53=PERSON('createrID','CREATOR_LASTNAME','CREATOR_FIRSTNAME',$,$,$);
#54=PERSON('supplierID','SUPPLIER_LASTNAME','SUPPLIER_FIRSTNAME',$,$,$);
#55=PERSON('ownerID','OWNER_LASTNAME','OWNER_FIRSTNAME',$,$,$);
#56=PERSON_AND_ORGANIZATION(#48,#40);
#57=PERSON_AND_ORGANIZATION(#49,#41);
#58=PERSON_AND_ORGANIZATION(#50,#42);
#59=PERSON_AND_ORGANIZATION(#51,#43);
#60=PERSON_AND_ORGANIZATION(#52,#44);
#61=PERSON_AND_ORGANIZATION(#53,#45);
#62=PERSON_AND_ORGANIZATION(#54,#46);
#63=PERSON_AND_ORGANIZATION(#55,#47);
#64=APPROVAL_ROLE('definition_approval');
#65=APPROVAL_ROLE('version_approval');
#66=APPROVAL_ROLE('security_approval');
#67=APPROVAL_DATE_TIME(#85,#93);
#68=APPROVAL_DATE_TIME(#87,#94);
#69=APPROVAL_DATE_TIME(#88,#95);
#70=COORDINATED_UNIVERSAL_TIME_OFFSET(8,0,.BEHIND.);
#71=COORDINATED_UNIVERSAL_TIME_OFFSET(8,0,.BEHIND.);
#72=COORDINATED_UNIVERSAL_TIME_OFFSET(8,0,.BEHIND.);
#73=COORDINATED_UNIVERSAL_TIME_OFFSET(8,0,.BEHIND.);
#74=COORDINATED_UNIVERSAL_TIME_OFFSET(8,0,.BEHIND.);
#75=LOCAL_TIME(16,22,32.,#70);
#76=LOCAL_TIME(16,22,32.,#71);
#77=LOCAL_TIME(16,22,32.,#72);
#78=LOCAL_TIME(16,22,32.,#73);
#79=LOCAL_TIME(16,22,32.,#74);
#80=CALENDAR_DATE(2010,20,11);
#81=CALENDAR_DATE(2010,20,11);
#82=CALENDAR_DATE(2010,20,11);
#83=CALENDAR_DATE(2010,20,11);
#84=CALENDAR_DATE(2010,20,11);
#85=DATE_AND_TIME(#80,#75);
#86=DATE_AND_TIME(#81,#76);
#87=DATE_AND_TIME(#82,#77);
#88=DATE_AND_TIME(#83,#78);
#89=DATE_AND_TIME(#84,#79);
#90=APPROVAL_STATUS('not_yet_approved');
#91=APPROVAL_STATUS('not_yet_approved');
#92=APPROVAL_STATUS('not_yet_approved');
#93=APPROVAL(#90,'defintion approval');
#94=APPROVAL(#91,'version approval');
#95=APPROVAL(#92,'security approval');
#96=PRODUCT_DEFINITION('DefinitionID','DefinitionDesc',#97,#19);
#97=PRODUCT_DEFINITION_FORMATION_WITH_SPECIFIED_SOURCE(
'PRODUCT_VERSION_ID','PRODUCT_VERSION_DESCR',#98,.NOT_KNOWN.);
#98=PRODUCT('ID_1','Rear_Crush_Zone_v1','',(#10));
#99=(
LENGTH_UNIT()
NAMED_UNIT(*)
SI_UNIT(.CENTI.,.METRE.)
);
#100=(
NAMED_UNIT(*)
PLANE_ANGLE_UNIT()
SI_UNIT($,.RADIAN.)
);
#101=(
NAMED_UNIT(*)
SI_UNIT($,.STERADIAN.)
SOLID_ANGLE_UNIT()
);
#102=UNCERTAINTY_MEASURE_WITH_UNIT(LENGTH_MEASURE(1.E-006),#99,
'DISTANCE_ACCURACY_VALUE',
'Maximum model space distance between geometric entities at asserted co
nnectivities');
#103=(
GEOMETRIC_REPRESENTATION_CONTEXT(3)
GLOBAL_UNCERTAINTY_ASSIGNED_CONTEXT((#102))
GLOBAL_UNIT_ASSIGNED_CONTEXT((#101,#100,#99))
REPRESENTATION_CONTEXT('ID1','3D')
);
#104=VERTEX_POINT('',#320);
#105=VERTEX_POINT('',#321);
#106=VERTEX_POINT('',#323);
#107=VERTEX_POINT('',#325);
#108=VERTEX_POINT('',#329);
#109=VERTEX_POINT('',#331);
#110=VERTEX_POINT('',#335);
#111=VERTEX_POINT('',#337);
#112=VERTEX_POINT('',#344);
#113=VERTEX_POINT('',#345);
#114=VERTEX_POINT('',#347);
#115=VERTEX_POINT('',#349);
#116=VERTEX_POINT('',#353);
#117=VERTEX_POINT('',#355);
#118=VERTEX_POINT('',#359);
#119=VERTEX_POINT('',#361);
#120=VECTOR('',#285,1.);
#121=VECTOR('',#286,1.);
#122=VECTOR('',#287,1.);
#123=VECTOR('',#288,1.);
#124=VECTOR('',#290,1.);
#125=VECTOR('',#291,1.);
#126=VECTOR('',#292,1.);
#127=VECTOR('',#294,1.);
#128=VECTOR('',#295,1.);
#129=VECTOR('',#296,1.);
#130=VECTOR('',#298,1.);
#131=VECTOR('',#299,1.);
#132=VECTOR('',#301,1.);
#133=VECTOR('',#302,1.);
#134=VECTOR('',#303,1.);
#135=VECTOR('',#304,1.);
#136=VECTOR('',#306,1.);
#137=VECTOR('',#307,1.);
#138=VECTOR('',#308,1.);
#139=VECTOR('',#310,1.);
#140=VECTOR('',#311,1.);
#141=VECTOR('',#312,1.);
#142=VECTOR('',#314,1.);
#143=VECTOR('',#315,1.);
#144=LINE('',#319,#120);
#145=LINE('',#322,#121);
#146=LINE('',#324,#122);
#147=LINE('',#326,#123);
#148=LINE('',#328,#124);
#149=LINE('',#330,#125);
#150=LINE('',#332,#126);
#151=LINE('',#334,#127);
#152=LINE('',#336,#128);
#153=LINE('',#338,#129);
#154=LINE('',#340,#130);
#155=LINE('',#341,#131);
#156=LINE('',#343,#132);
#157=LINE('',#346,#133);
#158=LINE('',#348,#134);
#159=LINE('',#350,#135);
#160=LINE('',#352,#136);
#161=LINE('',#354,#137);
#162=LINE('',#356,#138);
#163=LINE('',#358,#139);
#164=LINE('',#360,#140);
#165=LINE('',#362,#141);
#166=LINE('',#364,#142);
#167=LINE('',#365,#143);
#168=EDGE_CURVE('',#104,#105,#144,.T.);
#169=EDGE_CURVE('',#106,#105,#145,.T.);
#170=EDGE_CURVE('',#107,#106,#146,.T.);
#171=EDGE_CURVE('',#107,#104,#147,.T.);
#172=EDGE_CURVE('',#105,#108,#148,.T.);
#173=EDGE_CURVE('',#109,#108,#149,.T.);
#174=EDGE_CURVE('',#106,#109,#150,.T.);
#175=EDGE_CURVE('',#108,#110,#151,.T.);
#176=EDGE_CURVE('',#111,#110,#152,.T.);
#177=EDGE_CURVE('',#109,#111,#153,.T.);
#178=EDGE_CURVE('',#110,#104,#154,.T.);
#179=EDGE_CURVE('',#111,#107,#155,.T.);
#180=EDGE_CURVE('',#112,#113,#156,.T.);
#181=EDGE_CURVE('',#114,#113,#157,.T.);
#182=EDGE_CURVE('',#114,#115,#158,.T.);
#183=EDGE_CURVE('',#115,#112,#159,.T.);
#184=EDGE_CURVE('',#113,#116,#160,.T.);
#185=EDGE_CURVE('',#117,#116,#161,.T.);
#186=EDGE_CURVE('',#117,#114,#162,.T.);
#187=EDGE_CURVE('',#116,#118,#163,.T.);
#188=EDGE_CURVE('',#119,#118,#164,.T.);
#189=EDGE_CURVE('',#119,#117,#165,.T.);
#190=EDGE_CURVE('',#118,#112,#166,.T.);
#191=EDGE_CURVE('',#115,#119,#167,.T.);
#192=ORIENTED_EDGE('',*,*,#168,.T.);
#193=ORIENTED_EDGE('',*,*,#169,.F.);
#194=ORIENTED_EDGE('',*,*,#170,.F.);
#195=ORIENTED_EDGE('',*,*,#171,.T.);
#196=ORIENTED_EDGE('',*,*,#172,.T.);
#197=ORIENTED_EDGE('',*,*,#173,.F.);
#198=ORIENTED_EDGE('',*,*,#174,.F.);
#199=ORIENTED_EDGE('',*,*,#169,.T.);
#200=ORIENTED_EDGE('',*,*,#175,.T.);
#201=ORIENTED_EDGE('',*,*,#176,.F.);
#202=ORIENTED_EDGE('',*,*,#177,.F.);
#203=ORIENTED_EDGE('',*,*,#173,.T.);
#204=ORIENTED_EDGE('',*,*,#178,.T.);
#205=ORIENTED_EDGE('',*,*,#171,.F.);
#206=ORIENTED_EDGE('',*,*,#179,.F.);
#207=ORIENTED_EDGE('',*,*,#176,.T.);
#208=ORIENTED_EDGE('',*,*,#180,.T.);
#209=ORIENTED_EDGE('',*,*,#181,.F.);
#210=ORIENTED_EDGE('',*,*,#182,.T.);
#211=ORIENTED_EDGE('',*,*,#183,.T.);
#212=ORIENTED_EDGE('',*,*,#184,.T.);
#213=ORIENTED_EDGE('',*,*,#185,.F.);
#214=ORIENTED_EDGE('',*,*,#186,.T.);
#215=ORIENTED_EDGE('',*,*,#181,.T.);
#216=ORIENTED_EDGE('',*,*,#187,.T.);
#217=ORIENTED_EDGE('',*,*,#188,.F.);
#218=ORIENTED_EDGE('',*,*,#189,.T.);
#219=ORIENTED_EDGE('',*,*,#185,.T.);
#220=ORIENTED_EDGE('',*,*,#190,.T.);
#221=ORIENTED_EDGE('',*,*,#183,.F.);
#222=ORIENTED_EDGE('',*,*,#191,.T.);
#223=ORIENTED_EDGE('',*,*,#188,.T.);
#224=ORIENTED_EDGE('',*,*,#180,.F.);
#225=ORIENTED_EDGE('',*,*,#190,.F.);
#226=ORIENTED_EDGE('',*,*,#187,.F.);
#227=ORIENTED_EDGE('',*,*,#184,.F.);
#228=ORIENTED_EDGE('',*,*,#168,.F.);
#229=ORIENTED_EDGE('',*,*,#178,.F.);
#230=ORIENTED_EDGE('',*,*,#175,.F.);
#231=ORIENTED_EDGE('',*,*,#172,.F.);
#232=ORIENTED_EDGE('',*,*,#191,.F.);
#233=ORIENTED_EDGE('',*,*,#182,.F.);
#234=ORIENTED_EDGE('',*,*,#186,.F.);
#235=ORIENTED_EDGE('',*,*,#189,.F.);
#236=ORIENTED_EDGE('',*,*,#179,.T.);
#237=ORIENTED_EDGE('',*,*,#170,.T.);
#238=ORIENTED_EDGE('',*,*,#174,.T.);
#239=ORIENTED_EDGE('',*,*,#177,.T.);
#240=EDGE_LOOP('',(#192,#193,#194,#195));
#241=EDGE_LOOP('',(#196,#197,#198,#199));
#242=EDGE_LOOP('',(#200,#201,#202,#203));
#243=EDGE_LOOP('',(#204,#205,#206,#207));
#244=EDGE_LOOP('',(#208,#209,#210,#211));
#245=EDGE_LOOP('',(#212,#213,#214,#215));
#246=EDGE_LOOP('',(#216,#217,#218,#219));
#247=EDGE_LOOP('',(#220,#221,#222,#223));
#248=EDGE_LOOP('',(#224,#225,#226,#227));
#249=EDGE_LOOP('',(#228,#229,#230,#231));
#250=EDGE_LOOP('',(#232,#233,#234,#235));
#251=EDGE_LOOP('',(#236,#237,#238,#239));
#252=FACE_BOUND('',#240,.T.);
#253=FACE_BOUND('',#241,.T.);
#254=FACE_BOUND('',#242,.T.);
#255=FACE_BOUND('',#243,.T.);
#256=FACE_BOUND('',#244,.T.);
#257=FACE_BOUND('',#245,.T.);
#258=FACE_BOUND('',#246,.T.);
#259=FACE_BOUND('',#247,.T.);
#260=FACE_BOUND('',#248,.T.);
#261=FACE_BOUND('',#249,.T.);
#262=FACE_BOUND('',#250,.T.);
#263=FACE_BOUND('',#251,.T.);
#264=ADVANCED_FACE('',(#252),#368,.T.);
#265=ADVANCED_FACE('',(#253),#369,.T.);
#266=ADVANCED_FACE('',(#254),#370,.T.);
#267=ADVANCED_FACE('',(#255),#371,.T.);
#268=ADVANCED_FACE('',(#256),#372,.T.);
#269=ADVANCED_FACE('',(#257),#373,.T.);
#270=ADVANCED_FACE('',(#258),#374,.T.);
#271=ADVANCED_FACE('',(#259),#375,.T.);
#272=ADVANCED_FACE('',(#260,#261),#376,.T.);
#273=ADVANCED_FACE('',(#262,#263),#377,.F.);
#274=AXIS2_PLACEMENT_3D('',#318,#284,$);
#275=AXIS2_PLACEMENT_3D('',#327,#289,$);
#276=AXIS2_PLACEMENT_3D('',#333,#293,$);
#277=AXIS2_PLACEMENT_3D('',#339,#297,$);
#278=AXIS2_PLACEMENT_3D('',#342,#300,$);
#279=AXIS2_PLACEMENT_3D('',#351,#305,$);
#280=AXIS2_PLACEMENT_3D('',#357,#309,$);
#281=AXIS2_PLACEMENT_3D('',#363,#313,$);
#282=AXIS2_PLACEMENT_3D('',#366,#316,$);
#283=AXIS2_PLACEMENT_3D('',#367,#317,$);
#284=DIRECTION('',(2.33117695459351E-016,1.,0.));
#285=DIRECTION('',(1.,-2.33117695459351E-016,0.));
#286=DIRECTION('',(0.,0.,1.));
#287=DIRECTION('',(1.,-2.33117695459351E-016,0.));
#288=DIRECTION('',(0.,0.,1.));
#289=DIRECTION('',(1.,-2.33117695459351E-016,0.));
#290=DIRECTION('',(-2.33117695459351E-016,-1.,0.));
#291=DIRECTION('',(0.,0.,1.));
#292=DIRECTION('',(-2.33117695459351E-016,-1.,0.));
#293=DIRECTION('',(-2.33117695459351E-016,-1.,0.));
#294=DIRECTION('',(-1.,2.33117695459351E-016,0.));
#295=DIRECTION('',(0.,0.,1.));
#296=DIRECTION('',(-1.,2.33117695459351E-016,0.));
#297=DIRECTION('',(-1.,6.12303176911189E-017,0.));
#298=DIRECTION('',(6.12303176911189E-017,1.,0.));
#299=DIRECTION('',(6.12303176911189E-017,1.,0.));
#300=DIRECTION('',(0.,-1.,0.));
#301=DIRECTION('',(-1.,0.,0.));
#302=DIRECTION('',(0.,0.,1.));
#303=DIRECTION('',(1.,0.,0.));
#304=DIRECTION('',(0.,0.,1.));
#305=DIRECTION('',(1.,0.,0.));
#306=DIRECTION('',(0.,-1.,0.));
#307=DIRECTION('',(0.,0.,1.));
#308=DIRECTION('',(0.,1.,0.));
#309=DIRECTION('',(0.,1.,0.));
#310=DIRECTION('',(1.,0.,0.));
#311=DIRECTION('',(0.,0.,1.));
#312=DIRECTION('',(-1.,0.,0.));
#313=DIRECTION('',(-1.,0.,0.));
#314=DIRECTION('',(0.,1.,0.));
#315=DIRECTION('',(0.,-1.,0.));
#316=DIRECTION('',(0.,0.,1.));
#317=DIRECTION('',(0.,0.,1.));
#318=CARTESIAN_POINT('',(7.62,15.24,0.));
#319=CARTESIAN_POINT('',(9.33150041612651E-016,15.24,121.92));
#320=CARTESIAN_POINT('',(9.33150041612651E-016,15.24,121.92));
#321=CARTESIAN_POINT('',(15.24,15.24,121.92));
#322=CARTESIAN_POINT('',(15.24,15.24,0.));
#323=CARTESIAN_POINT('',(15.24,15.24,0.));
#324=CARTESIAN_POINT('',(9.33150041612651E-016,15.24,0.));
#325=CARTESIAN_POINT('',(9.33150041612651E-016,15.24,0.));
#326=CARTESIAN_POINT('',(9.33150041612651E-016,15.24,0.));
#327=CARTESIAN_POINT('',(15.24,7.62,0.));
#328=CARTESIAN_POINT('',(15.24,15.24,121.92));
#329=CARTESIAN_POINT('',(15.24,-3.5527136788005E-015,121.92));
#330=CARTESIAN_POINT('',(15.24,-3.5527136788005E-015,0.));
#331=CARTESIAN_POINT('',(15.24,-3.5527136788005E-015,0.));
#332=CARTESIAN_POINT('',(15.24,15.24,0.));
#333=CARTESIAN_POINT('',(7.62,-1.77635683940025E-015,0.));
#334=CARTESIAN_POINT('',(15.24,-3.5527136788005E-015,121.92));
#335=CARTESIAN_POINT('',(0.,0.,121.92));
#336=CARTESIAN_POINT('',(0.,0.,0.));
#337=CARTESIAN_POINT('',(0.,0.,0.));
#338=CARTESIAN_POINT('',(15.24,-3.5527136788005E-015,0.));
#339=CARTESIAN_POINT('',(4.66575020806326E-016,7.62,0.));
#340=CARTESIAN_POINT('',(0.,0.,121.92));
#341=CARTESIAN_POINT('',(0.,0.,0.));
#342=CARTESIAN_POINT('',(7.62,14.9225,0.));
#343=CARTESIAN_POINT('',(0.3175,14.9225,121.92));
#344=CARTESIAN_POINT('',(14.9225,14.9225,121.92));
#345=CARTESIAN_POINT('',(0.3175,14.9225,121.92));
#346=CARTESIAN_POINT('',(0.3175,14.9225,0.));
#347=CARTESIAN_POINT('',(0.3175,14.9225,0.));
#348=CARTESIAN_POINT('',(0.3175,14.9225,0.));
#349=CARTESIAN_POINT('',(14.9225,14.9225,0.));
#350=CARTESIAN_POINT('',(14.9225,14.9225,0.));
#351=CARTESIAN_POINT('',(0.3175,7.62,0.));
#352=CARTESIAN_POINT('',(0.3175,0.3175,121.92));
#353=CARTESIAN_POINT('',(0.317500000000001,0.3175,121.92));
#354=CARTESIAN_POINT('',(0.317500000000001,0.3175,0.));
#355=CARTESIAN_POINT('',(0.317500000000001,0.3175,0.));
#356=CARTESIAN_POINT('',(0.3175,0.3175,0.));
#357=CARTESIAN_POINT('',(7.62,0.3175,0.));
#358=CARTESIAN_POINT('',(14.9225,0.3175,121.92));
#359=CARTESIAN_POINT('',(14.9225,0.317500000000001,121.92));
#360=CARTESIAN_POINT('',(14.9225,0.317500000000001,0.));
#361=CARTESIAN_POINT('',(14.9225,0.317500000000001,0.));
#362=CARTESIAN_POINT('',(14.9225,0.3175,0.));
#363=CARTESIAN_POINT('',(14.9225,7.62,0.));
#364=CARTESIAN_POINT('',(14.9225,14.9225,121.92));
#365=CARTESIAN_POINT('',(14.9225,14.9225,0.));
#366=CARTESIAN_POINT('',(7.62,7.62,121.92));
#367=CARTESIAN_POINT('',(7.62,7.62,0.));
#368=PLANE('',#274);
#369=PLANE('',#275);
#370=PLANE('',#276);
#371=PLANE('',#277);
#372=PLANE('',#278);
#373=PLANE('',#279);
#374=PLANE('',#280);
#375=PLANE('',#281);
#376=PLANE('',#282);
#377=PLANE('',#283);
#378=CLOSED_SHELL('',(#264,#265,#266,#267,#268,#269,#270,#271,#272,#273));
#379=MANIFOLD_SOLID_BREP('',#378);
#380=ADVANCED_BREP_SHAPE_REPRESENTATION('',(#379),#103);
ENDSEC;
END-ISO-10303-21;
