 0
SECTION
 2
ENTITIES
  0
POLYLINE
 8
Layer0
 66
     1
70
    8
 10
0.0
 20
 0.0
 30
0.0
  0
VERTEX
  8
MY3DLAYER
10
6.29674999999999
20
-4.74999999994792
30
-6.3576
 70
     32
  0
VERTEX
  8
MY3DLAYER
10
10.29675
20
-4.74999999994792
30
-6.35759999999993
 70
     32
  0
VERTEX
  8
MY3DLAYER
10
10.29675
20
42.7500000000193
30
-6.35759999999993
 70
     32
  0
VERTEX
  8
MY3DLAYER
10
6.29674999999999
20
42.7500000000193
30
-6.3576
 70
     32
  0
VERTEX
  8
MY3DLAYER
10
6.29674999999999
20
-4.74999999994792
30
-6.3576
 70
     32
  0
SEQEND
  0
POLYLINE
 8
Layer0
 66
     1
70
    8
 10
0.0
 20
 0.0
 30
0.0
  0
VERTEX
  8
MY3DLAYER
10
9.80969095224702
20
27.4397459046631
30
-6.35759999999993
 70
     32
  0
VERTEX
  8
MY3DLAYER
10
9.7967499999919
20
27.4380421959776
30
-6.35759999999993
 70
     32
  0
VERTEX
  8
MY3DLAYER
10
9.79674999999189
20
26.8519578041532
30
-6.35759999999993
 70
     32
  0
VERTEX
  8
MY3DLAYER
10
9.80969095224701
20
26.8502540954677
30
-6.35759999999993
 70
     32
  0
VERTEX
  8
MY3DLAYER
10
9.82174999999189
20
26.8452590743425
30
-6.35759999999993
 70
     32
  0
VERTEX
  8
MY3DLAYER
10
9.83210533905121
20
26.8373131432126
30
-6.35759999999993
 70
     32
  0
VERTEX
  8
MY3DLAYER
10
9.84005127018111
20
26.8269578041532
30
-6.35759999999993
 70
     32
  0
VERTEX
  8
MY3DLAYER
10
9.84504629130634
20
26.8148987564084
30
-6.35759999999993
 70
     32
  0
VERTEX
  8
MY3DLAYER
10
9.84674999999189
20
26.8019578041532
30
-6.35759999999993
 70
     32
  0
VERTEX
  8
MY3DLAYER
10
9.84504629130634
20
26.7890168518981
30
-6.35759999999993
 70
     32
  0
VERTEX
  8
MY3DLAYER
10
9.84005127018111
20
26.7769578041532
30
-6.35759999999993
 70
     32
  0
VERTEX
  8
MY3DLAYER
10
9.83210533905121
20
26.7666024650939
30
-6.35759999999993
 70
     32
  0
VERTEX
  8
MY3DLAYER
10
9.82174999999189
20
26.758656533964
30
-6.35759999999993
 70
     32
  0
VERTEX
  8
MY3DLAYER
10
9.80969095224701
20
26.7536615128388
30
-6.35759999999993
 70
     32
  0
VERTEX
  8
MY3DLAYER
10
9.79674999999189
20
26.7519578041532
30
-6.35759999999993
 70
     32
  0
VERTEX
  8
MY3DLAYER
10
9.78380904773676
20
26.7536615128388
30
-6.35759999999993
 70
     32
  0
VERTEX
  8
MY3DLAYER
10
9.77174999999189
20
26.758656533964
30
-6.35759999999993
 70
     32
  0
VERTEX
  8
MY3DLAYER
10
9.76139466093256
20
26.7666024650939
30
-6.35759999999993
 70
     32
  0
VERTEX
  8
MY3DLAYER
10
9.75344872980267
20
26.7769578041532
30
-6.35759999999993
 70
     32
  0
VERTEX
  8
MY3DLAYER
10
9.24588475772122
20
26.483915608241
30
-6.35759999999994
 70
     32
  0
VERTEX
  8
MY3DLAYER
10
9.25087977884645
20
26.4718565604962
30
-6.35759999999994
 70
     32
  0
VERTEX
  8
MY3DLAYER
10
9.252583487532
20
26.458915608241
30
-6.35759999999994
 70
     32
  0
VERTEX
  8
MY3DLAYER
10
9.25087977884645
20
26.4459746559859
30
-6.35759999999994
 70
     32
  0
VERTEX
  8
MY3DLAYER
10
9.24588475772122
20
26.433915608241
30
-6.35759999999994
 70
     32
  0
VERTEX
  8
MY3DLAYER
10
9.23793882659132
20
26.4235602691817
30
-6.35759999999994
 70
     32
  0
VERTEX
  8
MY3DLAYER
10
9.227583487532
20
26.4156143380518
30
-6.35759999999994
 70
     32
  0
VERTEX
  8
MY3DLAYER
10
9.21552443978712
20
26.4106193169266
30
-6.35759999999994
 70
     32
  0
VERTEX
  8
MY3DLAYER
10
9.202583487532
20
26.408915608241
30
-6.35759999999994
 70
     32
  0
VERTEX
  8
MY3DLAYER
10
9.18964253527687
20
26.4106193169266
30
-6.35759999999994
 70
     32
  0
VERTEX
  8
MY3DLAYER
10
9.177583487532
20
26.4156143380518
30
-6.35759999999994
 70
     32
  0
VERTEX
  8
MY3DLAYER
10
9.16722814847267
20
26.4235602691817
30
-6.35759999999994
 70
     32
  0
VERTEX
  8
MY3DLAYER
10
9.15928221734278
20
26.433915608241
30
-6.35759999999994
 70
     32
  0
VERTEX
  8
MY3DLAYER
10
9.15428719621755
20
26.4459746559859
30
-6.35759999999994
 70
     32
  0
VERTEX
  8
MY3DLAYER
10
9.152583487532
20
26.458915608241
30
-6.35759999999994
 70
     32
  0
VERTEX
  8
MY3DLAYER
10
9.15428719621755
20
26.4718565604962
30
-6.35759999999994
 70
     32
  0
VERTEX
  8
MY3DLAYER
10
9.15928221734278
20
26.483915608241
30
-6.35759999999994
 70
     32
  0
VERTEX
  8
MY3DLAYER
10
8.65171824526135
20
26.7769578041532
30
-6.35759999999995
 70
     32
  0
VERTEX
  8
MY3DLAYER
10
8.64377231413145
20
26.7666024650939
30
-6.35759999999995
 70
     32
  0
VERTEX
  8
MY3DLAYER
10
8.63341697507213
20
26.758656533964
30
-6.35759999999995
 70
     32
  0
VERTEX
  8
MY3DLAYER
10
8.62135792732725
20
26.7536615128388
30
-6.35759999999995
 70
     32
  0
VERTEX
  8
MY3DLAYER
10
8.60841697507212
20
26.7519578041532
30
-6.35759999999995
 70
     32
  0
VERTEX
  8
MY3DLAYER
10
8.595476022817
20
26.7536615128388
30
-6.35759999999995
 70
     32
  0
VERTEX
  8
MY3DLAYER
10
8.58341697507213
20
26.758656533964
30
-6.35759999999995
 70
     32
  0
VERTEX
  8
MY3DLAYER
10
8.5730616360128
20
26.7666024650939
30
-6.35759999999995
 70
     32
  0
VERTEX
  8
MY3DLAYER
10
8.56511570488291
20
26.7769578041532
30
-6.35759999999995
 70
     32
  0
VERTEX
  8
MY3DLAYER
10
8.56012068375767
20
26.7890168518981
30
-6.35759999999995
 70
     32
  0
VERTEX
  8
MY3DLAYER
10
8.55841697507213
20
26.8019578041532
30
-6.35759999999995
 70
     32
  0
VERTEX
  8
MY3DLAYER
10
8.56012068375767
20
26.8148987564083
30
-6.35759999999995
 70
     32
  0
VERTEX
  8
MY3DLAYER
10
8.56511570488291
20
26.8269578041532
30
-6.35759999999995
 70
     32
  0
VERTEX
  8
MY3DLAYER
10
8.5730616360128
20
26.8373131432125
30
-6.35759999999995
 70
     32
  0
VERTEX
  8
MY3DLAYER
10
8.58341697507213
20
26.8452590743424
30
-6.35759999999995
 70
     32
  0
VERTEX
  8
MY3DLAYER
10
8.595476022817
20
26.8502540954677
30
-6.35759999999995
 70
     32
  0
VERTEX
  8
MY3DLAYER
10
8.60841697507213
20
26.8519578041532
30
-6.35759999999995
 70
     32
  0
VERTEX
  8
MY3DLAYER
10
8.60841697507213
20
27.4380421959776
30
-6.35759999999995
 70
     32
  0
VERTEX
  8
MY3DLAYER
10
8.595476022817
20
27.4397459046631
30
-6.35759999999995
 70
     32
  0
VERTEX
  8
MY3DLAYER
10
8.58341697507213
20
27.4447409257883
30
-6.35759999999995
 70
     32
  0
VERTEX
  8
MY3DLAYER
10
8.5730616360128
20
27.4526868569182
30
-6.35759999999995
 70
     32
  0
VERTEX
  8
MY3DLAYER
10
8.56511570488291
20
27.4630421959776
30
-6.35759999999995
 70
     32
  0
VERTEX
  8
MY3DLAYER
10
8.56012068375768
20
27.4751012437224
30
-6.35759999999995
 70
     32
  0
VERTEX
  8
MY3DLAYER
10
8.55841697507213
20
27.4880421959776
30
-6.35759999999995
 70
     32
  0
VERTEX
  8
MY3DLAYER
10
8.56012068375768
20
27.5009831482327
30
-6.35759999999995
 70
     32
  0
VERTEX
  8
MY3DLAYER
10
8.56511570488291
20
27.5130421959776
30
-6.35759999999995
 70
     32
  0
VERTEX
  8
MY3DLAYER
10
8.5730616360128
20
27.5233975350369
30
-6.35759999999995
 70
     32
  0
VERTEX
  8
MY3DLAYER
10
8.58341697507213
20
27.5313434661668
30
-6.35759999999995
 70
     32
  0
VERTEX
  8
MY3DLAYER
10
8.595476022817
20
27.536338487292
30
-6.35759999999995
 70
     32
  0
VERTEX
  8
MY3DLAYER
10
8.60841697507213
20
27.5380421959776
30
-6.35759999999995
 70
     32
  0
VERTEX
  8
MY3DLAYER
10
8.62135792732725
20
27.536338487292
30
-6.35759999999995
 70
     32
  0
VERTEX
  8
MY3DLAYER
10
8.63341697507213
20
27.5313434661668
30
-6.35759999999995
 70
     32
  0
VERTEX
  8
MY3DLAYER
10
8.64377231413145
20
27.5233975350369
30
-6.35759999999995
 70
     32
  0
VERTEX
  8
MY3DLAYER
10
8.65171824526135
20
27.5130421959776
30
-6.35759999999995
 70
     32
  0
VERTEX
  8
MY3DLAYER
10
9.15928221734278
20
27.8060843918897
30
-6.35759999999994
 70
     32
  0
VERTEX
  8
MY3DLAYER
10
9.15428719621755
20
27.8181434396346
30
-6.35759999999994
 70
     32
  0
VERTEX
  8
MY3DLAYER
10
9.15258348753201
20
27.8310843918897
30
-6.35759999999994
 70
     32
  0
VERTEX
  8
MY3DLAYER
10
9.15428719621755
20
27.8440253441449
30
-6.35759999999994
 70
     32
  0
VERTEX
  8
MY3DLAYER
10
9.15928221734278
20
27.8560843918897
30
-6.35759999999994
 70
     32
  0
VERTEX
  8
MY3DLAYER
10
9.16722814847268
20
27.8664397309491
30
-6.35759999999994
 70
     32
  0
VERTEX
  8
MY3DLAYER
10
9.177583487532
20
27.874385662079
30
-6.35759999999994
 70
     32
  0
VERTEX
  8
MY3DLAYER
10
9.18964253527688
20
27.8793806832042
30
-6.35759999999994
 70
     32
  0
VERTEX
  8
MY3DLAYER
10
9.202583487532
20
27.8810843918897
30
-6.35759999999994
 70
     32
  0
VERTEX
  8
MY3DLAYER
10
9.21552443978713
20
27.8793806832042
30
-6.35759999999994
 70
     32
  0
VERTEX
  8
MY3DLAYER
10
9.227583487532
20
27.874385662079
30
-6.35759999999994
 70
     32
  0
VERTEX
  8
MY3DLAYER
10
9.23793882659133
20
27.8664397309491
30
-6.35759999999994
 70
     32
  0
VERTEX
  8
MY3DLAYER
10
9.24588475772122
20
27.8560843918897
30
-6.35759999999994
 70
     32
  0
VERTEX
  8
MY3DLAYER
10
9.25087977884645
20
27.8440253441449
30
-6.35759999999994
 70
     32
  0
VERTEX
  8
MY3DLAYER
10
9.252583487532
20
27.8310843918897
30
-6.35759999999994
 70
     32
  0
VERTEX
  8
MY3DLAYER
10
9.25087977884645
20
27.8181434396346
30
-6.35759999999994
 70
     32
  0
VERTEX
  8
MY3DLAYER
10
9.24588475772122
20
27.8060843918897
30
-6.35759999999994
 70
     32
  0
VERTEX
  8
MY3DLAYER
10
9.75344872980268
20
27.5130421959776
30
-6.35759999999993
 70
     32
  0
VERTEX
  8
MY3DLAYER
10
9.76139466093257
20
27.5233975350369
30
-6.35759999999993
 70
     32
  0
VERTEX
  8
MY3DLAYER
10
9.7717499999919
20
27.5313434661668
30
-6.35759999999993
 70
     32
  0
VERTEX
  8
MY3DLAYER
10
9.78380904773677
20
27.536338487292
30
-6.35759999999993
 70
     32
  0
VERTEX
  8
MY3DLAYER
10
9.7967499999919
20
27.5380421959776
30
-6.35759999999993
 70
     32
  0
VERTEX
  8
MY3DLAYER
10
9.80969095224702
20
27.536338487292
30
-6.35759999999993
 70
     32
  0
VERTEX
  8
MY3DLAYER
10
9.8217499999919
20
27.5313434661668
30
-6.35759999999993
 70
     32
  0
VERTEX
  8
MY3DLAYER
10
9.83210533905122
20
27.5233975350369
30
-6.35759999999993
 70
     32
  0
VERTEX
  8
MY3DLAYER
10
9.84005127018112
20
27.5130421959776
30
-6.35759999999993
 70
     32
  0
VERTEX
  8
MY3DLAYER
10
9.84504629130635
20
27.5009831482327
30
-6.35759999999993
 70
     32
  0
VERTEX
  8
MY3DLAYER
10
9.8467499999919
20
27.4880421959776
30
-6.35759999999993
 70
     32
  0
VERTEX
  8
MY3DLAYER
10
9.84504629130635
20
27.4751012437224
30
-6.35759999999993
 70
     32
  0
VERTEX
  8
MY3DLAYER
10
9.84005127018112
20
27.4630421959776
30
-6.35759999999993
 70
     32
  0
VERTEX
  8
MY3DLAYER
10
9.83210533905122
20
27.4526868569182
30
-6.35759999999993
 70
     32
  0
VERTEX
  8
MY3DLAYER
10
9.8217499999919
20
27.4447409257884
30
-6.35759999999993
 70
     32
  0
VERTEX
  8
MY3DLAYER
10
9.80969095224702
20
27.4397459046631
30
-6.35759999999993
 70
     32
  0
SEQEND
  0
POLYLINE
 8
Layer0
 66
     1
70
    8
 10
0.0
 20
 0.0
 30
0.0
  0
VERTEX
  8
MY3DLAYER
10
7.99802397710677
20
27.4397459046631
30
-6.35759999999996
 70
     32
  0
VERTEX
  8
MY3DLAYER
10
7.98508302485165
20
27.4380421959776
30
-6.35759999999996
 70
     32
  0
VERTEX
  8
MY3DLAYER
10
7.98508302485164
20
26.8519578041532
30
-6.35759999999996
 70
     32
  0
VERTEX
  8
MY3DLAYER
10
7.99802397710676
20
26.8502540954677
30
-6.35759999999996
 70
     32
  0
VERTEX
  8
MY3DLAYER
10
8.01008302485164
20
26.8452590743425
30
-6.35759999999996
 70
     32
  0
VERTEX
  8
MY3DLAYER
10
8.02043836391096
20
26.8373131432126
30
-6.35759999999996
 70
     32
  0
VERTEX
  8
MY3DLAYER
10
8.02838429504086
20
26.8269578041532
30
-6.35759999999996
 70
     32
  0
VERTEX
  8
MY3DLAYER
10
8.03337931616609
20
26.8148987564084
30
-6.35759999999996
 70
     32
  0
VERTEX
  8
MY3DLAYER
10
8.03508302485164
20
26.8019578041532
30
-6.35759999999996
 70
     32
  0
VERTEX
  8
MY3DLAYER
10
8.03337931616609
20
26.7890168518981
30
-6.35759999999996
 70
     32
  0
VERTEX
  8
MY3DLAYER
10
8.02838429504086
20
26.7769578041532
30
-6.35759999999996
 70
     32
  0
VERTEX
  8
MY3DLAYER
10
8.02043836391097
20
26.7666024650939
30
-6.35759999999996
 70
     32
  0
VERTEX
  8
MY3DLAYER
10
8.01008302485164
20
26.758656533964
30
-6.35759999999996
 70
     32
  0
VERTEX
  8
MY3DLAYER
10
7.99802397710676
20
26.7536615128388
30
-6.35759999999996
 70
     32
  0
VERTEX
  8
MY3DLAYER
10
7.98508302485164
20
26.7519578041532
30
-6.35759999999996
 70
     32
  0
VERTEX
  8
MY3DLAYER
10
7.97214207259651
20
26.7536615128388
30
-6.35759999999996
 70
     32
  0
VERTEX
  8
MY3DLAYER
10
7.96008302485164
20
26.758656533964
30
-6.35759999999996
 70
     32
  0
VERTEX
  8
MY3DLAYER
10
7.94972768579231
20
26.7666024650939
30
-6.35759999999996
 70
     32
  0
VERTEX
  8
MY3DLAYER
10
7.94178175466242
20
26.7769578041532
30
-6.35759999999996
 70
     32
  0
VERTEX
  8
MY3DLAYER
10
7.43421778258097
20
26.483915608241
30
-6.35759999999997
 70
     32
  0
VERTEX
  8
MY3DLAYER
10
7.4392128037062
20
26.4718565604962
30
-6.35759999999997
 70
     32
  0
VERTEX
  8
MY3DLAYER
10
7.44091651239175
20
26.458915608241
30
-6.35759999999997
 70
     32
  0
VERTEX
  8
MY3DLAYER
10
7.4392128037062
20
26.4459746559859
30
-6.35759999999997
 70
     32
  0
VERTEX
  8
MY3DLAYER
10
7.43421778258097
20
26.433915608241
30
-6.35759999999997
 70
     32
  0
VERTEX
  8
MY3DLAYER
10
7.42627185145108
20
26.4235602691817
30
-6.35759999999997
 70
     32
  0
VERTEX
  8
MY3DLAYER
10
7.41591651239175
20
26.4156143380518
30
-6.35759999999997
 70
     32
  0
VERTEX
  8
MY3DLAYER
10
7.40385746464688
20
26.4106193169266
30
-6.35759999999997
 70
     32
  0
VERTEX
  8
MY3DLAYER
10
7.39091651239175
20
26.408915608241
30
-6.35759999999997
 70
     32
  0
VERTEX
  8
MY3DLAYER
10
7.37797556013663
20
26.4106193169266
30
-6.35759999999997
 70
     32
  0
VERTEX
  8
MY3DLAYER
10
7.36591651239175
20
26.4156143380518
30
-6.35759999999998
 70
     32
  0
VERTEX
  8
MY3DLAYER
10
7.35556117333242
20
26.4235602691817
30
-6.35759999999998
 70
     32
  0
VERTEX
  8
MY3DLAYER
10
7.34761524220253
20
26.433915608241
30
-6.35759999999998
 70
     32
  0
VERTEX
  8
MY3DLAYER
10
7.3426202210773
20
26.4459746559859
30
-6.35759999999998
 70
     32
  0
VERTEX
  8
MY3DLAYER
10
7.34091651239175
20
26.458915608241
30
-6.35759999999998
 70
     32
  0
VERTEX
  8
MY3DLAYER
10
7.3426202210773
20
26.4718565604962
30
-6.35759999999998
 70
     32
  0
VERTEX
  8
MY3DLAYER
10
7.34761524220253
20
26.483915608241
30
-6.35759999999998
 70
     32
  0
VERTEX
  8
MY3DLAYER
10
6.8400512701211
20
26.7769578041532
30
-6.35759999999999
 70
     32
  0
VERTEX
  8
MY3DLAYER
10
6.8321053389912
20
26.7666024650939
30
-6.35759999999999
 70
     32
  0
VERTEX
  8
MY3DLAYER
10
6.82174999993188
20
26.758656533964
30
-6.35759999999999
 70
     32
  0
VERTEX
  8
MY3DLAYER
10
6.809690952187
20
26.7536615128388
30
-6.35759999999999
 70
     32
  0
VERTEX
  8
MY3DLAYER
10
6.79674999993188
20
26.7519578041532
30
-6.35759999999999
 70
     32
  0
VERTEX
  8
MY3DLAYER
10
6.78380904767675
20
26.7536615128388
30
-6.35759999999999
 70
     32
  0
VERTEX
  8
MY3DLAYER
10
6.77174999993188
20
26.758656533964
30
-6.35759999999999
 70
     32
  0
VERTEX
  8
MY3DLAYER
10
6.76139466087255
20
26.7666024650939
30
-6.35759999999999
 70
     32
  0
VERTEX
  8
MY3DLAYER
10
6.75344872974266
20
26.7769578041532
30
-6.35759999999999
 70
     32
  0
VERTEX
  8
MY3DLAYER
10
6.74845370861742
20
26.7890168518981
30
-6.35759999999999
 70
     32
  0
VERTEX
  8
MY3DLAYER
10
6.74674999993188
20
26.8019578041532
30
-6.35759999999999
 70
     32
  0
VERTEX
  8
MY3DLAYER
10
6.74845370861742
20
26.8148987564083
30
-6.35759999999999
 70
     32
  0
VERTEX
  8
MY3DLAYER
10
6.75344872974266
20
26.8269578041532
30
-6.35759999999999
 70
     32
  0
VERTEX
  8
MY3DLAYER
10
6.76139466087255
20
26.8373131432125
30
-6.35759999999999
 70
     32
  0
VERTEX
  8
MY3DLAYER
10
6.77174999993188
20
26.8452590743424
30
-6.35759999999999
 70
     32
  0
VERTEX
  8
MY3DLAYER
10
6.78380904767675
20
26.8502540954677
30
-6.35759999999999
 70
     32
  0
VERTEX
  8
MY3DLAYER
10
6.79674999993188
20
26.8519578041532
30
-6.35759999999999
 70
     32
  0
VERTEX
  8
MY3DLAYER
10
6.79674999993188
20
27.4380421959776
30
-6.35759999999999
 70
     32
  0
VERTEX
  8
MY3DLAYER
10
6.78380904767675
20
27.4397459046631
30
-6.35759999999999
 70
     32
  0
VERTEX
  8
MY3DLAYER
10
6.77174999993188
20
27.4447409257883
30
-6.35759999999999
 70
     32
  0
VERTEX
  8
MY3DLAYER
10
6.76139466087255
20
27.4526868569182
30
-6.35759999999999
 70
     32
  0
VERTEX
  8
MY3DLAYER
10
6.75344872974266
20
27.4630421959776
30
-6.35759999999999
 70
     32
  0
VERTEX
  8
MY3DLAYER
10
6.74845370861743
20
27.4751012437224
30
-6.35759999999999
 70
     32
  0
VERTEX
  8
MY3DLAYER
10
6.74674999993188
20
27.4880421959776
30
-6.35759999999999
 70
     32
  0
VERTEX
  8
MY3DLAYER
10
6.74845370861743
20
27.5009831482327
30
-6.35759999999999
 70
     32
  0
VERTEX
  8
MY3DLAYER
10
6.75344872974266
20
27.5130421959776
30
-6.35759999999999
 70
     32
  0
VERTEX
  8
MY3DLAYER
10
6.76139466087255
20
27.5233975350369
30
-6.35759999999999
 70
     32
  0
VERTEX
  8
MY3DLAYER
10
6.77174999993188
20
27.5313434661668
30
-6.35759999999999
 70
     32
  0
VERTEX
  8
MY3DLAYER
10
6.78380904767675
20
27.536338487292
30
-6.35759999999999
 70
     32
  0
VERTEX
  8
MY3DLAYER
10
6.79674999993188
20
27.5380421959776
30
-6.35759999999999
 70
     32
  0
VERTEX
  8
MY3DLAYER
10
6.809690952187
20
27.536338487292
30
-6.35759999999999
 70
     32
  0
VERTEX
  8
MY3DLAYER
10
6.82174999993188
20
27.5313434661668
30
-6.35759999999999
 70
     32
  0
VERTEX
  8
MY3DLAYER
10
6.8321053389912
20
27.5233975350369
30
-6.35759999999999
 70
     32
  0
VERTEX
  8
MY3DLAYER
10
6.8400512701211
20
27.5130421959776
30
-6.35759999999999
 70
     32
  0
VERTEX
  8
MY3DLAYER
10
7.34761524220253
20
27.8060843918897
30
-6.35759999999998
 70
     32
  0
VERTEX
  8
MY3DLAYER
10
7.3426202210773
20
27.8181434396346
30
-6.35759999999998
 70
     32
  0
VERTEX
  8
MY3DLAYER
10
7.34091651239175
20
27.8310843918897
30
-6.35759999999998
 70
     32
  0
VERTEX
  8
MY3DLAYER
10
7.3426202210773
20
27.8440253441449
30
-6.35759999999998
 70
     32
  0
VERTEX
  8
MY3DLAYER
10
7.34761524220253
20
27.8560843918897
30
-6.35759999999998
 70
     32
  0
VERTEX
  8
MY3DLAYER
10
7.35556117333243
20
27.8664397309491
30
-6.35759999999998
 70
     32
  0
VERTEX
  8
MY3DLAYER
10
7.36591651239175
20
27.874385662079
30
-6.35759999999998
 70
     32
  0
VERTEX
  8
MY3DLAYER
10
7.37797556013663
20
27.8793806832042
30
-6.35759999999997
 70
     32
  0
VERTEX
  8
MY3DLAYER
10
7.39091651239175
20
27.8810843918897
30
-6.35759999999997
 70
     32
  0
VERTEX
  8
MY3DLAYER
10
7.40385746464688
20
27.8793806832042
30
-6.35759999999997
 70
     32
  0
VERTEX
  8
MY3DLAYER
10
7.41591651239175
20
27.874385662079
30
-6.35759999999997
 70
     32
  0
VERTEX
  8
MY3DLAYER
10
7.42627185145108
20
27.8664397309491
30
-6.35759999999997
 70
     32
  0
VERTEX
  8
MY3DLAYER
10
7.43421778258097
20
27.8560843918897
30
-6.35759999999997
 70
     32
  0
VERTEX
  8
MY3DLAYER
10
7.4392128037062
20
27.8440253441449
30
-6.35759999999997
 70
     32
  0
VERTEX
  8
MY3DLAYER
10
7.44091651239175
20
27.8310843918897
30
-6.35759999999997
 70
     32
  0
VERTEX
  8
MY3DLAYER
10
7.4392128037062
20
27.8181434396346
30
-6.35759999999997
 70
     32
  0
VERTEX
  8
MY3DLAYER
10
7.43421778258097
20
27.8060843918897
30
-6.35759999999997
 70
     32
  0
VERTEX
  8
MY3DLAYER
10
7.94178175466243
20
27.5130421959776
30
-6.35759999999996
 70
     32
  0
VERTEX
  8
MY3DLAYER
10
7.94972768579232
20
27.5233975350369
30
-6.35759999999996
 70
     32
  0
VERTEX
  8
MY3DLAYER
10
7.96008302485165
20
27.5313434661668
30
-6.35759999999996
 70
     32
  0
VERTEX
  8
MY3DLAYER
10
7.97214207259652
20
27.536338487292
30
-6.35759999999996
 70
     32
  0
VERTEX
  8
MY3DLAYER
10
7.98508302485165
20
27.5380421959776
30
-6.35759999999996
 70
     32
  0
VERTEX
  8
MY3DLAYER
10
7.99802397710677
20
27.536338487292
30
-6.35759999999996
 70
     32
  0
VERTEX
  8
MY3DLAYER
10
8.01008302485165
20
27.5313434661668
30
-6.35759999999996
 70
     32
  0
VERTEX
  8
MY3DLAYER
10
8.02043836391098
20
27.5233975350369
30
-6.35759999999996
 70
     32
  0
VERTEX
  8
MY3DLAYER
10
8.02838429504087
20
27.5130421959776
30
-6.35759999999996
 70
     32
  0
VERTEX
  8
MY3DLAYER
10
8.0333793161661
20
27.5009831482327
30
-6.35759999999996
 70
     32
  0
VERTEX
  8
MY3DLAYER
10
8.03508302485165
20
27.4880421959776
30
-6.35759999999996
 70
     32
  0
VERTEX
  8
MY3DLAYER
10
8.0333793161661
20
27.4751012437224
30
-6.35759999999996
 70
     32
  0
VERTEX
  8
MY3DLAYER
10
8.02838429504087
20
27.4630421959776
30
-6.35759999999996
 70
     32
  0
VERTEX
  8
MY3DLAYER
10
8.02043836391097
20
27.4526868569182
30
-6.35759999999996
 70
     32
  0
VERTEX
  8
MY3DLAYER
10
8.01008302485165
20
27.4447409257884
30
-6.35759999999996
 70
     32
  0
VERTEX
  8
MY3DLAYER
10
7.99802397710677
20
27.4397459046631
30
-6.35759999999996
 70
     32
  0
SEQEND
  0
POLYLINE
 8
Layer0
 66
     1
70
    8
 10
0.0
 20
 0.0
 30
0.0
  0
VERTEX
  8
MY3DLAYER
10
7.99802397710291
20
24.7247459046722
30
-6.35759999999996
 70
     32
  0
VERTEX
  8
MY3DLAYER
10
7.98508302484778
20
24.7230421959867
30
-6.35759999999996
 70
     32
  0
VERTEX
  8
MY3DLAYER
10
7.98508302484777
20
24.1369578041623
30
-6.35759999999996
 70
     32
  0
VERTEX
  8
MY3DLAYER
10
7.9980239771029
20
24.1352540954768
30
-6.35759999999996
 70
     32
  0
VERTEX
  8
MY3DLAYER
10
8.01008302484777
20
24.1302590743515
30
-6.35759999999996
 70
     32
  0
VERTEX
  8
MY3DLAYER
10
8.0204383639071
20
24.1223131432216
30
-6.35759999999996
 70
     32
  0
VERTEX
  8
MY3DLAYER
10
8.02838429503699
20
24.1119578041623
30
-6.35759999999996
 70
     32
  0
VERTEX
  8
MY3DLAYER
10
8.03337931616222
20
24.0998987564174
30
-6.35759999999996
 70
     32
  0
VERTEX
  8
MY3DLAYER
10
8.03508302484777
20
24.0869578041623
30
-6.35759999999996
 70
     32
  0
VERTEX
  8
MY3DLAYER
10
8.03337931616222
20
24.0740168519072
30
-6.35759999999996
 70
     32
  0
VERTEX
  8
MY3DLAYER
10
8.02838429503699
20
24.0619578041623
30
-6.35759999999996
 70
     32
  0
VERTEX
  8
MY3DLAYER
10
8.0204383639071
20
24.051602465103
30
-6.35759999999996
 70
     32
  0
VERTEX
  8
MY3DLAYER
10
8.01008302484777
20
24.0436565339731
30
-6.35759999999996
 70
     32
  0
VERTEX
  8
MY3DLAYER
10
7.9980239771029
20
24.0386615128479
30
-6.35759999999996
 70
     32
  0
VERTEX
  8
MY3DLAYER
10
7.98508302484777
20
24.0369578041623
30
-6.35759999999996
 70
     32
  0
VERTEX
  8
MY3DLAYER
10
7.97214207259265
20
24.0386615128479
30
-6.35759999999996
 70
     32
  0
VERTEX
  8
MY3DLAYER
10
7.96008302484777
20
24.0436565339731
30
-6.35759999999996
 70
     32
  0
VERTEX
  8
MY3DLAYER
10
7.94972768578844
20
24.051602465103
30
-6.35759999999996
 70
     32
  0
VERTEX
  8
MY3DLAYER
10
7.94178175465855
20
24.0619578041623
30
-6.35759999999996
 70
     32
  0
VERTEX
  8
MY3DLAYER
10
7.4342177825771
20
23.7689156082501
30
-6.35759999999997
 70
     32
  0
VERTEX
  8
MY3DLAYER
10
7.43921280370233
20
23.7568565605053
30
-6.35759999999997
 70
     32
  0
VERTEX
  8
MY3DLAYER
10
7.44091651238788
20
23.7439156082501
30
-6.35759999999997
 70
     32
  0
VERTEX
  8
MY3DLAYER
10
7.43921280370233
20
23.730974655995
30
-6.35759999999997
 70
     32
  0
VERTEX
  8
MY3DLAYER
10
7.4342177825771
20
23.7189156082501
30
-6.35759999999997
 70
     32
  0
VERTEX
  8
MY3DLAYER
10
7.42627185144721
20
23.7085602691908
30
-6.35759999999997
 70
     32
  0
VERTEX
  8
MY3DLAYER
10
7.41591651238788
20
23.7006143380609
30
-6.35759999999997
 70
     32
  0
VERTEX
  8
MY3DLAYER
10
7.40385746464301
20
23.6956193169357
30
-6.35759999999997
 70
     32
  0
VERTEX
  8
MY3DLAYER
10
7.39091651238788
20
23.6939156082501
30
-6.35759999999997
 70
     32
  0
VERTEX
  8
MY3DLAYER
10
7.37797556013276
20
23.6956193169357
30
-6.35759999999997
 70
     32
  0
VERTEX
  8
MY3DLAYER
10
7.36591651238788
20
23.7006143380609
30
-6.35759999999997
 70
     32
  0
VERTEX
  8
MY3DLAYER
10
7.35556117332856
20
23.7085602691908
30
-6.35759999999997
 70
     32
  0
VERTEX
  8
MY3DLAYER
10
7.34761524219866
20
23.7189156082501
30
-6.35759999999997
 70
     32
  0
VERTEX
  8
MY3DLAYER
10
7.34262022107343
20
23.730974655995
30
-6.35759999999997
 70
     32
  0
VERTEX
  8
MY3DLAYER
10
7.34091651238789
20
23.7439156082501
30
-6.35759999999997
 70
     32
  0
VERTEX
  8
MY3DLAYER
10
7.34262022107343
20
23.7568565605053
30
-6.35759999999997
 70
     32
  0
VERTEX
  8
MY3DLAYER
10
7.34761524219866
20
23.7689156082501
30
-6.35759999999997
 70
     32
  0
VERTEX
  8
MY3DLAYER
10
6.84005127011723
20
24.0619578041623
30
-6.35759999999998
 70
     32
  0
VERTEX
  8
MY3DLAYER
10
6.83210533898734
20
24.051602465103
30
-6.35759999999998
 70
     32
  0
VERTEX
  8
MY3DLAYER
10
6.82174999992801
20
24.0436565339731
30
-6.35759999999998
 70
     32
  0
VERTEX
  8
MY3DLAYER
10
6.80969095218313
20
24.0386615128479
30
-6.35759999999998
 70
     32
  0
VERTEX
  8
MY3DLAYER
10
6.79674999992801
20
24.0369578041623
30
-6.35759999999998
 70
     32
  0
VERTEX
  8
MY3DLAYER
10
6.78380904767288
20
24.0386615128479
30
-6.35759999999998
 70
     32
  0
VERTEX
  8
MY3DLAYER
10
6.77174999992801
20
24.0436565339731
30
-6.35759999999998
 70
     32
  0
VERTEX
  8
MY3DLAYER
10
6.76139466086868
20
24.051602465103
30
-6.35759999999998
 70
     32
  0
VERTEX
  8
MY3DLAYER
10
6.75344872973879
20
24.0619578041623
30
-6.35759999999998
 70
     32
  0
VERTEX
  8
MY3DLAYER
10
6.74845370861356
20
24.0740168519072
30
-6.35759999999998
 70
     32
  0
VERTEX
  8
MY3DLAYER
10
6.74674999992801
20
24.0869578041623
30
-6.35759999999998
 70
     32
  0
VERTEX
  8
MY3DLAYER
10
6.74845370861356
20
24.0998987564174
30
-6.35759999999998
 70
     32
  0
VERTEX
  8
MY3DLAYER
10
6.75344872973879
20
24.1119578041623
30
-6.35759999999998
 70
     32
  0
VERTEX
  8
MY3DLAYER
10
6.76139466086868
20
24.1223131432216
30
-6.35759999999998
 70
     32
  0
VERTEX
  8
MY3DLAYER
10
6.77174999992801
20
24.1302590743515
30
-6.35759999999998
 70
     32
  0
VERTEX
  8
MY3DLAYER
10
6.78380904767288
20
24.1352540954768
30
-6.35759999999998
 70
     32
  0
VERTEX
  8
MY3DLAYER
10
6.79674999992801
20
24.1369578041623
30
-6.35759999999998
 70
     32
  0
VERTEX
  8
MY3DLAYER
10
6.79674999992801
20
24.7230421959867
30
-6.35759999999998
 70
     32
  0
VERTEX
  8
MY3DLAYER
10
6.78380904767289
20
24.7247459046722
30
-6.35759999999998
 70
     32
  0
VERTEX
  8
MY3DLAYER
10
6.77174999992801
20
24.7297409257974
30
-6.35759999999998
 70
     32
  0
VERTEX
  8
MY3DLAYER
10
6.76139466086869
20
24.7376868569273
30
-6.35759999999998
 70
     32
  0
VERTEX
  8
MY3DLAYER
10
6.75344872973879
20
24.7480421959866
30
-6.35759999999998
 70
     32
  0
VERTEX
  8
MY3DLAYER
10
6.74845370861356
20
24.7601012437315
30
-6.35759999999998
 70
     32
  0
VERTEX
  8
MY3DLAYER
10
6.74674999992801
20
24.7730421959866
30
-6.35759999999998
 70
     32
  0
VERTEX
  8
MY3DLAYER
10
6.74845370861356
20
24.7859831482418
30
-6.35759999999998
 70
     32
  0
VERTEX
  8
MY3DLAYER
10
6.75344872973879
20
24.7980421959866
30
-6.35759999999998
 70
     32
  0
VERTEX
  8
MY3DLAYER
10
6.76139466086868
20
24.808397535046
30
-6.35759999999998
 70
     32
  0
VERTEX
  8
MY3DLAYER
10
6.77174999992801
20
24.8163434661759
30
-6.35759999999998
 70
     32
  0
VERTEX
  8
MY3DLAYER
10
6.78380904767288
20
24.8213384873011
30
-6.35759999999998
 70
     32
  0
VERTEX
  8
MY3DLAYER
10
6.79674999992801
20
24.8230421959866
30
-6.35759999999998
 70
     32
  0
VERTEX
  8
MY3DLAYER
10
6.80969095218314
20
24.8213384873011
30
-6.35759999999998
 70
     32
  0
VERTEX
  8
MY3DLAYER
10
6.82174999992801
20
24.8163434661759
30
-6.35759999999998
 70
     32
  0
VERTEX
  8
MY3DLAYER
10
6.83210533898734
20
24.808397535046
30
-6.35759999999998
 70
     32
  0
VERTEX
  8
MY3DLAYER
10
6.84005127011723
20
24.7980421959866
30
-6.35759999999998
 70
     32
  0
VERTEX
  8
MY3DLAYER
10
7.34761524219866
20
25.0910843918988
30
-6.35759999999997
 70
     32
  0
VERTEX
  8
MY3DLAYER
10
7.34262022107343
20
25.1031434396437
30
-6.35759999999997
 70
     32
  0
VERTEX
  8
MY3DLAYER
10
7.34091651238789
20
25.1160843918988
30
-6.35759999999997
 70
     32
  0
VERTEX
  8
MY3DLAYER
10
7.34262022107343
20
25.129025344154
30
-6.35759999999997
 70
     32
  0
VERTEX
  8
MY3DLAYER
10
7.34761524219866
20
25.1410843918988
30
-6.35759999999997
 70
     32
  0
VERTEX
  8
MY3DLAYER
10
7.35556117332856
20
25.1514397309582
30
-6.35759999999997
 70
     32
  0
VERTEX
  8
MY3DLAYER
10
7.36591651238789
20
25.159385662088
30
-6.35759999999997
 70
     32
  0
VERTEX
  8
MY3DLAYER
10
7.37797556013276
20
25.1643806832133
30
-6.35759999999997
 70
     32
  0
VERTEX
  8
MY3DLAYER
10
7.39091651238788
20
25.1660843918988
30
-6.35759999999997
 70
     32
  0
VERTEX
  8
MY3DLAYER
10
7.40385746464301
20
25.1643806832133
30
-6.35759999999997
 70
     32
  0
VERTEX
  8
MY3DLAYER
10
7.41591651238788
20
25.159385662088
30
-6.35759999999997
 70
     32
  0
VERTEX
  8
MY3DLAYER
10
7.42627185144721
20
25.1514397309582
30
-6.35759999999997
 70
     32
  0
VERTEX
  8
MY3DLAYER
10
7.4342177825771
20
25.1410843918988
30
-6.35759999999997
 70
     32
  0
VERTEX
  8
MY3DLAYER
10
7.43921280370234
20
25.129025344154
30
-6.35759999999997
 70
     32
  0
VERTEX
  8
MY3DLAYER
10
7.44091651238788
20
25.1160843918988
30
-6.35759999999997
 70
     32
  0
VERTEX
  8
MY3DLAYER
10
7.43921280370234
20
25.1031434396437
30
-6.35759999999997
 70
     32
  0
VERTEX
  8
MY3DLAYER
10
7.4342177825771
20
25.0910843918988
30
-6.35759999999997
 70
     32
  0
VERTEX
  8
MY3DLAYER
10
7.94178175465856
20
24.7980421959867
30
-6.35759999999996
 70
     32
  0
VERTEX
  8
MY3DLAYER
10
7.94972768578846
20
24.808397535046
30
-6.35759999999996
 70
     32
  0
VERTEX
  8
MY3DLAYER
10
7.96008302484778
20
24.8163434661759
30
-6.35759999999996
 70
     32
  0
VERTEX
  8
MY3DLAYER
10
7.97214207259266
20
24.8213384873011
30
-6.35759999999996
 70
     32
  0
VERTEX
  8
MY3DLAYER
10
7.98508302484778
20
24.8230421959867
30
-6.35759999999996
 70
     32
  0
VERTEX
  8
MY3DLAYER
10
7.99802397710291
20
24.8213384873011
30
-6.35759999999996
 70
     32
  0
VERTEX
  8
MY3DLAYER
10
8.01008302484778
20
24.8163434661759
30
-6.35759999999996
 70
     32
  0
VERTEX
  8
MY3DLAYER
10
8.02043836390711
20
24.808397535046
30
-6.35759999999996
 70
     32
  0
VERTEX
  8
MY3DLAYER
10
8.028384295037
20
24.7980421959867
30
-6.35759999999996
 70
     32
  0
VERTEX
  8
MY3DLAYER
10
8.03337931616223
20
24.7859831482418
30
-6.35759999999996
 70
     32
  0
VERTEX
  8
MY3DLAYER
10
8.03508302484778
20
24.7730421959867
30
-6.35759999999996
 70
     32
  0
VERTEX
  8
MY3DLAYER
10
8.03337931616223
20
24.7601012437315
30
-6.35759999999996
 70
     32
  0
VERTEX
  8
MY3DLAYER
10
8.028384295037
20
24.7480421959867
30
-6.35759999999996
 70
     32
  0
VERTEX
  8
MY3DLAYER
10
8.02043836390711
20
24.7376868569273
30
-6.35759999999996
 70
     32
  0
VERTEX
  8
MY3DLAYER
10
8.01008302484778
20
24.7297409257974
30
-6.35759999999996
 70
     32
  0
VERTEX
  8
MY3DLAYER
10
7.99802397710291
20
24.7247459046722
30
-6.35759999999996
 70
     32
  0
SEQEND
  0
POLYLINE
 8
Layer0
 66
     1
70
    8
 10
0.0
 20
 0.0
 30
0.0
  0
VERTEX
  8
MY3DLAYER
10
9.80969095224316
20
24.7247459046722
30
-6.35759999999993
 70
     32
  0
VERTEX
  8
MY3DLAYER
10
9.79674999998803
20
24.7230421959867
30
-6.35759999999993
 70
     32
  0
VERTEX
  8
MY3DLAYER
10
9.79674999998802
20
24.1369578041623
30
-6.35759999999993
 70
     32
  0
VERTEX
  8
MY3DLAYER
10
9.80969095224314
20
24.1352540954768
30
-6.35759999999993
 70
     32
  0
VERTEX
  8
MY3DLAYER
10
9.82174999998802
20
24.1302590743515
30
-6.35759999999993
 70
     32
  0
VERTEX
  8
MY3DLAYER
10
9.83210533904735
20
24.1223131432216
30
-6.35759999999993
 70
     32
  0
VERTEX
  8
MY3DLAYER
10
9.84005127017724
20
24.1119578041623
30
-6.35759999999993
 70
     32
  0
VERTEX
  8
MY3DLAYER
10
9.84504629130247
20
24.0998987564174
30
-6.35759999999992
 70
     32
  0
VERTEX
  8
MY3DLAYER
10
9.84674999998802
20
24.0869578041623
30
-6.35759999999992
 70
     32
  0
VERTEX
  8
MY3DLAYER
10
9.84504629130247
20
24.0740168519072
30
-6.35759999999992
 70
     32
  0
VERTEX
  8
MY3DLAYER
10
9.84005127017724
20
24.0619578041623
30
-6.35759999999993
 70
     32
  0
VERTEX
  8
MY3DLAYER
10
9.83210533904735
20
24.051602465103
30
-6.35759999999993
 70
     32
  0
VERTEX
  8
MY3DLAYER
10
9.82174999998802
20
24.0436565339731
30
-6.35759999999993
 70
     32
  0
VERTEX
  8
MY3DLAYER
10
9.80969095224315
20
24.0386615128479
30
-6.35759999999993
 70
     32
  0
VERTEX
  8
MY3DLAYER
10
9.79674999998802
20
24.0369578041623
30
-6.35759999999993
 70
     32
  0
VERTEX
  8
MY3DLAYER
10
9.78380904773289
20
24.0386615128479
30
-6.35759999999993
 70
     32
  0
VERTEX
  8
MY3DLAYER
10
9.77174999998802
20
24.0436565339731
30
-6.35759999999993
 70
     32
  0
VERTEX
  8
MY3DLAYER
10
9.76139466092869
20
24.051602465103
30
-6.35759999999993
 70
     32
  0
VERTEX
  8
MY3DLAYER
10
9.7534487297988
20
24.0619578041623
30
-6.35759999999993
 70
     32
  0
VERTEX
  8
MY3DLAYER
10
9.24588475771735
20
23.7689156082501
30
-6.35759999999994
 70
     32
  0
VERTEX
  8
MY3DLAYER
10
9.25087977884258
20
23.7568565605053
30
-6.35759999999994
 70
     32
  0
VERTEX
  8
MY3DLAYER
10
9.25258348752813
20
23.7439156082501
30
-6.35759999999994
 70
     32
  0
VERTEX
  8
MY3DLAYER
10
9.25087977884258
20
23.730974655995
30
-6.35759999999994
 70
     32
  0
VERTEX
  8
MY3DLAYER
10
9.24588475771735
20
23.7189156082501
30
-6.35759999999994
 70
     32
  0
VERTEX
  8
MY3DLAYER
10
9.23793882658746
20
23.7085602691908
30
-6.35759999999994
 70
     32
  0
VERTEX
  8
MY3DLAYER
10
9.22758348752813
20
23.7006143380609
30
-6.35759999999994
 70
     32
  0
VERTEX
  8
MY3DLAYER
10
9.21552443978326
20
23.6956193169357
30
-6.35759999999994
 70
     32
  0
VERTEX
  8
MY3DLAYER
10
9.20258348752813
20
23.6939156082501
30
-6.35759999999994
 70
     32
  0
VERTEX
  8
MY3DLAYER
10
9.18964253527301
20
23.6956193169357
30
-6.35759999999994
 70
     32
  0
VERTEX
  8
MY3DLAYER
10
9.17758348752814
20
23.7006143380609
30
-6.35759999999994
 70
     32
  0
VERTEX
  8
MY3DLAYER
10
9.16722814846881
20
23.7085602691908
30
-6.35759999999994
 70
     32
  0
VERTEX
  8
MY3DLAYER
10
9.15928221733891
20
23.7189156082501
30
-6.35759999999994
 70
     32
  0
VERTEX
  8
MY3DLAYER
10
9.15428719621368
20
23.730974655995
30
-6.35759999999994
 70
     32
  0
VERTEX
  8
MY3DLAYER
10
9.15258348752814
20
23.7439156082501
30
-6.35759999999994
 70
     32
  0
VERTEX
  8
MY3DLAYER
10
9.15428719621368
20
23.7568565605053
30
-6.35759999999994
 70
     32
  0
VERTEX
  8
MY3DLAYER
10
9.15928221733891
20
23.7689156082501
30
-6.35759999999994
 70
     32
  0
VERTEX
  8
MY3DLAYER
10
8.65171824525748
20
24.0619578041623
30
-6.35759999999995
 70
     32
  0
VERTEX
  8
MY3DLAYER
10
8.64377231412758
20
24.051602465103
30
-6.35759999999995
 70
     32
  0
VERTEX
  8
MY3DLAYER
10
8.63341697506826
20
24.0436565339731
30
-6.35759999999995
 70
     32
  0
VERTEX
  8
MY3DLAYER
10
8.62135792732338
20
24.0386615128479
30
-6.35759999999995
 70
     32
  0
VERTEX
  8
MY3DLAYER
10
8.60841697506826
20
24.0369578041623
30
-6.35759999999995
 70
     32
  0
VERTEX
  8
MY3DLAYER
10
8.59547602281313
20
24.0386615128479
30
-6.35759999999995
 70
     32
  0
VERTEX
  8
MY3DLAYER
10
8.58341697506826
20
24.0436565339731
30
-6.35759999999995
 70
     32
  0
VERTEX
  8
MY3DLAYER
10
8.57306163600893
20
24.051602465103
30
-6.35759999999995
 70
     32
  0
VERTEX
  8
MY3DLAYER
10
8.56511570487904
20
24.0619578041623
30
-6.35759999999995
 70
     32
  0
VERTEX
  8
MY3DLAYER
10
8.56012068375381
20
24.0740168519072
30
-6.35759999999995
 70
     32
  0
VERTEX
  8
MY3DLAYER
10
8.55841697506826
20
24.0869578041623
30
-6.35759999999995
 70
     32
  0
VERTEX
  8
MY3DLAYER
10
8.56012068375381
20
24.0998987564174
30
-6.35759999999995
 70
     32
  0
VERTEX
  8
MY3DLAYER
10
8.56511570487904
20
24.1119578041623
30
-6.35759999999995
 70
     32
  0
VERTEX
  8
MY3DLAYER
10
8.57306163600893
20
24.1223131432216
30
-6.35759999999995
 70
     32
  0
VERTEX
  8
MY3DLAYER
10
8.58341697506826
20
24.1302590743515
30
-6.35759999999995
 70
     32
  0
VERTEX
  8
MY3DLAYER
10
8.59547602281313
20
24.1352540954768
30
-6.35759999999995
 70
     32
  0
VERTEX
  8
MY3DLAYER
10
8.60841697506826
20
24.1369578041623
30
-6.35759999999995
 70
     32
  0
VERTEX
  8
MY3DLAYER
10
8.60841697506826
20
24.7230421959867
30
-6.35759999999995
 70
     32
  0
VERTEX
  8
MY3DLAYER
10
8.59547602281314
20
24.7247459046722
30
-6.35759999999995
 70
     32
  0
VERTEX
  8
MY3DLAYER
10
8.58341697506826
20
24.7297409257974
30
-6.35759999999995
 70
     32
  0
VERTEX
  8
MY3DLAYER
10
8.57306163600894
20
24.7376868569273
30
-6.35759999999995
 70
     32
  0
VERTEX
  8
MY3DLAYER
10
8.56511570487904
20
24.7480421959866
30
-6.35759999999995
 70
     32
  0
VERTEX
  8
MY3DLAYER
10
8.56012068375381
20
24.7601012437315
30
-6.35759999999995
 70
     32
  0
VERTEX
  8
MY3DLAYER
10
8.55841697506826
20
24.7730421959866
30
-6.35759999999995
 70
     32
  0
VERTEX
  8
MY3DLAYER
10
8.56012068375381
20
24.7859831482418
30
-6.35759999999995
 70
     32
  0
VERTEX
  8
MY3DLAYER
10
8.56511570487904
20
24.7980421959866
30
-6.35759999999995
 70
     32
  0
VERTEX
  8
MY3DLAYER
10
8.57306163600893
20
24.808397535046
30
-6.35759999999995
 70
     32
  0
VERTEX
  8
MY3DLAYER
10
8.58341697506826
20
24.8163434661759
30
-6.35759999999995
 70
     32
  0
VERTEX
  8
MY3DLAYER
10
8.59547602281313
20
24.8213384873011
30
-6.35759999999995
 70
     32
  0
VERTEX
  8
MY3DLAYER
10
8.60841697506826
20
24.8230421959866
30
-6.35759999999995
 70
     32
  0
VERTEX
  8
MY3DLAYER
10
8.62135792732339
20
24.8213384873011
30
-6.35759999999995
 70
     32
  0
VERTEX
  8
MY3DLAYER
10
8.63341697506826
20
24.8163434661759
30
-6.35759999999995
 70
     32
  0
VERTEX
  8
MY3DLAYER
10
8.64377231412759
20
24.808397535046
30
-6.35759999999995
 70
     32
  0
VERTEX
  8
MY3DLAYER
10
8.65171824525748
20
24.7980421959866
30
-6.35759999999995
 70
     32
  0
VERTEX
  8
MY3DLAYER
10
9.15928221733892
20
25.0910843918988
30
-6.35759999999994
 70
     32
  0
VERTEX
  8
MY3DLAYER
10
9.15428719621368
20
25.1031434396437
30
-6.35759999999994
 70
     32
  0
VERTEX
  8
MY3DLAYER
10
9.15258348752814
20
25.1160843918988
30
-6.35759999999994
 70
     32
  0
VERTEX
  8
MY3DLAYER
10
9.15428719621368
20
25.129025344154
30
-6.35759999999994
 70
     32
  0
VERTEX
  8
MY3DLAYER
10
9.15928221733892
20
25.1410843918988
30
-6.35759999999994
 70
     32
  0
VERTEX
  8
MY3DLAYER
10
9.16722814846881
20
25.1514397309582
30
-6.35759999999994
 70
     32
  0
VERTEX
  8
MY3DLAYER
10
9.17758348752814
20
25.159385662088
30
-6.35759999999994
 70
     32
  0
VERTEX
  8
MY3DLAYER
10
9.18964253527301
20
25.1643806832133
30
-6.35759999999994
 70
     32
  0
VERTEX
  8
MY3DLAYER
10
9.20258348752813
20
25.1660843918988
30
-6.35759999999994
 70
     32
  0
VERTEX
  8
MY3DLAYER
10
9.21552443978326
20
25.1643806832133
30
-6.35759999999994
 70
     32
  0
VERTEX
  8
MY3DLAYER
10
9.22758348752813
20
25.159385662088
30
-6.35759999999994
 70
     32
  0
VERTEX
  8
MY3DLAYER
10
9.23793882658746
20
25.1514397309582
30
-6.35759999999994
 70
     32
  0
VERTEX
  8
MY3DLAYER
10
9.24588475771736
20
25.1410843918988
30
-6.35759999999994
 70
     32
  0
VERTEX
  8
MY3DLAYER
10
9.25087977884258
20
25.129025344154
30
-6.35759999999994
 70
     32
  0
VERTEX
  8
MY3DLAYER
10
9.25258348752813
20
25.1160843918988
30
-6.35759999999994
 70
     32
  0
VERTEX
  8
MY3DLAYER
10
9.25087977884258
20
25.1031434396437
30
-6.35759999999994
 70
     32
  0
VERTEX
  8
MY3DLAYER
10
9.24588475771736
20
25.0910843918988
30
-6.35759999999994
 70
     32
  0
VERTEX
  8
MY3DLAYER
10
9.75344872979881
20
24.7980421959867
30
-6.35759999999993
 70
     32
  0
VERTEX
  8
MY3DLAYER
10
9.7613946609287
20
24.808397535046
30
-6.35759999999993
 70
     32
  0
VERTEX
  8
MY3DLAYER
10
9.77174999998803
20
24.8163434661759
30
-6.35759999999993
 70
     32
  0
VERTEX
  8
MY3DLAYER
10
9.78380904773291
20
24.8213384873011
30
-6.35759999999993
 70
     32
  0
VERTEX
  8
MY3DLAYER
10
9.79674999998803
20
24.8230421959867
30
-6.35759999999993
 70
     32
  0
VERTEX
  8
MY3DLAYER
10
9.80969095224316
20
24.8213384873011
30
-6.35759999999993
 70
     32
  0
VERTEX
  8
MY3DLAYER
10
9.82174999998803
20
24.8163434661759
30
-6.35759999999992
 70
     32
  0
VERTEX
  8
MY3DLAYER
10
9.83210533904736
20
24.808397535046
30
-6.35759999999992
 70
     32
  0
VERTEX
  8
MY3DLAYER
10
9.84005127017725
20
24.7980421959867
30
-6.35759999999992
 70
     32
  0
VERTEX
  8
MY3DLAYER
10
9.84504629130248
20
24.7859831482418
30
-6.35759999999992
 70
     32
  0
VERTEX
  8
MY3DLAYER
10
9.84674999998803
20
24.7730421959867
30
-6.35759999999993
 70
     32
  0
VERTEX
  8
MY3DLAYER
10
9.84504629130248
20
24.7601012437315
30
-6.35759999999993
 70
     32
  0
VERTEX
  8
MY3DLAYER
10
9.84005127017725
20
24.7480421959867
30
-6.35759999999993
 70
     32
  0
VERTEX
  8
MY3DLAYER
10
9.83210533904736
20
24.7376868569273
30
-6.35759999999993
 70
     32
  0
VERTEX
  8
MY3DLAYER
10
9.82174999998803
20
24.7297409257974
30
-6.35759999999993
 70
     32
  0
VERTEX
  8
MY3DLAYER
10
9.80969095224316
20
24.7247459046722
30
-6.35759999999993
 70
     32
  0
SEQEND
  0
POLYLINE
 8
Layer0
 66
     1
70
    8
 10
0.0
 20
 0.0
 30
0.0
  0
VERTEX
  8
MY3DLAYER
10
7.99802397709904
20
22.0097459046813
30
-6.35759999999995
 70
     32
  0
VERTEX
  8
MY3DLAYER
10
7.98508302484391
20
22.0080421959958
30
-6.35759999999995
 70
     32
  0
VERTEX
  8
MY3DLAYER
10
7.9850830248439
20
21.4219578041714
30
-6.35759999999995
 70
     32
  0
VERTEX
  8
MY3DLAYER
10
7.99802397709903
20
21.4202540954859
30
-6.35759999999995
 70
     32
  0
VERTEX
  8
MY3DLAYER
10
8.0100830248439
20
21.4152590743606
30
-6.35759999999995
 70
     32
  0
VERTEX
  8
MY3DLAYER
10
8.02043836390323
20
21.4073131432307
30
-6.35759999999995
 70
     32
  0
VERTEX
  8
MY3DLAYER
10
8.02838429503312
20
21.3969578041714
30
-6.35759999999995
 70
     32
  0
VERTEX
  8
MY3DLAYER
10
8.03337931615836
20
21.3848987564265
30
-6.35759999999995
 70
     32
  0
VERTEX
  8
MY3DLAYER
10
8.0350830248439
20
21.3719578041714
30
-6.35759999999995
 70
     32
  0
VERTEX
  8
MY3DLAYER
10
8.03337931615836
20
21.3590168519163
30
-6.35759999999995
 70
     32
  0
VERTEX
  8
MY3DLAYER
10
8.02838429503312
20
21.3469578041714
30
-6.35759999999995
 70
     32
  0
VERTEX
  8
MY3DLAYER
10
8.02043836390323
20
21.3366024651121
30
-6.35759999999995
 70
     32
  0
VERTEX
  8
MY3DLAYER
10
8.0100830248439
20
21.3286565339822
30
-6.35759999999995
 70
     32
  0
VERTEX
  8
MY3DLAYER
10
7.99802397709903
20
21.323661512857
30
-6.35759999999995
 70
     32
  0
VERTEX
  8
MY3DLAYER
10
7.98508302484391
20
21.3219578041714
30
-6.35759999999995
 70
     32
  0
VERTEX
  8
MY3DLAYER
10
7.97214207258878
20
21.323661512857
30
-6.35759999999995
 70
     32
  0
VERTEX
  8
MY3DLAYER
10
7.9600830248439
20
21.3286565339822
30
-6.35759999999995
 70
     32
  0
VERTEX
  8
MY3DLAYER
10
7.94972768578458
20
21.3366024651121
30
-6.35759999999995
 70
     32
  0
VERTEX
  8
MY3DLAYER
10
7.94178175465468
20
21.3469578041714
30
-6.35759999999995
 70
     32
  0
VERTEX
  8
MY3DLAYER
10
7.43421778257324
20
21.0539156082592
30
-6.35759999999996
 70
     32
  0
VERTEX
  8
MY3DLAYER
10
7.43921280369847
20
21.0418565605143
30
-6.35759999999996
 70
     32
  0
VERTEX
  8
MY3DLAYER
10
7.44091651238401
20
21.0289156082592
30
-6.35759999999996
 70
     32
  0
VERTEX
  8
MY3DLAYER
10
7.43921280369847
20
21.0159746560041
30
-6.35759999999996
 70
     32
  0
VERTEX
  8
MY3DLAYER
10
7.43421778257324
20
21.0039156082592
30
-6.35759999999996
 70
     32
  0
VERTEX
  8
MY3DLAYER
10
7.42627185144334
20
20.9935602691999
30
-6.35759999999996
 70
     32
  0
VERTEX
  8
MY3DLAYER
10
7.41591651238401
20
20.98561433807
30
-6.35759999999997
 70
     32
  0
VERTEX
  8
MY3DLAYER
10
7.40385746463914
20
20.9806193169448
30
-6.35759999999997
 70
     32
  0
VERTEX
  8
MY3DLAYER
10
7.39091651238402
20
20.9789156082592
30
-6.35759999999997
 70
     32
  0
VERTEX
  8
MY3DLAYER
10
7.37797556012889
20
20.9806193169448
30
-6.35759999999997
 70
     32
  0
VERTEX
  8
MY3DLAYER
10
7.36591651238402
20
20.98561433807
30
-6.35759999999997
 70
     32
  0
VERTEX
  8
MY3DLAYER
10
7.35556117332469
20
20.9935602691999
30
-6.35759999999997
 70
     32
  0
VERTEX
  8
MY3DLAYER
10
7.3476152421948
20
21.0039156082592
30
-6.35759999999997
 70
     32
  0
VERTEX
  8
MY3DLAYER
10
7.34262022106957
20
21.0159746560041
30
-6.35759999999997
 70
     32
  0
VERTEX
  8
MY3DLAYER
10
7.34091651238402
20
21.0289156082592
30
-6.35759999999997
 70
     32
  0
VERTEX
  8
MY3DLAYER
10
7.34262022106957
20
21.0418565605143
30
-6.35759999999997
 70
     32
  0
VERTEX
  8
MY3DLAYER
10
7.3476152421948
20
21.0539156082592
30
-6.35759999999997
 70
     32
  0
VERTEX
  8
MY3DLAYER
10
6.84005127011336
20
21.3469578041714
30
-6.35759999999998
 70
     32
  0
VERTEX
  8
MY3DLAYER
10
6.83210533898347
20
21.3366024651121
30
-6.35759999999998
 70
     32
  0
VERTEX
  8
MY3DLAYER
10
6.82174999992414
20
21.3286565339822
30
-6.35759999999998
 70
     32
  0
VERTEX
  8
MY3DLAYER
10
6.80969095217927
20
21.323661512857
30
-6.35759999999998
 70
     32
  0
VERTEX
  8
MY3DLAYER
10
6.79674999992414
20
21.3219578041714
30
-6.35759999999998
 70
     32
  0
VERTEX
  8
MY3DLAYER
10
6.78380904766902
20
21.323661512857
30
-6.35759999999998
 70
     32
  0
VERTEX
  8
MY3DLAYER
10
6.77174999992414
20
21.3286565339822
30
-6.35759999999998
 70
     32
  0
VERTEX
  8
MY3DLAYER
10
6.76139466086482
20
21.3366024651121
30
-6.35759999999998
 70
     32
  0
VERTEX
  8
MY3DLAYER
10
6.75344872973492
20
21.3469578041714
30
-6.35759999999998
 70
     32
  0
VERTEX
  8
MY3DLAYER
10
6.74845370860969
20
21.3590168519163
30
-6.35759999999998
 70
     32
  0
VERTEX
  8
MY3DLAYER
10
6.74674999992414
20
21.3719578041714
30
-6.35759999999998
 70
     32
  0
VERTEX
  8
MY3DLAYER
10
6.74845370860969
20
21.3848987564265
30
-6.35759999999998
 70
     32
  0
VERTEX
  8
MY3DLAYER
10
6.75344872973492
20
21.3969578041714
30
-6.35759999999998
 70
     32
  0
VERTEX
  8
MY3DLAYER
10
6.76139466086482
20
21.4073131432307
30
-6.35759999999998
 70
     32
  0
VERTEX
  8
MY3DLAYER
10
6.77174999992414
20
21.4152590743606
30
-6.35759999999998
 70
     32
  0
VERTEX
  8
MY3DLAYER
10
6.78380904766902
20
21.4202540954859
30
-6.35759999999998
 70
     32
  0
VERTEX
  8
MY3DLAYER
10
6.79674999992414
20
21.4219578041714
30
-6.35759999999998
 70
     32
  0
VERTEX
  8
MY3DLAYER
10
6.79674999992415
20
22.0080421959957
30
-6.35759999999998
 70
     32
  0
VERTEX
  8
MY3DLAYER
10
6.78380904766902
20
22.0097459046813
30
-6.35759999999998
 70
     32
  0
VERTEX
  8
MY3DLAYER
10
6.77174999992415
20
22.0147409258065
30
-6.35759999999998
 70
     32
  0
VERTEX
  8
MY3DLAYER
10
6.76139466086482
20
22.0226868569364
30
-6.35759999999998
 70
     32
  0
VERTEX
  8
MY3DLAYER
10
6.75344872973492
20
22.0330421959957
30
-6.35759999999998
 70
     32
  0
VERTEX
  8
MY3DLAYER
10
6.74845370860969
20
22.0451012437406
30
-6.35759999999998
 70
     32
  0
VERTEX
  8
MY3DLAYER
10
6.74674999992415
20
22.0580421959957
30
-6.35759999999998
 70
     32
  0
VERTEX
  8
MY3DLAYER
10
6.74845370860969
20
22.0709831482509
30
-6.35759999999998
 70
     32
  0
VERTEX
  8
MY3DLAYER
10
6.75344872973492
20
22.0830421959957
30
-6.35759999999998
 70
     32
  0
VERTEX
  8
MY3DLAYER
10
6.76139466086482
20
22.0933975350551
30
-6.35759999999998
 70
     32
  0
VERTEX
  8
MY3DLAYER
10
6.77174999992414
20
22.101343466185
30
-6.35759999999998
 70
     32
  0
VERTEX
  8
MY3DLAYER
10
6.78380904766902
20
22.1063384873102
30
-6.35759999999998
 70
     32
  0
VERTEX
  8
MY3DLAYER
10
6.79674999992414
20
22.1080421959957
30
-6.35759999999998
 70
     32
  0
VERTEX
  8
MY3DLAYER
10
6.80969095217927
20
22.1063384873102
30
-6.35759999999998
 70
     32
  0
VERTEX
  8
MY3DLAYER
10
6.82174999992414
20
22.101343466185
30
-6.35759999999998
 70
     32
  0
VERTEX
  8
MY3DLAYER
10
6.83210533898347
20
22.0933975350551
30
-6.35759999999998
 70
     32
  0
VERTEX
  8
MY3DLAYER
10
6.84005127011336
20
22.0830421959957
30
-6.35759999999998
 70
     32
  0
VERTEX
  8
MY3DLAYER
10
7.3476152421948
20
22.3760843919079
30
-6.35759999999997
 70
     32
  0
VERTEX
  8
MY3DLAYER
10
7.34262022106957
20
22.3881434396528
30
-6.35759999999997
 70
     32
  0
VERTEX
  8
MY3DLAYER
10
7.34091651238402
20
22.4010843919079
30
-6.35759999999997
 70
     32
  0
VERTEX
  8
MY3DLAYER
10
7.34262022106957
20
22.4140253441631
30
-6.35759999999997
 70
     32
  0
VERTEX
  8
MY3DLAYER
10
7.3476152421948
20
22.4260843919079
30
-6.35759999999997
 70
     32
  0
VERTEX
  8
MY3DLAYER
10
7.35556117332469
20
22.4364397309672
30
-6.35759999999997
 70
     32
  0
VERTEX
  8
MY3DLAYER
10
7.36591651238402
20
22.4443856620971
30
-6.35759999999997
 70
     32
  0
VERTEX
  8
MY3DLAYER
10
7.37797556012889
20
22.4493806832224
30
-6.35759999999997
 70
     32
  0
VERTEX
  8
MY3DLAYER
10
7.39091651238402
20
22.4510843919079
30
-6.35759999999997
 70
     32
  0
VERTEX
  8
MY3DLAYER
10
7.40385746463914
20
22.4493806832224
30
-6.35759999999997
 70
     32
  0
VERTEX
  8
MY3DLAYER
10
7.41591651238402
20
22.4443856620971
30
-6.35759999999997
 70
     32
  0
VERTEX
  8
MY3DLAYER
10
7.42627185144334
20
22.4364397309672
30
-6.35759999999996
 70
     32
  0
VERTEX
  8
MY3DLAYER
10
7.43421778257324
20
22.4260843919079
30
-6.35759999999996
 70
     32
  0
VERTEX
  8
MY3DLAYER
10
7.43921280369847
20
22.4140253441631
30
-6.35759999999996
 70
     32
  0
VERTEX
  8
MY3DLAYER
10
7.44091651238401
20
22.4010843919079
30
-6.35759999999996
 70
     32
  0
VERTEX
  8
MY3DLAYER
10
7.43921280369847
20
22.3881434396528
30
-6.35759999999996
 70
     32
  0
VERTEX
  8
MY3DLAYER
10
7.43421778257324
20
22.3760843919079
30
-6.35759999999996
 70
     32
  0
VERTEX
  8
MY3DLAYER
10
7.94178175465469
20
22.0830421959958
30
-6.35759999999995
 70
     32
  0
VERTEX
  8
MY3DLAYER
10
7.94972768578459
20
22.0933975350551
30
-6.35759999999995
 70
     32
  0
VERTEX
  8
MY3DLAYER
10
7.96008302484392
20
22.101343466185
30
-6.35759999999995
 70
     32
  0
VERTEX
  8
MY3DLAYER
10
7.97214207258879
20
22.1063384873102
30
-6.35759999999995
 70
     32
  0
VERTEX
  8
MY3DLAYER
10
7.98508302484392
20
22.1080421959958
30
-6.35759999999995
 70
     32
  0
VERTEX
  8
MY3DLAYER
10
7.99802397709904
20
22.1063384873102
30
-6.35759999999995
 70
     32
  0
VERTEX
  8
MY3DLAYER
10
8.01008302484392
20
22.101343466185
30
-6.35759999999995
 70
     32
  0
VERTEX
  8
MY3DLAYER
10
8.02043836390324
20
22.0933975350551
30
-6.35759999999995
 70
     32
  0
VERTEX
  8
MY3DLAYER
10
8.02838429503313
20
22.0830421959958
30
-6.35759999999995
 70
     32
  0
VERTEX
  8
MY3DLAYER
10
8.03337931615837
20
22.0709831482509
30
-6.35759999999995
 70
     32
  0
VERTEX
  8
MY3DLAYER
10
8.03508302484391
20
22.0580421959958
30
-6.35759999999995
 70
     32
  0
VERTEX
  8
MY3DLAYER
10
8.03337931615837
20
22.0451012437406
30
-6.35759999999995
 70
     32
  0
VERTEX
  8
MY3DLAYER
10
8.02838429503313
20
22.0330421959958
30
-6.35759999999995
 70
     32
  0
VERTEX
  8
MY3DLAYER
10
8.02043836390324
20
22.0226868569364
30
-6.35759999999995
 70
     32
  0
VERTEX
  8
MY3DLAYER
10
8.01008302484391
20
22.0147409258065
30
-6.35759999999995
 70
     32
  0
VERTEX
  8
MY3DLAYER
10
7.99802397709904
20
22.0097459046813
30
-6.35759999999995
 70
     32
  0
SEQEND
  0
POLYLINE
 8
Layer0
 66
     1
70
    8
 10
0.0
 20
 0.0
 30
0.0
  0
VERTEX
  8
MY3DLAYER
10
9.80969095223929
20
22.0097459046813
30
-6.35759999999992
 70
     32
  0
VERTEX
  8
MY3DLAYER
10
9.79674999998416
20
22.0080421959958
30
-6.35759999999992
 70
     32
  0
VERTEX
  8
MY3DLAYER
10
9.79674999998415
20
21.4219578041714
30
-6.35759999999992
 70
     32
  0
VERTEX
  8
MY3DLAYER
10
9.80969095223928
20
21.4202540954859
30
-6.35759999999992
 70
     32
  0
VERTEX
  8
MY3DLAYER
10
9.82174999998415
20
21.4152590743606
30
-6.35759999999992
 70
     32
  0
VERTEX
  8
MY3DLAYER
10
9.83210533904348
20
21.4073131432307
30
-6.35759999999992
 70
     32
  0
VERTEX
  8
MY3DLAYER
10
9.84005127017337
20
21.3969578041714
30
-6.35759999999992
 70
     32
  0
VERTEX
  8
MY3DLAYER
10
9.8450462912986
20
21.3848987564265
30
-6.35759999999992
 70
     32
  0
VERTEX
  8
MY3DLAYER
10
9.84674999998415
20
21.3719578041714
30
-6.35759999999992
 70
     32
  0
VERTEX
  8
MY3DLAYER
10
9.8450462912986
20
21.3590168519163
30
-6.35759999999992
 70
     32
  0
VERTEX
  8
MY3DLAYER
10
9.84005127017338
20
21.3469578041714
30
-6.35759999999992
 70
     32
  0
VERTEX
  8
MY3DLAYER
10
9.83210533904348
20
21.3366024651121
30
-6.35759999999992
 70
     32
  0
VERTEX
  8
MY3DLAYER
10
9.82174999998415
20
21.3286565339822
30
-6.35759999999992
 70
     32
  0
VERTEX
  8
MY3DLAYER
10
9.80969095223928
20
21.323661512857
30
-6.35759999999992
 70
     32
  0
VERTEX
  8
MY3DLAYER
10
9.79674999998415
20
21.3219578041714
30
-6.35759999999992
 70
     32
  0
VERTEX
  8
MY3DLAYER
10
9.78380904772903
20
21.323661512857
30
-6.35759999999992
 70
     32
  0
VERTEX
  8
MY3DLAYER
10
9.77174999998416
20
21.3286565339822
30
-6.35759999999992
 70
     32
  0
VERTEX
  8
MY3DLAYER
10
9.76139466092483
20
21.3366024651121
30
-6.35759999999992
 70
     32
  0
VERTEX
  8
MY3DLAYER
10
9.75344872979493
20
21.3469578041714
30
-6.35759999999992
 70
     32
  0
VERTEX
  8
MY3DLAYER
10
9.24588475771349
20
21.0539156082592
30
-6.35759999999993
 70
     32
  0
VERTEX
  8
MY3DLAYER
10
9.25087977883872
20
21.0418565605143
30
-6.35759999999993
 70
     32
  0
VERTEX
  8
MY3DLAYER
10
9.25258348752426
20
21.0289156082592
30
-6.35759999999993
 70
     32
  0
VERTEX
  8
MY3DLAYER
10
9.25087977883872
20
21.0159746560041
30
-6.35759999999993
 70
     32
  0
VERTEX
  8
MY3DLAYER
10
9.24588475771349
20
21.0039156082592
30
-6.35759999999993
 70
     32
  0
VERTEX
  8
MY3DLAYER
10
9.23793882658359
20
20.9935602691999
30
-6.35759999999993
 70
     32
  0
VERTEX
  8
MY3DLAYER
10
9.22758348752426
20
20.98561433807
30
-6.35759999999993
 70
     32
  0
VERTEX
  8
MY3DLAYER
10
9.21552443977939
20
20.9806193169448
30
-6.35759999999993
 70
     32
  0
VERTEX
  8
MY3DLAYER
10
9.20258348752427
20
20.9789156082592
30
-6.35759999999993
 70
     32
  0
VERTEX
  8
MY3DLAYER
10
9.18964253526914
20
20.9806193169448
30
-6.35759999999993
 70
     32
  0
VERTEX
  8
MY3DLAYER
10
9.17758348752427
20
20.98561433807
30
-6.35759999999993
 70
     32
  0
VERTEX
  8
MY3DLAYER
10
9.16722814846494
20
20.9935602691999
30
-6.35759999999993
 70
     32
  0
VERTEX
  8
MY3DLAYER
10
9.15928221733505
20
21.0039156082592
30
-6.35759999999993
 70
     32
  0
VERTEX
  8
MY3DLAYER
10
9.15428719620981
20
21.0159746560041
30
-6.35759999999993
 70
     32
  0
VERTEX
  8
MY3DLAYER
10
9.15258348752427
20
21.0289156082592
30
-6.35759999999993
 70
     32
  0
VERTEX
  8
MY3DLAYER
10
9.15428719620981
20
21.0418565605143
30
-6.35759999999993
 70
     32
  0
VERTEX
  8
MY3DLAYER
10
9.15928221733505
20
21.0539156082592
30
-6.35759999999993
 70
     32
  0
VERTEX
  8
MY3DLAYER
10
8.65171824525361
20
21.3469578041714
30
-6.35759999999994
 70
     32
  0
VERTEX
  8
MY3DLAYER
10
8.64377231412372
20
21.3366024651121
30
-6.35759999999994
 70
     32
  0
VERTEX
  8
MY3DLAYER
10
8.63341697506439
20
21.3286565339822
30
-6.35759999999994
 70
     32
  0
VERTEX
  8
MY3DLAYER
10
8.62135792731952
20
21.323661512857
30
-6.35759999999994
 70
     32
  0
VERTEX
  8
MY3DLAYER
10
8.60841697506439
20
21.3219578041714
30
-6.35759999999994
 70
     32
  0
VERTEX
  8
MY3DLAYER
10
8.59547602280927
20
21.323661512857
30
-6.35759999999994
 70
     32
  0
VERTEX
  8
MY3DLAYER
10
8.58341697506439
20
21.3286565339822
30
-6.35759999999994
 70
     32
  0
VERTEX
  8
MY3DLAYER
10
8.57306163600506
20
21.3366024651121
30
-6.35759999999994
 70
     32
  0
VERTEX
  8
MY3DLAYER
10
8.56511570487517
20
21.3469578041714
30
-6.35759999999994
 70
     32
  0
VERTEX
  8
MY3DLAYER
10
8.56012068374994
20
21.3590168519163
30
-6.35759999999994
 70
     32
  0
VERTEX
  8
MY3DLAYER
10
8.55841697506439
20
21.3719578041714
30
-6.35759999999994
 70
     32
  0
VERTEX
  8
MY3DLAYER
10
8.56012068374994
20
21.3848987564265
30
-6.35759999999994
 70
     32
  0
VERTEX
  8
MY3DLAYER
10
8.56511570487517
20
21.3969578041714
30
-6.35759999999994
 70
     32
  0
VERTEX
  8
MY3DLAYER
10
8.57306163600507
20
21.4073131432307
30
-6.35759999999994
 70
     32
  0
VERTEX
  8
MY3DLAYER
10
8.5834169750644
20
21.4152590743606
30
-6.35759999999994
 70
     32
  0
VERTEX
  8
MY3DLAYER
10
8.59547602280927
20
21.4202540954859
30
-6.35759999999994
 70
     32
  0
VERTEX
  8
MY3DLAYER
10
8.60841697506439
20
21.4219578041714
30
-6.35759999999994
 70
     32
  0
VERTEX
  8
MY3DLAYER
10
8.6084169750644
20
22.0080421959957
30
-6.35759999999994
 70
     32
  0
VERTEX
  8
MY3DLAYER
10
8.59547602280927
20
22.0097459046813
30
-6.35759999999994
 70
     32
  0
VERTEX
  8
MY3DLAYER
10
8.5834169750644
20
22.0147409258065
30
-6.35759999999994
 70
     32
  0
VERTEX
  8
MY3DLAYER
10
8.57306163600507
20
22.0226868569364
30
-6.35759999999994
 70
     32
  0
VERTEX
  8
MY3DLAYER
10
8.56511570487518
20
22.0330421959957
30
-6.35759999999994
 70
     32
  0
VERTEX
  8
MY3DLAYER
10
8.56012068374994
20
22.0451012437406
30
-6.35759999999994
 70
     32
  0
VERTEX
  8
MY3DLAYER
10
8.5584169750644
20
22.0580421959957
30
-6.35759999999994
 70
     32
  0
VERTEX
  8
MY3DLAYER
10
8.56012068374994
20
22.0709831482509
30
-6.35759999999994
 70
     32
  0
VERTEX
  8
MY3DLAYER
10
8.56511570487517
20
22.0830421959957
30
-6.35759999999994
 70
     32
  0
VERTEX
  8
MY3DLAYER
10
8.57306163600507
20
22.0933975350551
30
-6.35759999999994
 70
     32
  0
VERTEX
  8
MY3DLAYER
10
8.5834169750644
20
22.101343466185
30
-6.35759999999994
 70
     32
  0
VERTEX
  8
MY3DLAYER
10
8.59547602280927
20
22.1063384873102
30
-6.35759999999994
 70
     32
  0
VERTEX
  8
MY3DLAYER
10
8.60841697506439
20
22.1080421959957
30
-6.35759999999994
 70
     32
  0
VERTEX
  8
MY3DLAYER
10
8.62135792731952
20
22.1063384873102
30
-6.35759999999994
 70
     32
  0
VERTEX
  8
MY3DLAYER
10
8.63341697506439
20
22.101343466185
30
-6.35759999999994
 70
     32
  0
VERTEX
  8
MY3DLAYER
10
8.64377231412372
20
22.0933975350551
30
-6.35759999999994
 70
     32
  0
VERTEX
  8
MY3DLAYER
10
8.65171824525362
20
22.0830421959957
30
-6.35759999999994
 70
     32
  0
VERTEX
  8
MY3DLAYER
10
9.15928221733505
20
22.3760843919079
30
-6.35759999999993
 70
     32
  0
VERTEX
  8
MY3DLAYER
10
9.15428719620982
20
22.3881434396528
30
-6.35759999999993
 70
     32
  0
VERTEX
  8
MY3DLAYER
10
9.15258348752427
20
22.4010843919079
30
-6.35759999999993
 70
     32
  0
VERTEX
  8
MY3DLAYER
10
9.15428719620982
20
22.4140253441631
30
-6.35759999999993
 70
     32
  0
VERTEX
  8
MY3DLAYER
10
9.15928221733505
20
22.4260843919079
30
-6.35759999999993
 70
     32
  0
VERTEX
  8
MY3DLAYER
10
9.16722814846494
20
22.4364397309672
30
-6.35759999999993
 70
     32
  0
VERTEX
  8
MY3DLAYER
10
9.17758348752427
20
22.4443856620971
30
-6.35759999999993
 70
     32
  0
VERTEX
  8
MY3DLAYER
10
9.18964253526914
20
22.4493806832224
30
-6.35759999999993
 70
     32
  0
VERTEX
  8
MY3DLAYER
10
9.20258348752427
20
22.4510843919079
30
-6.35759999999993
 70
     32
  0
VERTEX
  8
MY3DLAYER
10
9.21552443977939
20
22.4493806832224
30
-6.35759999999993
 70
     32
  0
VERTEX
  8
MY3DLAYER
10
9.22758348752427
20
22.4443856620971
30
-6.35759999999993
 70
     32
  0
VERTEX
  8
MY3DLAYER
10
9.23793882658359
20
22.4364397309672
30
-6.35759999999993
 70
     32
  0
VERTEX
  8
MY3DLAYER
10
9.24588475771349
20
22.4260843919079
30
-6.35759999999993
 70
     32
  0
VERTEX
  8
MY3DLAYER
10
9.25087977883872
20
22.4140253441631
30
-6.35759999999993
 70
     32
  0
VERTEX
  8
MY3DLAYER
10
9.25258348752427
20
22.4010843919079
30
-6.35759999999993
 70
     32
  0
VERTEX
  8
MY3DLAYER
10
9.25087977883872
20
22.3881434396528
30
-6.35759999999993
 70
     32
  0
VERTEX
  8
MY3DLAYER
10
9.24588475771349
20
22.3760843919079
30
-6.35759999999993
 70
     32
  0
VERTEX
  8
MY3DLAYER
10
9.75344872979494
20
22.0830421959958
30
-6.35759999999992
 70
     32
  0
VERTEX
  8
MY3DLAYER
10
9.76139466092484
20
22.0933975350551
30
-6.35759999999992
 70
     32
  0
VERTEX
  8
MY3DLAYER
10
9.77174999998417
20
22.101343466185
30
-6.35759999999992
 70
     32
  0
VERTEX
  8
MY3DLAYER
10
9.78380904772904
20
22.1063384873102
30
-6.35759999999992
 70
     32
  0
VERTEX
  8
MY3DLAYER
10
9.79674999998416
20
22.1080421959958
30
-6.35759999999992
 70
     32
  0
VERTEX
  8
MY3DLAYER
10
9.80969095223929
20
22.1063384873102
30
-6.35759999999992
 70
     32
  0
VERTEX
  8
MY3DLAYER
10
9.82174999998416
20
22.101343466185
30
-6.35759999999992
 70
     32
  0
VERTEX
  8
MY3DLAYER
10
9.83210533904349
20
22.0933975350551
30
-6.35759999999992
 70
     32
  0
VERTEX
  8
MY3DLAYER
10
9.84005127017339
20
22.0830421959958
30
-6.35759999999992
 70
     32
  0
VERTEX
  8
MY3DLAYER
10
9.84504629129862
20
22.0709831482509
30
-6.35759999999992
 70
     32
  0
VERTEX
  8
MY3DLAYER
10
9.84674999998416
20
22.0580421959958
30
-6.35759999999992
 70
     32
  0
VERTEX
  8
MY3DLAYER
10
9.84504629129862
20
22.0451012437406
30
-6.35759999999992
 70
     32
  0
VERTEX
  8
MY3DLAYER
10
9.84005127017338
20
22.0330421959958
30
-6.35759999999992
 70
     32
  0
VERTEX
  8
MY3DLAYER
10
9.83210533904349
20
22.0226868569364
30
-6.35759999999992
 70
     32
  0
VERTEX
  8
MY3DLAYER
10
9.82174999998416
20
22.0147409258065
30
-6.35759999999992
 70
     32
  0
VERTEX
  8
MY3DLAYER
10
9.80969095223929
20
22.0097459046813
30
-6.35759999999992
 70
     32
  0
SEQEND
  0
POLYLINE
 8
Layer0
 66
     1
70
    8
 10
0.0
 20
 0.0
 30
0.0
  0
VERTEX
  8
MY3DLAYER
10
7.99802397709517
20
19.2947459046904
30
-6.35759999999995
 70
     32
  0
VERTEX
  8
MY3DLAYER
10
7.98508302484005
20
19.2930421960048
30
-6.35759999999995
 70
     32
  0
VERTEX
  8
MY3DLAYER
10
7.98508302484003
20
18.7069578041805
30
-6.35759999999995
 70
     32
  0
VERTEX
  8
MY3DLAYER
10
7.99802397709516
20
18.705254095495
30
-6.35759999999995
 70
     32
  0
VERTEX
  8
MY3DLAYER
10
8.01008302484004
20
18.7002590743697
30
-6.35759999999995
 70
     32
  0
VERTEX
  8
MY3DLAYER
10
8.02043836389936
20
18.6923131432398
30
-6.35759999999995
 70
     32
  0
VERTEX
  8
MY3DLAYER
10
8.02838429502926
20
18.6819578041805
30
-6.35759999999995
 70
     32
  0
VERTEX
  8
MY3DLAYER
10
8.03337931615449
20
18.6698987564356
30
-6.35759999999995
 70
     32
  0
VERTEX
  8
MY3DLAYER
10
8.03508302484003
20
18.6569578041805
30
-6.35759999999995
 70
     32
  0
VERTEX
  8
MY3DLAYER
10
8.03337931615449
20
18.6440168519254
30
-6.35759999999995
 70
     32
  0
VERTEX
  8
MY3DLAYER
10
8.02838429502926
20
18.6319578041805
30
-6.35759999999995
 70
     32
  0
VERTEX
  8
MY3DLAYER
10
8.02043836389936
20
18.6216024651212
30
-6.35759999999995
 70
     32
  0
VERTEX
  8
MY3DLAYER
10
8.01008302484004
20
18.6136565339913
30
-6.35759999999995
 70
     32
  0
VERTEX
  8
MY3DLAYER
10
7.99802397709516
20
18.608661512866
30
-6.35759999999995
 70
     32
  0
VERTEX
  8
MY3DLAYER
10
7.98508302484004
20
18.6069578041805
30
-6.35759999999995
 70
     32
  0
VERTEX
  8
MY3DLAYER
10
7.97214207258491
20
18.608661512866
30
-6.35759999999995
 70
     32
  0
VERTEX
  8
MY3DLAYER
10
7.96008302484004
20
18.6136565339913
30
-6.35759999999995
 70
     32
  0
VERTEX
  8
MY3DLAYER
10
7.94972768578071
20
18.6216024651212
30
-6.35759999999995
 70
     32
  0
VERTEX
  8
MY3DLAYER
10
7.94178175465082
20
18.6319578041805
30
-6.35759999999995
 70
     32
  0
VERTEX
  8
MY3DLAYER
10
7.43421778256937
20
18.3389156082683
30
-6.35759999999996
 70
     32
  0
VERTEX
  8
MY3DLAYER
10
7.4392128036946
20
18.3268565605234
30
-6.35759999999996
 70
     32
  0
VERTEX
  8
MY3DLAYER
10
7.44091651238015
20
18.3139156082683
30
-6.35759999999996
 70
     32
  0
VERTEX
  8
MY3DLAYER
10
7.4392128036946
20
18.3009746560132
30
-6.35759999999996
 70
     32
  0
VERTEX
  8
MY3DLAYER
10
7.43421778256937
20
18.2889156082683
30
-6.35759999999996
 70
     32
  0
VERTEX
  8
MY3DLAYER
10
7.42627185143947
20
18.278560269209
30
-6.35759999999996
 70
     32
  0
VERTEX
  8
MY3DLAYER
10
7.41591651238015
20
18.2706143380791
30
-6.35759999999996
 70
     32
  0
VERTEX
  8
MY3DLAYER
10
7.40385746463527
20
18.2656193169539
30
-6.35759999999996
 70
     32
  0
VERTEX
  8
MY3DLAYER
10
7.39091651238015
20
18.2639156082683
30
-6.35759999999996
 70
     32
  0
VERTEX
  8
MY3DLAYER
10
7.37797556012502
20
18.2656193169539
30
-6.35759999999996
 70
     32
  0
VERTEX
  8
MY3DLAYER
10
7.36591651238015
20
18.2706143380791
30
-6.35759999999996
 70
     32
  0
VERTEX
  8
MY3DLAYER
10
7.35556117332082
20
18.278560269209
30
-6.35759999999996
 70
     32
  0
VERTEX
  8
MY3DLAYER
10
7.34761524219093
20
18.2889156082683
30
-6.35759999999996
 70
     32
  0
VERTEX
  8
MY3DLAYER
10
7.3426202210657
20
18.3009746560132
30
-6.35759999999996
 70
     32
  0
VERTEX
  8
MY3DLAYER
10
7.34091651238015
20
18.3139156082683
30
-6.35759999999996
 70
     32
  0
VERTEX
  8
MY3DLAYER
10
7.3426202210657
20
18.3268565605234
30
-6.35759999999996
 70
     32
  0
VERTEX
  8
MY3DLAYER
10
7.34761524219093
20
18.3389156082683
30
-6.35759999999996
 70
     32
  0
VERTEX
  8
MY3DLAYER
10
6.8400512701095
20
18.6319578041805
30
-6.35759999999997
 70
     32
  0
VERTEX
  8
MY3DLAYER
10
6.8321053389796
20
18.6216024651212
30
-6.35759999999997
 70
     32
  0
VERTEX
  8
MY3DLAYER
10
6.82174999992027
20
18.6136565339913
30
-6.35759999999997
 70
     32
  0
VERTEX
  8
MY3DLAYER
10
6.8096909521754
20
18.608661512866
30
-6.35759999999997
 70
     32
  0
VERTEX
  8
MY3DLAYER
10
6.79674999992027
20
18.6069578041805
30
-6.35759999999997
 70
     32
  0
VERTEX
  8
MY3DLAYER
10
6.78380904766515
20
18.608661512866
30
-6.35759999999997
 70
     32
  0
VERTEX
  8
MY3DLAYER
10
6.77174999992028
20
18.6136565339913
30
-6.35759999999997
 70
     32
  0
VERTEX
  8
MY3DLAYER
10
6.76139466086095
20
18.6216024651212
30
-6.35759999999997
 70
     32
  0
VERTEX
  8
MY3DLAYER
10
6.75344872973105
20
18.6319578041805
30
-6.35759999999997
 70
     32
  0
VERTEX
  8
MY3DLAYER
10
6.74845370860582
20
18.6440168519254
30
-6.35759999999997
 70
     32
  0
VERTEX
  8
MY3DLAYER
10
6.74674999992028
20
18.6569578041805
30
-6.35759999999997
 70
     32
  0
VERTEX
  8
MY3DLAYER
10
6.74845370860582
20
18.6698987564356
30
-6.35759999999997
 70
     32
  0
VERTEX
  8
MY3DLAYER
10
6.75344872973106
20
18.6819578041805
30
-6.35759999999997
 70
     32
  0
VERTEX
  8
MY3DLAYER
10
6.76139466086095
20
18.6923131432398
30
-6.35759999999997
 70
     32
  0
VERTEX
  8
MY3DLAYER
10
6.77174999992028
20
18.7002590743697
30
-6.35759999999997
 70
     32
  0
VERTEX
  8
MY3DLAYER
10
6.78380904766515
20
18.7052540954949
30
-6.35759999999997
 70
     32
  0
VERTEX
  8
MY3DLAYER
10
6.79674999992028
20
18.7069578041805
30
-6.35759999999997
 70
     32
  0
VERTEX
  8
MY3DLAYER
10
6.79674999992028
20
19.2930421960048
30
-6.35759999999997
 70
     32
  0
VERTEX
  8
MY3DLAYER
10
6.78380904766515
20
19.2947459046904
30
-6.35759999999997
 70
     32
  0
VERTEX
  8
MY3DLAYER
10
6.77174999992028
20
19.2997409258156
30
-6.35759999999997
 70
     32
  0
VERTEX
  8
MY3DLAYER
10
6.76139466086095
20
19.3076868569455
30
-6.35759999999997
 70
     32
  0
VERTEX
  8
MY3DLAYER
10
6.75344872973106
20
19.3180421960048
30
-6.35759999999997
 70
     32
  0
VERTEX
  8
MY3DLAYER
10
6.74845370860583
20
19.3301012437497
30
-6.35759999999997
 70
     32
  0
VERTEX
  8
MY3DLAYER
10
6.74674999992028
20
19.3430421960048
30
-6.35759999999997
 70
     32
  0
VERTEX
  8
MY3DLAYER
10
6.74845370860583
20
19.35598314826
30
-6.35759999999997
 70
     32
  0
VERTEX
  8
MY3DLAYER
10
6.75344872973106
20
19.3680421960048
30
-6.35759999999997
 70
     32
  0
VERTEX
  8
MY3DLAYER
10
6.76139466086095
20
19.3783975350642
30
-6.35759999999997
 70
     32
  0
VERTEX
  8
MY3DLAYER
10
6.77174999992028
20
19.386343466194
30
-6.35759999999997
 70
     32
  0
VERTEX
  8
MY3DLAYER
10
6.78380904766515
20
19.3913384873193
30
-6.35759999999997
 70
     32
  0
VERTEX
  8
MY3DLAYER
10
6.79674999992028
20
19.3930421960048
30
-6.35759999999997
 70
     32
  0
VERTEX
  8
MY3DLAYER
10
6.8096909521754
20
19.3913384873193
30
-6.35759999999997
 70
     32
  0
VERTEX
  8
MY3DLAYER
10
6.82174999992028
20
19.3863434661941
30
-6.35759999999997
 70
     32
  0
VERTEX
  8
MY3DLAYER
10
6.8321053389796
20
19.3783975350642
30
-6.35759999999997
 70
     32
  0
VERTEX
  8
MY3DLAYER
10
6.8400512701095
20
19.3680421960048
30
-6.35759999999997
 70
     32
  0
VERTEX
  8
MY3DLAYER
10
7.34761524219093
20
19.661084391917
30
-6.35759999999996
 70
     32
  0
VERTEX
  8
MY3DLAYER
10
7.3426202210657
20
19.6731434396619
30
-6.35759999999996
 70
     32
  0
VERTEX
  8
MY3DLAYER
10
7.34091651238015
20
19.686084391917
30
-6.35759999999996
 70
     32
  0
VERTEX
  8
MY3DLAYER
10
7.3426202210657
20
19.6990253441721
30
-6.35759999999996
 70
     32
  0
VERTEX
  8
MY3DLAYER
10
7.34761524219093
20
19.711084391917
30
-6.35759999999996
 70
     32
  0
VERTEX
  8
MY3DLAYER
10
7.35556117332083
20
19.7214397309763
30
-6.35759999999996
 70
     32
  0
VERTEX
  8
MY3DLAYER
10
7.36591651238015
20
19.7293856621062
30
-6.35759999999996
 70
     32
  0
VERTEX
  8
MY3DLAYER
10
7.37797556012503
20
19.7343806832315
30
-6.35759999999996
 70
     32
  0
VERTEX
  8
MY3DLAYER
10
7.39091651238015
20
19.736084391917
30
-6.35759999999996
 70
     32
  0
VERTEX
  8
MY3DLAYER
10
7.40385746463528
20
19.7343806832315
30
-6.35759999999996
 70
     32
  0
VERTEX
  8
MY3DLAYER
10
7.41591651238015
20
19.7293856621062
30
-6.35759999999996
 70
     32
  0
VERTEX
  8
MY3DLAYER
10
7.42627185143948
20
19.7214397309763
30
-6.35759999999996
 70
     32
  0
VERTEX
  8
MY3DLAYER
10
7.43421778256937
20
19.711084391917
30
-6.35759999999996
 70
     32
  0
VERTEX
  8
MY3DLAYER
10
7.4392128036946
20
19.6990253441721
30
-6.35759999999996
 70
     32
  0
VERTEX
  8
MY3DLAYER
10
7.44091651238015
20
19.686084391917
30
-6.35759999999996
 70
     32
  0
VERTEX
  8
MY3DLAYER
10
7.4392128036946
20
19.6731434396619
30
-6.35759999999996
 70
     32
  0
VERTEX
  8
MY3DLAYER
10
7.43421778256937
20
19.661084391917
30
-6.35759999999996
 70
     32
  0
VERTEX
  8
MY3DLAYER
10
7.94178175465083
20
19.3680421960048
30
-6.35759999999995
 70
     32
  0
VERTEX
  8
MY3DLAYER
10
7.94972768578072
20
19.3783975350642
30
-6.35759999999995
 70
     32
  0
VERTEX
  8
MY3DLAYER
10
7.96008302484005
20
19.3863434661941
30
-6.35759999999995
 70
     32
  0
VERTEX
  8
MY3DLAYER
10
7.97214207258492
20
19.3913384873193
30
-6.35759999999995
 70
     32
  0
VERTEX
  8
MY3DLAYER
10
7.98508302484005
20
19.3930421960048
30
-6.35759999999995
 70
     32
  0
VERTEX
  8
MY3DLAYER
10
7.99802397709517
20
19.3913384873193
30
-6.35759999999995
 70
     32
  0
VERTEX
  8
MY3DLAYER
10
8.01008302484005
20
19.3863434661941
30
-6.35759999999995
 70
     32
  0
VERTEX
  8
MY3DLAYER
10
8.02043836389937
20
19.3783975350642
30
-6.35759999999995
 70
     32
  0
VERTEX
  8
MY3DLAYER
10
8.02838429502927
20
19.3680421960048
30
-6.35759999999995
 70
     32
  0
VERTEX
  8
MY3DLAYER
10
8.0333793161545
20
19.35598314826
30
-6.35759999999995
 70
     32
  0
VERTEX
  8
MY3DLAYER
10
8.03508302484004
20
19.3430421960048
30
-6.35759999999995
 70
     32
  0
VERTEX
  8
MY3DLAYER
10
8.0333793161545
20
19.3301012437497
30
-6.35759999999995
 70
     32
  0
VERTEX
  8
MY3DLAYER
10
8.02838429502927
20
19.3180421960048
30
-6.35759999999995
 70
     32
  0
VERTEX
  8
MY3DLAYER
10
8.02043836389937
20
19.3076868569455
30
-6.35759999999995
 70
     32
  0
VERTEX
  8
MY3DLAYER
10
8.01008302484005
20
19.2997409258156
30
-6.35759999999995
 70
     32
  0
VERTEX
  8
MY3DLAYER
10
7.99802397709517
20
19.2947459046904
30
-6.35759999999995
 70
     32
  0
SEQEND
  0
POLYLINE
 8
Layer0
 66
     1
70
    8
 10
0.0
 20
 0.0
 30
0.0
  0
VERTEX
  8
MY3DLAYER
10
9.80969095223542
20
19.2947459046904
30
-6.35759999999992
 70
     32
  0
VERTEX
  8
MY3DLAYER
10
9.7967499999803
20
19.2930421960048
30
-6.35759999999992
 70
     32
  0
VERTEX
  8
MY3DLAYER
10
9.79674999998029
20
18.7069578041805
30
-6.35759999999992
 70
     32
  0
VERTEX
  8
MY3DLAYER
10
9.80969095223541
20
18.705254095495
30
-6.35759999999992
 70
     32
  0
VERTEX
  8
MY3DLAYER
10
9.82174999998028
20
18.7002590743697
30
-6.35759999999992
 70
     32
  0
VERTEX
  8
MY3DLAYER
10
9.83210533903961
20
18.6923131432398
30
-6.35759999999992
 70
     32
  0
VERTEX
  8
MY3DLAYER
10
9.84005127016951
20
18.6819578041805
30
-6.35759999999992
 70
     32
  0
VERTEX
  8
MY3DLAYER
10
9.84504629129474
20
18.6698987564356
30
-6.35759999999991
 70
     32
  0
VERTEX
  8
MY3DLAYER
10
9.84674999998029
20
18.6569578041805
30
-6.35759999999991
 70
     32
  0
VERTEX
  8
MY3DLAYER
10
9.84504629129474
20
18.6440168519254
30
-6.35759999999991
 70
     32
  0
VERTEX
  8
MY3DLAYER
10
9.84005127016951
20
18.6319578041805
30
-6.35759999999992
 70
     32
  0
VERTEX
  8
MY3DLAYER
10
9.83210533903961
20
18.6216024651212
30
-6.35759999999992
 70
     32
  0
VERTEX
  8
MY3DLAYER
10
9.82174999998029
20
18.6136565339913
30
-6.35759999999992
 70
     32
  0
VERTEX
  8
MY3DLAYER
10
9.80969095223541
20
18.608661512866
30
-6.35759999999992
 70
     32
  0
VERTEX
  8
MY3DLAYER
10
9.79674999998029
20
18.6069578041805
30
-6.35759999999992
 70
     32
  0
VERTEX
  8
MY3DLAYER
10
9.78380904772516
20
18.608661512866
30
-6.35759999999992
 70
     32
  0
VERTEX
  8
MY3DLAYER
10
9.77174999998029
20
18.6136565339913
30
-6.35759999999992
 70
     32
  0
VERTEX
  8
MY3DLAYER
10
9.76139466092096
20
18.6216024651212
30
-6.35759999999992
 70
     32
  0
VERTEX
  8
MY3DLAYER
10
9.75344872979107
20
18.6319578041805
30
-6.35759999999992
 70
     32
  0
VERTEX
  8
MY3DLAYER
10
9.24588475770962
20
18.3389156082683
30
-6.35759999999993
 70
     32
  0
VERTEX
  8
MY3DLAYER
10
9.25087977883485
20
18.3268565605234
30
-6.35759999999993
 70
     32
  0
VERTEX
  8
MY3DLAYER
10
9.2525834875204
20
18.3139156082683
30
-6.35759999999993
 70
     32
  0
VERTEX
  8
MY3DLAYER
10
9.25087977883485
20
18.3009746560132
30
-6.35759999999993
 70
     32
  0
VERTEX
  8
MY3DLAYER
10
9.24588475770962
20
18.2889156082683
30
-6.35759999999993
 70
     32
  0
VERTEX
  8
MY3DLAYER
10
9.23793882657973
20
18.278560269209
30
-6.35759999999993
 70
     32
  0
VERTEX
  8
MY3DLAYER
10
9.2275834875204
20
18.2706143380791
30
-6.35759999999993
 70
     32
  0
VERTEX
  8
MY3DLAYER
10
9.21552443977552
20
18.2656193169539
30
-6.35759999999993
 70
     32
  0
VERTEX
  8
MY3DLAYER
10
9.2025834875204
20
18.2639156082683
30
-6.35759999999993
 70
     32
  0
VERTEX
  8
MY3DLAYER
10
9.18964253526527
20
18.2656193169539
30
-6.35759999999993
 70
     32
  0
VERTEX
  8
MY3DLAYER
10
9.1775834875204
20
18.2706143380791
30
-6.35759999999993
 70
     32
  0
VERTEX
  8
MY3DLAYER
10
9.16722814846107
20
18.278560269209
30
-6.35759999999993
 70
     32
  0
VERTEX
  8
MY3DLAYER
10
9.15928221733118
20
18.2889156082683
30
-6.35759999999993
 70
     32
  0
VERTEX
  8
MY3DLAYER
10
9.15428719620595
20
18.3009746560132
30
-6.35759999999993
 70
     32
  0
VERTEX
  8
MY3DLAYER
10
9.1525834875204
20
18.3139156082683
30
-6.35759999999993
 70
     32
  0
VERTEX
  8
MY3DLAYER
10
9.15428719620595
20
18.3268565605234
30
-6.35759999999993
 70
     32
  0
VERTEX
  8
MY3DLAYER
10
9.15928221733118
20
18.3389156082683
30
-6.35759999999993
 70
     32
  0
VERTEX
  8
MY3DLAYER
10
8.65171824524975
20
18.6319578041805
30
-6.35759999999994
 70
     32
  0
VERTEX
  8
MY3DLAYER
10
8.64377231411985
20
18.6216024651212
30
-6.35759999999994
 70
     32
  0
VERTEX
  8
MY3DLAYER
10
8.63341697506052
20
18.6136565339913
30
-6.35759999999994
 70
     32
  0
VERTEX
  8
MY3DLAYER
10
8.62135792731565
20
18.608661512866
30
-6.35759999999994
 70
     32
  0
VERTEX
  8
MY3DLAYER
10
8.60841697506052
20
18.6069578041805
30
-6.35759999999994
 70
     32
  0
VERTEX
  8
MY3DLAYER
10
8.5954760228054
20
18.608661512866
30
-6.35759999999994
 70
     32
  0
VERTEX
  8
MY3DLAYER
10
8.58341697506053
20
18.6136565339913
30
-6.35759999999994
 70
     32
  0
VERTEX
  8
MY3DLAYER
10
8.5730616360012
20
18.6216024651212
30
-6.35759999999994
 70
     32
  0
VERTEX
  8
MY3DLAYER
10
8.5651157048713
20
18.6319578041805
30
-6.35759999999994
 70
     32
  0
VERTEX
  8
MY3DLAYER
10
8.56012068374607
20
18.6440168519254
30
-6.35759999999994
 70
     32
  0
VERTEX
  8
MY3DLAYER
10
8.55841697506053
20
18.6569578041805
30
-6.35759999999994
 70
     32
  0
VERTEX
  8
MY3DLAYER
10
8.56012068374607
20
18.6698987564356
30
-6.35759999999994
 70
     32
  0
VERTEX
  8
MY3DLAYER
10
8.56511570487131
20
18.6819578041805
30
-6.35759999999994
 70
     32
  0
VERTEX
  8
MY3DLAYER
10
8.5730616360012
20
18.6923131432398
30
-6.35759999999994
 70
     32
  0
VERTEX
  8
MY3DLAYER
10
8.58341697506053
20
18.7002590743697
30
-6.35759999999994
 70
     32
  0
VERTEX
  8
MY3DLAYER
10
8.5954760228054
20
18.7052540954949
30
-6.35759999999994
 70
     32
  0
VERTEX
  8
MY3DLAYER
10
8.60841697506053
20
18.7069578041805
30
-6.35759999999994
 70
     32
  0
VERTEX
  8
MY3DLAYER
10
8.60841697506053
20
19.2930421960048
30
-6.35759999999994
 70
     32
  0
VERTEX
  8
MY3DLAYER
10
8.5954760228054
20
19.2947459046904
30
-6.35759999999994
 70
     32
  0
VERTEX
  8
MY3DLAYER
10
8.58341697506053
20
19.2997409258156
30
-6.35759999999994
 70
     32
  0
VERTEX
  8
MY3DLAYER
10
8.5730616360012
20
19.3076868569455
30
-6.35759999999994
 70
     32
  0
VERTEX
  8
MY3DLAYER
10
8.56511570487131
20
19.3180421960048
30
-6.35759999999994
 70
     32
  0
VERTEX
  8
MY3DLAYER
10
8.56012068374607
20
19.3301012437497
30
-6.35759999999994
 70
     32
  0
VERTEX
  8
MY3DLAYER
10
8.55841697506053
20
19.3430421960048
30
-6.35759999999994
 70
     32
  0
VERTEX
  8
MY3DLAYER
10
8.56012068374607
20
19.35598314826
30
-6.35759999999994
 70
     32
  0
VERTEX
  8
MY3DLAYER
10
8.56511570487131
20
19.3680421960048
30
-6.35759999999994
 70
     32
  0
VERTEX
  8
MY3DLAYER
10
8.5730616360012
20
19.3783975350642
30
-6.35759999999994
 70
     32
  0
VERTEX
  8
MY3DLAYER
10
8.58341697506053
20
19.386343466194
30
-6.35759999999994
 70
     32
  0
VERTEX
  8
MY3DLAYER
10
8.5954760228054
20
19.3913384873193
30
-6.35759999999994
 70
     32
  0
VERTEX
  8
MY3DLAYER
10
8.60841697506052
20
19.3930421960048
30
-6.35759999999994
 70
     32
  0
VERTEX
  8
MY3DLAYER
10
8.62135792731565
20
19.3913384873193
30
-6.35759999999994
 70
     32
  0
VERTEX
  8
MY3DLAYER
10
8.63341697506053
20
19.3863434661941
30
-6.35759999999994
 70
     32
  0
VERTEX
  8
MY3DLAYER
10
8.64377231411985
20
19.3783975350642
30
-6.35759999999994
 70
     32
  0
VERTEX
  8
MY3DLAYER
10
8.65171824524975
20
19.3680421960048
30
-6.35759999999994
 70
     32
  0
VERTEX
  8
MY3DLAYER
10
9.15928221733118
20
19.661084391917
30
-6.35759999999993
 70
     32
  0
VERTEX
  8
MY3DLAYER
10
9.15428719620595
20
19.6731434396619
30
-6.35759999999993
 70
     32
  0
VERTEX
  8
MY3DLAYER
10
9.1525834875204
20
19.686084391917
30
-6.35759999999993
 70
     32
  0
VERTEX
  8
MY3DLAYER
10
9.15428719620595
20
19.6990253441721
30
-6.35759999999993
 70
     32
  0
VERTEX
  8
MY3DLAYER
10
9.15928221733118
20
19.711084391917
30
-6.35759999999993
 70
     32
  0
VERTEX
  8
MY3DLAYER
10
9.16722814846107
20
19.7214397309763
30
-6.35759999999993
 70
     32
  0
VERTEX
  8
MY3DLAYER
10
9.1775834875204
20
19.7293856621062
30
-6.35759999999993
 70
     32
  0
VERTEX
  8
MY3DLAYER
10
9.18964253526527
20
19.7343806832315
30
-6.35759999999993
 70
     32
  0
VERTEX
  8
MY3DLAYER
10
9.2025834875204
20
19.736084391917
30
-6.35759999999993
 70
     32
  0
VERTEX
  8
MY3DLAYER
10
9.21552443977552
20
19.7343806832315
30
-6.35759999999993
 70
     32
  0
VERTEX
  8
MY3DLAYER
10
9.2275834875204
20
19.7293856621062
30
-6.35759999999993
 70
     32
  0
VERTEX
  8
MY3DLAYER
10
9.23793882657973
20
19.7214397309763
30
-6.35759999999993
 70
     32
  0
VERTEX
  8
MY3DLAYER
10
9.24588475770962
20
19.711084391917
30
-6.35759999999993
 70
     32
  0
VERTEX
  8
MY3DLAYER
10
9.25087977883485
20
19.6990253441721
30
-6.35759999999993
 70
     32
  0
VERTEX
  8
MY3DLAYER
10
9.2525834875204
20
19.686084391917
30
-6.35759999999993
 70
     32
  0
VERTEX
  8
MY3DLAYER
10
9.25087977883485
20
19.6731434396619
30
-6.35759999999993
 70
     32
  0
VERTEX
  8
MY3DLAYER
10
9.24588475770962
20
19.661084391917
30
-6.35759999999993
 70
     32
  0
VERTEX
  8
MY3DLAYER
10
9.75344872979108
20
19.3680421960048
30
-6.35759999999992
 70
     32
  0
VERTEX
  8
MY3DLAYER
10
9.76139466092097
20
19.3783975350642
30
-6.35759999999992
 70
     32
  0
VERTEX
  8
MY3DLAYER
10
9.7717499999803
20
19.3863434661941
30
-6.35759999999992
 70
     32
  0
VERTEX
  8
MY3DLAYER
10
9.78380904772517
20
19.3913384873193
30
-6.35759999999992
 70
     32
  0
VERTEX
  8
MY3DLAYER
10
9.7967499999803
20
19.3930421960048
30
-6.35759999999992
 70
     32
  0
VERTEX
  8
MY3DLAYER
10
9.80969095223542
20
19.3913384873193
30
-6.35759999999992
 70
     32
  0
VERTEX
  8
MY3DLAYER
10
9.8217499999803
20
19.3863434661941
30
-6.35759999999991
 70
     32
  0
VERTEX
  8
MY3DLAYER
10
9.83210533903963
20
19.3783975350642
30
-6.35759999999991
 70
     32
  0
VERTEX
  8
MY3DLAYER
10
9.84005127016952
20
19.3680421960048
30
-6.35759999999991
 70
     32
  0
VERTEX
  8
MY3DLAYER
10
9.84504629129475
20
19.35598314826
30
-6.35759999999991
 70
     32
  0
VERTEX
  8
MY3DLAYER
10
9.8467499999803
20
19.3430421960048
30
-6.35759999999992
 70
     32
  0
VERTEX
  8
MY3DLAYER
10
9.84504629129475
20
19.3301012437497
30
-6.35759999999992
 70
     32
  0
VERTEX
  8
MY3DLAYER
10
9.84005127016952
20
19.3180421960048
30
-6.35759999999992
 70
     32
  0
VERTEX
  8
MY3DLAYER
10
9.83210533903962
20
19.3076868569455
30
-6.35759999999992
 70
     32
  0
VERTEX
  8
MY3DLAYER
10
9.82174999998029
20
19.2997409258156
30
-6.35759999999992
 70
     32
  0
VERTEX
  8
MY3DLAYER
10
9.80969095223542
20
19.2947459046904
30
-6.35759999999992
 70
     32
  0
SEQEND
  0
POLYLINE
 8
Layer0
 66
     1
70
    8
 10
0.0
 20
 0.0
 30
0.0
  0
VERTEX
  8
MY3DLAYER
10
9.80969095223156
20
16.5797459046995
30
-6.35759999999991
 70
     32
  0
VERTEX
  8
MY3DLAYER
10
9.79674999997643
20
16.5780421960139
30
-6.35759999999991
 70
     32
  0
VERTEX
  8
MY3DLAYER
10
9.79674999997642
20
15.9919578041896
30
-6.35759999999991
 70
     32
  0
VERTEX
  8
MY3DLAYER
10
9.80969095223154
20
15.990254095504
30
-6.35759999999991
 70
     32
  0
VERTEX
  8
MY3DLAYER
10
9.82174999997642
20
15.9852590743788
30
-6.35759999999991
 70
     32
  0
VERTEX
  8
MY3DLAYER
10
9.83210533903575
20
15.9773131432489
30
-6.35759999999991
 70
     32
  0
VERTEX
  8
MY3DLAYER
10
9.84005127016564
20
15.9669578041896
30
-6.35759999999991
 70
     32
  0
VERTEX
  8
MY3DLAYER
10
9.84504629129087
20
15.9548987564447
30
-6.35759999999991
 70
     32
  0
VERTEX
  8
MY3DLAYER
10
9.84674999997642
20
15.9419578041896
30
-6.35759999999991
 70
     32
  0
VERTEX
  8
MY3DLAYER
10
9.84504629129087
20
15.9290168519345
30
-6.35759999999991
 70
     32
  0
VERTEX
  8
MY3DLAYER
10
9.84005127016564
20
15.9169578041896
30
-6.35759999999991
 70
     32
  0
VERTEX
  8
MY3DLAYER
10
9.83210533903575
20
15.9066024651303
30
-6.35759999999991
 70
     32
  0
VERTEX
  8
MY3DLAYER
10
9.82174999997642
20
15.8986565340004
30
-6.35759999999991
 70
     32
  0
VERTEX
  8
MY3DLAYER
10
9.80969095223154
20
15.8936615128751
30
-6.35759999999991
 70
     32
  0
VERTEX
  8
MY3DLAYER
10
9.79674999997642
20
15.8919578041896
30
-6.35759999999991
 70
     32
  0
VERTEX
  8
MY3DLAYER
10
9.7838090477213
20
15.8936615128751
30
-6.35759999999991
 70
     32
  0
VERTEX
  8
MY3DLAYER
10
9.77174999997642
20
15.8986565340004
30
-6.35759999999991
 70
     32
  0
VERTEX
  8
MY3DLAYER
10
9.76139466091709
20
15.9066024651303
30
-6.35759999999991
 70
     32
  0
VERTEX
  8
MY3DLAYER
10
9.7534487297872
20
15.9169578041896
30
-6.35759999999991
 70
     32
  0
VERTEX
  8
MY3DLAYER
10
9.24588475770575
20
15.6239156082774
30
-6.35759999999992
 70
     32
  0
VERTEX
  8
MY3DLAYER
10
9.25087977883098
20
15.6118565605325
30
-6.35759999999992
 70
     32
  0
VERTEX
  8
MY3DLAYER
10
9.25258348751653
20
15.5989156082774
30
-6.35759999999992
 70
     32
  0
VERTEX
  8
MY3DLAYER
10
9.25087977883098
20
15.5859746560223
30
-6.35759999999992
 70
     32
  0
VERTEX
  8
MY3DLAYER
10
9.24588475770575
20
15.5739156082774
30
-6.35759999999992
 70
     32
  0
VERTEX
  8
MY3DLAYER
10
9.23793882657586
20
15.5635602692181
30
-6.35759999999992
 70
     32
  0
VERTEX
  8
MY3DLAYER
10
9.22758348751653
20
15.5556143380882
30
-6.35759999999992
 70
     32
  0
VERTEX
  8
MY3DLAYER
10
9.21552443977166
20
15.550619316963
30
-6.35759999999992
 70
     32
  0
VERTEX
  8
MY3DLAYER
10
9.20258348751653
20
15.5489156082774
30
-6.35759999999992
 70
     32
  0
VERTEX
  8
MY3DLAYER
10
9.18964253526141
20
15.550619316963
30
-6.35759999999992
 70
     32
  0
VERTEX
  8
MY3DLAYER
10
9.17758348751653
20
15.5556143380882
30
-6.35759999999992
 70
     32
  0
VERTEX
  8
MY3DLAYER
10
9.16722814845721
20
15.5635602692181
30
-6.35759999999992
 70
     32
  0
VERTEX
  8
MY3DLAYER
10
9.15928221732731
20
15.5739156082774
30
-6.35759999999992
 70
     32
  0
VERTEX
  8
MY3DLAYER
10
9.15428719620208
20
15.5859746560223
30
-6.35759999999992
 70
     32
  0
VERTEX
  8
MY3DLAYER
10
9.15258348751653
20
15.5989156082774
30
-6.35759999999992
 70
     32
  0
VERTEX
  8
MY3DLAYER
10
9.15428719620208
20
15.6118565605325
30
-6.35759999999992
 70
     32
  0
VERTEX
  8
MY3DLAYER
10
9.15928221732731
20
15.6239156082774
30
-6.35759999999992
 70
     32
  0
VERTEX
  8
MY3DLAYER
10
8.65171824524588
20
15.9169578041896
30
-6.35759999999993
 70
     32
  0
VERTEX
  8
MY3DLAYER
10
8.64377231411599
20
15.9066024651303
30
-6.35759999999993
 70
     32
  0
VERTEX
  8
MY3DLAYER
10
8.63341697505666
20
15.8986565340004
30
-6.35759999999993
 70
     32
  0
VERTEX
  8
MY3DLAYER
10
8.62135792731178
20
15.8936615128751
30
-6.35759999999993
 70
     32
  0
VERTEX
  8
MY3DLAYER
10
8.60841697505666
20
15.8919578041896
30
-6.35759999999993
 70
     32
  0
VERTEX
  8
MY3DLAYER
10
8.59547602280153
20
15.8936615128751
30
-6.35759999999993
 70
     32
  0
VERTEX
  8
MY3DLAYER
10
8.58341697505666
20
15.8986565340004
30
-6.35759999999993
 70
     32
  0
VERTEX
  8
MY3DLAYER
10
8.57306163599733
20
15.9066024651303
30
-6.35759999999993
 70
     32
  0
VERTEX
  8
MY3DLAYER
10
8.56511570486744
20
15.9169578041896
30
-6.35759999999993
 70
     32
  0
VERTEX
  8
MY3DLAYER
10
8.56012068374221
20
15.9290168519345
30
-6.35759999999993
 70
     32
  0
VERTEX
  8
MY3DLAYER
10
8.55841697505666
20
15.9419578041896
30
-6.35759999999993
 70
     32
  0
VERTEX
  8
MY3DLAYER
10
8.56012068374221
20
15.9548987564447
30
-6.35759999999993
 70
     32
  0
VERTEX
  8
MY3DLAYER
10
8.56511570486744
20
15.9669578041896
30
-6.35759999999993
 70
     32
  0
VERTEX
  8
MY3DLAYER
10
8.57306163599733
20
15.9773131432489
30
-6.35759999999993
 70
     32
  0
VERTEX
  8
MY3DLAYER
10
8.58341697505666
20
15.9852590743788
30
-6.35759999999993
 70
     32
  0
VERTEX
  8
MY3DLAYER
10
8.59547602280153
20
15.990254095504
30
-6.35759999999993
 70
     32
  0
VERTEX
  8
MY3DLAYER
10
8.60841697505666
20
15.9919578041896
30
-6.35759999999993
 70
     32
  0
VERTEX
  8
MY3DLAYER
10
8.60841697505666
20
16.5780421960139
30
-6.35759999999993
 70
     32
  0
VERTEX
  8
MY3DLAYER
10
8.59547602280153
20
16.5797459046995
30
-6.35759999999993
 70
     32
  0
VERTEX
  8
MY3DLAYER
10
8.58341697505666
20
16.5847409258247
30
-6.35759999999993
 70
     32
  0
VERTEX
  8
MY3DLAYER
10
8.57306163599733
20
16.5926868569546
30
-6.35759999999993
 70
     32
  0
VERTEX
  8
MY3DLAYER
10
8.56511570486744
20
16.6030421960139
30
-6.35759999999993
 70
     32
  0
VERTEX
  8
MY3DLAYER
10
8.56012068374221
20
16.6151012437588
30
-6.35759999999993
 70
     32
  0
VERTEX
  8
MY3DLAYER
10
8.55841697505666
20
16.6280421960139
30
-6.35759999999993
 70
     32
  0
VERTEX
  8
MY3DLAYER
10
8.56012068374221
20
16.640983148269
30
-6.35759999999993
 70
     32
  0
VERTEX
  8
MY3DLAYER
10
8.56511570486744
20
16.6530421960139
30
-6.35759999999993
 70
     32
  0
VERTEX
  8
MY3DLAYER
10
8.57306163599733
20
16.6633975350733
30
-6.35759999999993
 70
     32
  0
VERTEX
  8
MY3DLAYER
10
8.58341697505666
20
16.6713434662031
30
-6.35759999999993
 70
     32
  0
VERTEX
  8
MY3DLAYER
10
8.59547602280153
20
16.6763384873284
30
-6.35759999999993
 70
     32
  0
VERTEX
  8
MY3DLAYER
10
8.60841697505666
20
16.6780421960139
30
-6.35759999999993
 70
     32
  0
VERTEX
  8
MY3DLAYER
10
8.62135792731178
20
16.6763384873284
30
-6.35759999999993
 70
     32
  0
VERTEX
  8
MY3DLAYER
10
8.63341697505666
20
16.6713434662031
30
-6.35759999999993
 70
     32
  0
VERTEX
  8
MY3DLAYER
10
8.64377231411599
20
16.6633975350733
30
-6.35759999999993
 70
     32
  0
VERTEX
  8
MY3DLAYER
10
8.65171824524588
20
16.6530421960139
30
-6.35759999999993
 70
     32
  0
VERTEX
  8
MY3DLAYER
10
9.15928221732731
20
16.9460843919261
30
-6.35759999999992
 70
     32
  0
VERTEX
  8
MY3DLAYER
10
9.15428719620208
20
16.958143439671
30
-6.35759999999992
 70
     32
  0
VERTEX
  8
MY3DLAYER
10
9.15258348751654
20
16.9710843919261
30
-6.35759999999992
 70
     32
  0
VERTEX
  8
MY3DLAYER
10
9.15428719620208
20
16.9840253441812
30
-6.35759999999992
 70
     32
  0
VERTEX
  8
MY3DLAYER
10
9.15928221732731
20
16.9960843919261
30
-6.35759999999992
 70
     32
  0
VERTEX
  8
MY3DLAYER
10
9.16722814845721
20
17.0064397309854
30
-6.35759999999992
 70
     32
  0
VERTEX
  8
MY3DLAYER
10
9.17758348751654
20
17.0143856621153
30
-6.35759999999992
 70
     32
  0
VERTEX
  8
MY3DLAYER
10
9.18964253526141
20
17.0193806832406
30
-6.35759999999992
 70
     32
  0
VERTEX
  8
MY3DLAYER
10
9.20258348751653
20
17.0210843919261
30
-6.35759999999992
 70
     32
  0
VERTEX
  8
MY3DLAYER
10
9.21552443977166
20
17.0193806832406
30
-6.35759999999992
 70
     32
  0
VERTEX
  8
MY3DLAYER
10
9.22758348751653
20
17.0143856621153
30
-6.35759999999992
 70
     32
  0
VERTEX
  8
MY3DLAYER
10
9.23793882657586
20
17.0064397309854
30
-6.35759999999992
 70
     32
  0
VERTEX
  8
MY3DLAYER
10
9.24588475770575
20
16.9960843919261
30
-6.35759999999992
 70
     32
  0
VERTEX
  8
MY3DLAYER
10
9.25087977883098
20
16.9840253441812
30
-6.35759999999992
 70
     32
  0
VERTEX
  8
MY3DLAYER
10
9.25258348751653
20
16.9710843919261
30
-6.35759999999992
 70
     32
  0
VERTEX
  8
MY3DLAYER
10
9.25087977883098
20
16.958143439671
30
-6.35759999999992
 70
     32
  0
VERTEX
  8
MY3DLAYER
10
9.24588475770575
20
16.9460843919261
30
-6.35759999999992
 70
     32
  0
VERTEX
  8
MY3DLAYER
10
9.75344872978721
20
16.6530421960139
30
-6.35759999999991
 70
     32
  0
VERTEX
  8
MY3DLAYER
10
9.76139466091711
20
16.6633975350733
30
-6.35759999999991
 70
     32
  0
VERTEX
  8
MY3DLAYER
10
9.77174999997643
20
16.6713434662032
30
-6.35759999999991
 70
     32
  0
VERTEX
  8
MY3DLAYER
10
9.78380904772131
20
16.6763384873284
30
-6.35759999999991
 70
     32
  0
VERTEX
  8
MY3DLAYER
10
9.79674999997643
20
16.6780421960139
30
-6.35759999999991
 70
     32
  0
VERTEX
  8
MY3DLAYER
10
9.80969095223156
20
16.6763384873284
30
-6.35759999999991
 70
     32
  0
VERTEX
  8
MY3DLAYER
10
9.82174999997643
20
16.6713434662032
30
-6.35759999999991
 70
     32
  0
VERTEX
  8
MY3DLAYER
10
9.83210533903576
20
16.6633975350733
30
-6.35759999999991
 70
     32
  0
VERTEX
  8
MY3DLAYER
10
9.84005127016565
20
16.6530421960139
30
-6.35759999999991
 70
     32
  0
VERTEX
  8
MY3DLAYER
10
9.84504629129088
20
16.6409831482691
30
-6.35759999999991
 70
     32
  0
VERTEX
  8
MY3DLAYER
10
9.84674999997643
20
16.6280421960139
30
-6.35759999999991
 70
     32
  0
VERTEX
  8
MY3DLAYER
10
9.84504629129088
20
16.6151012437588
30
-6.35759999999991
 70
     32
  0
VERTEX
  8
MY3DLAYER
10
9.84005127016565
20
16.6030421960139
30
-6.35759999999991
 70
     32
  0
VERTEX
  8
MY3DLAYER
10
9.83210533903576
20
16.5926868569546
30
-6.35759999999991
 70
     32
  0
VERTEX
  8
MY3DLAYER
10
9.82174999997643
20
16.5847409258247
30
-6.35759999999991
 70
     32
  0
VERTEX
  8
MY3DLAYER
10
9.80969095223156
20
16.5797459046995
30
-6.35759999999991
 70
     32
  0
SEQEND
  0
POLYLINE
 8
Layer0
 66
     1
70
    8
 10
0.0
 20
 0.0
 30
0.0
  0
VERTEX
  8
MY3DLAYER
10
7.9980239770913
20
16.5797459046995
30
-6.35759999999994
 70
     32
  0
VERTEX
  8
MY3DLAYER
10
7.98508302483618
20
16.5780421960139
30
-6.35759999999994
 70
     32
  0
VERTEX
  8
MY3DLAYER
10
7.98508302483617
20
15.9919578041896
30
-6.35759999999994
 70
     32
  0
VERTEX
  8
MY3DLAYER
10
7.99802397709129
20
15.990254095504
30
-6.35759999999994
 70
     32
  0
VERTEX
  8
MY3DLAYER
10
8.01008302483617
20
15.9852590743788
30
-6.35759999999994
 70
     32
  0
VERTEX
  8
MY3DLAYER
10
8.02043836389549
20
15.9773131432489
30
-6.35759999999994
 70
     32
  0
VERTEX
  8
MY3DLAYER
10
8.02838429502539
20
15.9669578041896
30
-6.35759999999994
 70
     32
  0
VERTEX
  8
MY3DLAYER
10
8.03337931615062
20
15.9548987564447
30
-6.35759999999994
 70
     32
  0
VERTEX
  8
MY3DLAYER
10
8.03508302483617
20
15.9419578041896
30
-6.35759999999994
 70
     32
  0
VERTEX
  8
MY3DLAYER
10
8.03337931615062
20
15.9290168519345
30
-6.35759999999994
 70
     32
  0
VERTEX
  8
MY3DLAYER
10
8.02838429502539
20
15.9169578041896
30
-6.35759999999994
 70
     32
  0
VERTEX
  8
MY3DLAYER
10
8.0204383638955
20
15.9066024651303
30
-6.35759999999994
 70
     32
  0
VERTEX
  8
MY3DLAYER
10
8.01008302483617
20
15.8986565340004
30
-6.35759999999994
 70
     32
  0
VERTEX
  8
MY3DLAYER
10
7.9980239770913
20
15.8936615128751
30
-6.35759999999994
 70
     32
  0
VERTEX
  8
MY3DLAYER
10
7.98508302483617
20
15.8919578041896
30
-6.35759999999994
 70
     32
  0
VERTEX
  8
MY3DLAYER
10
7.97214207258104
20
15.8936615128751
30
-6.35759999999994
 70
     32
  0
VERTEX
  8
MY3DLAYER
10
7.96008302483617
20
15.8986565340004
30
-6.35759999999994
 70
     32
  0
VERTEX
  8
MY3DLAYER
10
7.94972768577684
20
15.9066024651303
30
-6.35759999999994
 70
     32
  0
VERTEX
  8
MY3DLAYER
10
7.94178175464695
20
15.9169578041896
30
-6.35759999999994
 70
     32
  0
VERTEX
  8
MY3DLAYER
10
7.4342177825655
20
15.6239156082774
30
-6.35759999999995
 70
     32
  0
VERTEX
  8
MY3DLAYER
10
7.43921280369073
20
15.6118565605325
30
-6.35759999999995
 70
     32
  0
VERTEX
  8
MY3DLAYER
10
7.44091651237628
20
15.5989156082774
30
-6.35759999999995
 70
     32
  0
VERTEX
  8
MY3DLAYER
10
7.43921280369073
20
15.5859746560223
30
-6.35759999999995
 70
     32
  0
VERTEX
  8
MY3DLAYER
10
7.4342177825655
20
15.5739156082774
30
-6.35759999999995
 70
     32
  0
VERTEX
  8
MY3DLAYER
10
7.42627185143561
20
15.5635602692181
30
-6.35759999999995
 70
     32
  0
VERTEX
  8
MY3DLAYER
10
7.41591651237628
20
15.5556143380882
30
-6.35759999999996
 70
     32
  0
VERTEX
  8
MY3DLAYER
10
7.40385746463141
20
15.550619316963
30
-6.35759999999996
 70
     32
  0
VERTEX
  8
MY3DLAYER
10
7.39091651237628
20
15.5489156082774
30
-6.35759999999996
 70
     32
  0
VERTEX
  8
MY3DLAYER
10
7.37797556012116
20
15.550619316963
30
-6.35759999999996
 70
     32
  0
VERTEX
  8
MY3DLAYER
10
7.36591651237628
20
15.5556143380882
30
-6.35759999999996
 70
     32
  0
VERTEX
  8
MY3DLAYER
10
7.35556117331696
20
15.5635602692181
30
-6.35759999999996
 70
     32
  0
VERTEX
  8
MY3DLAYER
10
7.34761524218706
20
15.5739156082774
30
-6.35759999999996
 70
     32
  0
VERTEX
  8
MY3DLAYER
10
7.34262022106183
20
15.5859746560223
30
-6.35759999999996
 70
     32
  0
VERTEX
  8
MY3DLAYER
10
7.34091651237628
20
15.5989156082774
30
-6.35759999999996
 70
     32
  0
VERTEX
  8
MY3DLAYER
10
7.34262022106183
20
15.6118565605325
30
-6.35759999999996
 70
     32
  0
VERTEX
  8
MY3DLAYER
10
7.34761524218706
20
15.6239156082774
30
-6.35759999999996
 70
     32
  0
VERTEX
  8
MY3DLAYER
10
6.84005127010563
20
15.9169578041896
30
-6.35759999999997
 70
     32
  0
VERTEX
  8
MY3DLAYER
10
6.83210533897573
20
15.9066024651303
30
-6.35759999999997
 70
     32
  0
VERTEX
  8
MY3DLAYER
10
6.82174999991641
20
15.8986565340004
30
-6.35759999999997
 70
     32
  0
VERTEX
  8
MY3DLAYER
10
6.80969095217153
20
15.8936615128751
30
-6.35759999999997
 70
     32
  0
VERTEX
  8
MY3DLAYER
10
6.79674999991641
20
15.8919578041896
30
-6.35759999999997
 70
     32
  0
VERTEX
  8
MY3DLAYER
10
6.78380904766128
20
15.8936615128751
30
-6.35759999999997
 70
     32
  0
VERTEX
  8
MY3DLAYER
10
6.77174999991641
20
15.8986565340004
30
-6.35759999999997
 70
     32
  0
VERTEX
  8
MY3DLAYER
10
6.76139466085708
20
15.9066024651303
30
-6.35759999999997
 70
     32
  0
VERTEX
  8
MY3DLAYER
10
6.75344872972719
20
15.9169578041896
30
-6.35759999999997
 70
     32
  0
VERTEX
  8
MY3DLAYER
10
6.74845370860196
20
15.9290168519345
30
-6.35759999999997
 70
     32
  0
VERTEX
  8
MY3DLAYER
10
6.74674999991641
20
15.9419578041896
30
-6.35759999999997
 70
     32
  0
VERTEX
  8
MY3DLAYER
10
6.74845370860196
20
15.9548987564447
30
-6.35759999999997
 70
     32
  0
VERTEX
  8
MY3DLAYER
10
6.75344872972719
20
15.9669578041896
30
-6.35759999999997
 70
     32
  0
VERTEX
  8
MY3DLAYER
10
6.76139466085708
20
15.9773131432489
30
-6.35759999999997
 70
     32
  0
VERTEX
  8
MY3DLAYER
10
6.77174999991641
20
15.9852590743788
30
-6.35759999999997
 70
     32
  0
VERTEX
  8
MY3DLAYER
10
6.78380904766128
20
15.990254095504
30
-6.35759999999997
 70
     32
  0
VERTEX
  8
MY3DLAYER
10
6.79674999991641
20
15.9919578041896
30
-6.35759999999997
 70
     32
  0
VERTEX
  8
MY3DLAYER
10
6.79674999991641
20
16.5780421960139
30
-6.35759999999997
 70
     32
  0
VERTEX
  8
MY3DLAYER
10
6.78380904766129
20
16.5797459046995
30
-6.35759999999997
 70
     32
  0
VERTEX
  8
MY3DLAYER
10
6.77174999991641
20
16.5847409258247
30
-6.35759999999997
 70
     32
  0
VERTEX
  8
MY3DLAYER
10
6.76139466085708
20
16.5926868569546
30
-6.35759999999997
 70
     32
  0
VERTEX
  8
MY3DLAYER
10
6.75344872972719
20
16.6030421960139
30
-6.35759999999997
 70
     32
  0
VERTEX
  8
MY3DLAYER
10
6.74845370860196
20
16.6151012437588
30
-6.35759999999997
 70
     32
  0
VERTEX
  8
MY3DLAYER
10
6.74674999991641
20
16.6280421960139
30
-6.35759999999997
 70
     32
  0
VERTEX
  8
MY3DLAYER
10
6.74845370860196
20
16.640983148269
30
-6.35759999999997
 70
     32
  0
VERTEX
  8
MY3DLAYER
10
6.75344872972719
20
16.6530421960139
30
-6.35759999999997
 70
     32
  0
VERTEX
  8
MY3DLAYER
10
6.76139466085708
20
16.6633975350733
30
-6.35759999999997
 70
     32
  0
VERTEX
  8
MY3DLAYER
10
6.77174999991641
20
16.6713434662031
30
-6.35759999999997
 70
     32
  0
VERTEX
  8
MY3DLAYER
10
6.78380904766128
20
16.6763384873284
30
-6.35759999999997
 70
     32
  0
VERTEX
  8
MY3DLAYER
10
6.79674999991641
20
16.6780421960139
30
-6.35759999999997
 70
     32
  0
VERTEX
  8
MY3DLAYER
10
6.80969095217154
20
16.6763384873284
30
-6.35759999999997
 70
     32
  0
VERTEX
  8
MY3DLAYER
10
6.82174999991641
20
16.6713434662031
30
-6.35759999999997
 70
     32
  0
VERTEX
  8
MY3DLAYER
10
6.83210533897574
20
16.6633975350733
30
-6.35759999999997
 70
     32
  0
VERTEX
  8
MY3DLAYER
10
6.84005127010563
20
16.6530421960139
30
-6.35759999999997
 70
     32
  0
VERTEX
  8
MY3DLAYER
10
7.34761524218706
20
16.9460843919261
30
-6.35759999999996
 70
     32
  0
VERTEX
  8
MY3DLAYER
10
7.34262022106183
20
16.958143439671
30
-6.35759999999996
 70
     32
  0
VERTEX
  8
MY3DLAYER
10
7.34091651237629
20
16.9710843919261
30
-6.35759999999996
 70
     32
  0
VERTEX
  8
MY3DLAYER
10
7.34262022106183
20
16.9840253441812
30
-6.35759999999996
 70
     32
  0
VERTEX
  8
MY3DLAYER
10
7.34761524218706
20
16.9960843919261
30
-6.35759999999996
 70
     32
  0
VERTEX
  8
MY3DLAYER
10
7.35556117331696
20
17.0064397309854
30
-6.35759999999996
 70
     32
  0
VERTEX
  8
MY3DLAYER
10
7.36591651237628
20
17.0143856621153
30
-6.35759999999996
 70
     32
  0
VERTEX
  8
MY3DLAYER
10
7.37797556012116
20
17.0193806832406
30
-6.35759999999996
 70
     32
  0
VERTEX
  8
MY3DLAYER
10
7.39091651237628
20
17.0210843919261
30
-6.35759999999996
 70
     32
  0
VERTEX
  8
MY3DLAYER
10
7.40385746463141
20
17.0193806832406
30
-6.35759999999996
 70
     32
  0
VERTEX
  8
MY3DLAYER
10
7.41591651237628
20
17.0143856621153
30
-6.35759999999996
 70
     32
  0
VERTEX
  8
MY3DLAYER
10
7.42627185143561
20
17.0064397309854
30
-6.35759999999995
 70
     32
  0
VERTEX
  8
MY3DLAYER
10
7.4342177825655
20
16.9960843919261
30
-6.35759999999995
 70
     32
  0
VERTEX
  8
MY3DLAYER
10
7.43921280369073
20
16.9840253441812
30
-6.35759999999995
 70
     32
  0
VERTEX
  8
MY3DLAYER
10
7.44091651237628
20
16.9710843919261
30
-6.35759999999995
 70
     32
  0
VERTEX
  8
MY3DLAYER
10
7.43921280369073
20
16.958143439671
30
-6.35759999999995
 70
     32
  0
VERTEX
  8
MY3DLAYER
10
7.4342177825655
20
16.9460843919261
30
-6.35759999999995
 70
     32
  0
VERTEX
  8
MY3DLAYER
10
7.94178175464696
20
16.6530421960139
30
-6.35759999999994
 70
     32
  0
VERTEX
  8
MY3DLAYER
10
7.94972768577685
20
16.6633975350733
30
-6.35759999999994
 70
     32
  0
VERTEX
  8
MY3DLAYER
10
7.96008302483618
20
16.6713434662032
30
-6.35759999999994
 70
     32
  0
VERTEX
  8
MY3DLAYER
10
7.97214207258105
20
16.6763384873284
30
-6.35759999999994
 70
     32
  0
VERTEX
  8
MY3DLAYER
10
7.98508302483618
20
16.6780421960139
30
-6.35759999999994
 70
     32
  0
VERTEX
  8
MY3DLAYER
10
7.99802397709131
20
16.6763384873284
30
-6.35759999999994
 70
     32
  0
VERTEX
  8
MY3DLAYER
10
8.01008302483618
20
16.6713434662032
30
-6.35759999999994
 70
     32
  0
VERTEX
  8
MY3DLAYER
10
8.02043836389551
20
16.6633975350733
30
-6.35759999999994
 70
     32
  0
VERTEX
  8
MY3DLAYER
10
8.0283842950254
20
16.6530421960139
30
-6.35759999999994
 70
     32
  0
VERTEX
  8
MY3DLAYER
10
8.03337931615063
20
16.6409831482691
30
-6.35759999999994
 70
     32
  0
VERTEX
  8
MY3DLAYER
10
8.03508302483618
20
16.6280421960139
30
-6.35759999999994
 70
     32
  0
VERTEX
  8
MY3DLAYER
10
8.03337931615063
20
16.6151012437588
30
-6.35759999999994
 70
     32
  0
VERTEX
  8
MY3DLAYER
10
8.0283842950254
20
16.6030421960139
30
-6.35759999999994
 70
     32
  0
VERTEX
  8
MY3DLAYER
10
8.0204383638955
20
16.5926868569546
30
-6.35759999999994
 70
     32
  0
VERTEX
  8
MY3DLAYER
10
8.01008302483618
20
16.5847409258247
30
-6.35759999999994
 70
     32
  0
VERTEX
  8
MY3DLAYER
10
7.9980239770913
20
16.5797459046995
30
-6.35759999999994
 70
     32
  0
SEQEND
  0
POLYLINE
 8
Layer0
 66
     1
70
    8
 10
0.0
 20
 0.0
 30
0.0
  0
VERTEX
  8
MY3DLAYER
10
9.80969095222769
20
13.8647459047086
30
-6.35759999999991
 70
     32
  0
VERTEX
  8
MY3DLAYER
10
9.79674999997256
20
13.863042196023
30
-6.35759999999991
 70
     32
  0
VERTEX
  8
MY3DLAYER
10
9.79674999997255
20
13.2769578041987
30
-6.35759999999991
 70
     32
  0
VERTEX
  8
MY3DLAYER
10
9.80969095222768
20
13.2752540955131
30
-6.35759999999991
 70
     32
  0
VERTEX
  8
MY3DLAYER
10
9.82174999997255
20
13.2702590743879
30
-6.35759999999991
 70
     32
  0
VERTEX
  8
MY3DLAYER
10
9.83210533903188
20
13.262313143258
30
-6.35759999999991
 70
     32
  0
VERTEX
  8
MY3DLAYER
10
9.84005127016177
20
13.2519578041987
30
-6.35759999999991
 70
     32
  0
VERTEX
  8
MY3DLAYER
10
9.84504629128701
20
13.2398987564538
30
-6.3575999999999
 70
     32
  0
VERTEX
  8
MY3DLAYER
10
9.84674999997255
20
13.2269578041987
30
-6.3575999999999
 70
     32
  0
VERTEX
  8
MY3DLAYER
10
9.84504629128701
20
13.2140168519436
30
-6.3575999999999
 70
     32
  0
VERTEX
  8
MY3DLAYER
10
9.84005127016177
20
13.2019578041987
30
-6.35759999999991
 70
     32
  0
VERTEX
  8
MY3DLAYER
10
9.83210533903188
20
13.1916024651394
30
-6.35759999999991
 70
     32
  0
VERTEX
  8
MY3DLAYER
10
9.82174999997255
20
13.1836565340095
30
-6.35759999999991
 70
     32
  0
VERTEX
  8
MY3DLAYER
10
9.80969095222768
20
13.1786615128842
30
-6.35759999999991
 70
     32
  0
VERTEX
  8
MY3DLAYER
10
9.79674999997255
20
13.1769578041987
30
-6.35759999999991
 70
     32
  0
VERTEX
  8
MY3DLAYER
10
9.78380904771743
20
13.1786615128842
30
-6.35759999999991
 70
     32
  0
VERTEX
  8
MY3DLAYER
10
9.77174999997255
20
13.1836565340095
30
-6.35759999999991
 70
     32
  0
VERTEX
  8
MY3DLAYER
10
9.76139466091323
20
13.1916024651394
30
-6.35759999999991
 70
     32
  0
VERTEX
  8
MY3DLAYER
10
9.75344872978333
20
13.2019578041987
30
-6.35759999999991
 70
     32
  0
VERTEX
  8
MY3DLAYER
10
9.24588475770188
20
12.9089156082865
30
-6.35759999999992
 70
     32
  0
VERTEX
  8
MY3DLAYER
10
9.25087977882712
20
12.8968565605416
30
-6.35759999999992
 70
     32
  0
VERTEX
  8
MY3DLAYER
10
9.25258348751266
20
12.8839156082865
30
-6.35759999999992
 70
     32
  0
VERTEX
  8
MY3DLAYER
10
9.25087977882712
20
12.8709746560314
30
-6.35759999999992
 70
     32
  0
VERTEX
  8
MY3DLAYER
10
9.24588475770188
20
12.8589156082865
30
-6.35759999999992
 70
     32
  0
VERTEX
  8
MY3DLAYER
10
9.23793882657199
20
12.8485602692272
30
-6.35759999999992
 70
     32
  0
VERTEX
  8
MY3DLAYER
10
9.22758348751266
20
12.8406143380973
30
-6.35759999999992
 70
     32
  0
VERTEX
  8
MY3DLAYER
10
9.21552443976779
20
12.835619316972
30
-6.35759999999992
 70
     32
  0
VERTEX
  8
MY3DLAYER
10
9.20258348751267
20
12.8339156082865
30
-6.35759999999992
 70
     32
  0
VERTEX
  8
MY3DLAYER
10
9.18964253525754
20
12.835619316972
30
-6.35759999999992
 70
     32
  0
VERTEX
  8
MY3DLAYER
10
9.17758348751267
20
12.8406143380973
30
-6.35759999999992
 70
     32
  0
VERTEX
  8
MY3DLAYER
10
9.16722814845334
20
12.8485602692272
30
-6.35759999999992
 70
     32
  0
VERTEX
  8
MY3DLAYER
10
9.15928221732344
20
12.8589156082865
30
-6.35759999999992
 70
     32
  0
VERTEX
  8
MY3DLAYER
10
9.15428719619822
20
12.8709746560314
30
-6.35759999999992
 70
     32
  0
VERTEX
  8
MY3DLAYER
10
9.15258348751267
20
12.8839156082865
30
-6.35759999999992
 70
     32
  0
VERTEX
  8
MY3DLAYER
10
9.15428719619822
20
12.8968565605416
30
-6.35759999999992
 70
     32
  0
VERTEX
  8
MY3DLAYER
10
9.15928221732344
20
12.9089156082865
30
-6.35759999999992
 70
     32
  0
VERTEX
  8
MY3DLAYER
10
8.65171824524201
20
13.2019578041987
30
-6.35759999999993
 70
     32
  0
VERTEX
  8
MY3DLAYER
10
8.64377231411212
20
13.1916024651393
30
-6.35759999999993
 70
     32
  0
VERTEX
  8
MY3DLAYER
10
8.63341697505279
20
13.1836565340095
30
-6.35759999999993
 70
     32
  0
VERTEX
  8
MY3DLAYER
10
8.62135792730792
20
13.1786615128842
30
-6.35759999999993
 70
     32
  0
VERTEX
  8
MY3DLAYER
10
8.60841697505279
20
13.1769578041987
30
-6.35759999999993
 70
     32
  0
VERTEX
  8
MY3DLAYER
10
8.59547602279767
20
13.1786615128842
30
-6.35759999999993
 70
     32
  0
VERTEX
  8
MY3DLAYER
10
8.58341697505279
20
13.1836565340095
30
-6.35759999999993
 70
     32
  0
VERTEX
  8
MY3DLAYER
10
8.57306163599347
20
13.1916024651393
30
-6.35759999999993
 70
     32
  0
VERTEX
  8
MY3DLAYER
10
8.56511570486357
20
13.2019578041987
30
-6.35759999999993
 70
     32
  0
VERTEX
  8
MY3DLAYER
10
8.56012068373834
20
13.2140168519436
30
-6.35759999999993
 70
     32
  0
VERTEX
  8
MY3DLAYER
10
8.55841697505279
20
13.2269578041987
30
-6.35759999999993
 70
     32
  0
VERTEX
  8
MY3DLAYER
10
8.56012068373834
20
13.2398987564538
30
-6.35759999999993
 70
     32
  0
VERTEX
  8
MY3DLAYER
10
8.56511570486357
20
13.2519578041987
30
-6.35759999999993
 70
     32
  0
VERTEX
  8
MY3DLAYER
10
8.57306163599347
20
13.262313143258
30
-6.35759999999993
 70
     32
  0
VERTEX
  8
MY3DLAYER
10
8.58341697505279
20
13.2702590743879
30
-6.35759999999993
 70
     32
  0
VERTEX
  8
MY3DLAYER
10
8.59547602279767
20
13.2752540955131
30
-6.35759999999993
 70
     32
  0
VERTEX
  8
MY3DLAYER
10
8.60841697505279
20
13.2769578041987
30
-6.35759999999993
 70
     32
  0
VERTEX
  8
MY3DLAYER
10
8.60841697505279
20
13.863042196023
30
-6.35759999999993
 70
     32
  0
VERTEX
  8
MY3DLAYER
10
8.59547602279767
20
13.8647459047086
30
-6.35759999999993
 70
     32
  0
VERTEX
  8
MY3DLAYER
10
8.5834169750528
20
13.8697409258338
30
-6.35759999999993
 70
     32
  0
VERTEX
  8
MY3DLAYER
10
8.57306163599347
20
13.8776868569637
30
-6.35759999999993
 70
     32
  0
VERTEX
  8
MY3DLAYER
10
8.56511570486357
20
13.888042196023
30
-6.35759999999993
 70
     32
  0
VERTEX
  8
MY3DLAYER
10
8.56012068373834
20
13.9001012437679
30
-6.35759999999993
 70
     32
  0
VERTEX
  8
MY3DLAYER
10
8.55841697505279
20
13.913042196023
30
-6.35759999999993
 70
     32
  0
VERTEX
  8
MY3DLAYER
10
8.56012068373834
20
13.9259831482781
30
-6.35759999999993
 70
     32
  0
VERTEX
  8
MY3DLAYER
10
8.56511570486357
20
13.938042196023
30
-6.35759999999993
 70
     32
  0
VERTEX
  8
MY3DLAYER
10
8.57306163599347
20
13.9483975350823
30
-6.35759999999993
 70
     32
  0
VERTEX
  8
MY3DLAYER
10
8.58341697505279
20
13.9563434662122
30
-6.35759999999993
 70
     32
  0
VERTEX
  8
MY3DLAYER
10
8.59547602279767
20
13.9613384873375
30
-6.35759999999993
 70
     32
  0
VERTEX
  8
MY3DLAYER
10
8.60841697505279
20
13.963042196023
30
-6.35759999999993
 70
     32
  0
VERTEX
  8
MY3DLAYER
10
8.62135792730792
20
13.9613384873375
30
-6.35759999999993
 70
     32
  0
VERTEX
  8
MY3DLAYER
10
8.63341697505279
20
13.9563434662122
30
-6.35759999999993
 70
     32
  0
VERTEX
  8
MY3DLAYER
10
8.64377231411212
20
13.9483975350823
30
-6.35759999999993
 70
     32
  0
VERTEX
  8
MY3DLAYER
10
8.65171824524201
20
13.938042196023
30
-6.35759999999993
 70
     32
  0
VERTEX
  8
MY3DLAYER
10
9.15928221732345
20
14.2310843919352
30
-6.35759999999992
 70
     32
  0
VERTEX
  8
MY3DLAYER
10
9.15428719619822
20
14.2431434396801
30
-6.35759999999992
 70
     32
  0
VERTEX
  8
MY3DLAYER
10
9.15258348751267
20
14.2560843919352
30
-6.35759999999992
 70
     32
  0
VERTEX
  8
MY3DLAYER
10
9.15428719619822
20
14.2690253441903
30
-6.35759999999992
 70
     32
  0
VERTEX
  8
MY3DLAYER
10
9.15928221732345
20
14.2810843919352
30
-6.35759999999992
 70
     32
  0
VERTEX
  8
MY3DLAYER
10
9.16722814845334
20
14.2914397309945
30
-6.35759999999992
 70
     32
  0
VERTEX
  8
MY3DLAYER
10
9.17758348751267
20
14.2993856621244
30
-6.35759999999992
 70
     32
  0
VERTEX
  8
MY3DLAYER
10
9.18964253525754
20
14.3043806832496
30
-6.35759999999992
 70
     32
  0
VERTEX
  8
MY3DLAYER
10
9.20258348751267
20
14.3060843919352
30
-6.35759999999992
 70
     32
  0
VERTEX
  8
MY3DLAYER
10
9.21552443976779
20
14.3043806832496
30
-6.35759999999992
 70
     32
  0
VERTEX
  8
MY3DLAYER
10
9.22758348751266
20
14.2993856621244
30
-6.35759999999992
 70
     32
  0
VERTEX
  8
MY3DLAYER
10
9.23793882657199
20
14.2914397309945
30
-6.35759999999992
 70
     32
  0
VERTEX
  8
MY3DLAYER
10
9.24588475770189
20
14.2810843919352
30
-6.35759999999992
 70
     32
  0
VERTEX
  8
MY3DLAYER
10
9.25087977882712
20
14.2690253441903
30
-6.35759999999992
 70
     32
  0
VERTEX
  8
MY3DLAYER
10
9.25258348751266
20
14.2560843919352
30
-6.35759999999992
 70
     32
  0
VERTEX
  8
MY3DLAYER
10
9.25087977882712
20
14.2431434396801
30
-6.35759999999992
 70
     32
  0
VERTEX
  8
MY3DLAYER
10
9.24588475770189
20
14.2310843919352
30
-6.35759999999992
 70
     32
  0
VERTEX
  8
MY3DLAYER
10
9.75344872978334
20
13.938042196023
30
-6.35759999999991
 70
     32
  0
VERTEX
  8
MY3DLAYER
10
9.76139466091324
20
13.9483975350824
30
-6.35759999999991
 70
     32
  0
VERTEX
  8
MY3DLAYER
10
9.77174999997256
20
13.9563434662122
30
-6.35759999999991
 70
     32
  0
VERTEX
  8
MY3DLAYER
10
9.78380904771744
20
13.9613384873375
30
-6.35759999999991
 70
     32
  0
VERTEX
  8
MY3DLAYER
10
9.79674999997257
20
13.963042196023
30
-6.35759999999991
 70
     32
  0
VERTEX
  8
MY3DLAYER
10
9.80969095222769
20
13.9613384873375
30
-6.35759999999991
 70
     32
  0
VERTEX
  8
MY3DLAYER
10
9.82174999997256
20
13.9563434662122
30
-6.3575999999999
 70
     32
  0
VERTEX
  8
MY3DLAYER
10
9.83210533903189
20
13.9483975350824
30
-6.3575999999999
 70
     32
  0
VERTEX
  8
MY3DLAYER
10
9.84005127016178
20
13.938042196023
30
-6.3575999999999
 70
     32
  0
VERTEX
  8
MY3DLAYER
10
9.84504629128702
20
13.9259831482781
30
-6.3575999999999
 70
     32
  0
VERTEX
  8
MY3DLAYER
10
9.84674999997256
20
13.913042196023
30
-6.35759999999991
 70
     32
  0
VERTEX
  8
MY3DLAYER
10
9.84504629128702
20
13.9001012437679
30
-6.35759999999991
 70
     32
  0
VERTEX
  8
MY3DLAYER
10
9.84005127016178
20
13.888042196023
30
-6.35759999999991
 70
     32
  0
VERTEX
  8
MY3DLAYER
10
9.83210533903189
20
13.8776868569637
30
-6.35759999999991
 70
     32
  0
VERTEX
  8
MY3DLAYER
10
9.82174999997256
20
13.8697409258338
30
-6.35759999999991
 70
     32
  0
VERTEX
  8
MY3DLAYER
10
9.80969095222769
20
13.8647459047086
30
-6.35759999999991
 70
     32
  0
SEQEND
  0
POLYLINE
 8
Layer0
 66
     1
70
    8
 10
0.0
 20
 0.0
 30
0.0
  0
VERTEX
  8
MY3DLAYER
10
7.99802397708744
20
13.8647459047086
30
-6.35759999999994
 70
     32
  0
VERTEX
  8
MY3DLAYER
10
7.98508302483231
20
13.863042196023
30
-6.35759999999994
 70
     32
  0
VERTEX
  8
MY3DLAYER
10
7.9850830248323
20
13.2769578041987
30
-6.35759999999994
 70
     32
  0
VERTEX
  8
MY3DLAYER
10
7.99802397708743
20
13.2752540955131
30
-6.35759999999994
 70
     32
  0
VERTEX
  8
MY3DLAYER
10
8.0100830248323
20
13.2702590743879
30
-6.35759999999994
 70
     32
  0
VERTEX
  8
MY3DLAYER
10
8.02043836389163
20
13.262313143258
30
-6.35759999999994
 70
     32
  0
VERTEX
  8
MY3DLAYER
10
8.02838429502152
20
13.2519578041987
30
-6.35759999999994
 70
     32
  0
VERTEX
  8
MY3DLAYER
10
8.03337931614675
20
13.2398987564538
30
-6.35759999999994
 70
     32
  0
VERTEX
  8
MY3DLAYER
10
8.0350830248323
20
13.2269578041987
30
-6.35759999999994
 70
     32
  0
VERTEX
  8
MY3DLAYER
10
8.03337931614675
20
13.2140168519436
30
-6.35759999999994
 70
     32
  0
VERTEX
  8
MY3DLAYER
10
8.02838429502152
20
13.2019578041987
30
-6.35759999999994
 70
     32
  0
VERTEX
  8
MY3DLAYER
10
8.02043836389163
20
13.1916024651394
30
-6.35759999999994
 70
     32
  0
VERTEX
  8
MY3DLAYER
10
8.0100830248323
20
13.1836565340095
30
-6.35759999999994
 70
     32
  0
VERTEX
  8
MY3DLAYER
10
7.99802397708743
20
13.1786615128842
30
-6.35759999999994
 70
     32
  0
VERTEX
  8
MY3DLAYER
10
7.9850830248323
20
13.1769578041987
30
-6.35759999999994
 70
     32
  0
VERTEX
  8
MY3DLAYER
10
7.97214207257718
20
13.1786615128842
30
-6.35759999999994
 70
     32
  0
VERTEX
  8
MY3DLAYER
10
7.9600830248323
20
13.1836565340095
30
-6.35759999999994
 70
     32
  0
VERTEX
  8
MY3DLAYER
10
7.94972768577298
20
13.1916024651394
30
-6.35759999999994
 70
     32
  0
VERTEX
  8
MY3DLAYER
10
7.94178175464308
20
13.2019578041987
30
-6.35759999999994
 70
     32
  0
VERTEX
  8
MY3DLAYER
10
7.43421778256163
20
12.9089156082865
30
-6.35759999999995
 70
     32
  0
VERTEX
  8
MY3DLAYER
10
7.43921280368686
20
12.8968565605416
30
-6.35759999999995
 70
     32
  0
VERTEX
  8
MY3DLAYER
10
7.44091651237241
20
12.8839156082865
30
-6.35759999999995
 70
     32
  0
VERTEX
  8
MY3DLAYER
10
7.43921280368686
20
12.8709746560314
30
-6.35759999999995
 70
     32
  0
VERTEX
  8
MY3DLAYER
10
7.43421778256163
20
12.8589156082865
30
-6.35759999999995
 70
     32
  0
VERTEX
  8
MY3DLAYER
10
7.42627185143174
20
12.8485602692272
30
-6.35759999999995
 70
     32
  0
VERTEX
  8
MY3DLAYER
10
7.41591651237241
20
12.8406143380973
30
-6.35759999999995
 70
     32
  0
VERTEX
  8
MY3DLAYER
10
7.40385746462754
20
12.835619316972
30
-6.35759999999995
 70
     32
  0
VERTEX
  8
MY3DLAYER
10
7.39091651237241
20
12.8339156082865
30
-6.35759999999995
 70
     32
  0
VERTEX
  8
MY3DLAYER
10
7.37797556011729
20
12.835619316972
30
-6.35759999999995
 70
     32
  0
VERTEX
  8
MY3DLAYER
10
7.36591651237242
20
12.8406143380973
30
-6.35759999999995
 70
     32
  0
VERTEX
  8
MY3DLAYER
10
7.35556117331309
20
12.8485602692272
30
-6.35759999999995
 70
     32
  0
VERTEX
  8
MY3DLAYER
10
7.34761524218319
20
12.8589156082865
30
-6.35759999999995
 70
     32
  0
VERTEX
  8
MY3DLAYER
10
7.34262022105796
20
12.8709746560314
30
-6.35759999999995
 70
     32
  0
VERTEX
  8
MY3DLAYER
10
7.34091651237242
20
12.8839156082865
30
-6.35759999999995
 70
     32
  0
VERTEX
  8
MY3DLAYER
10
7.34262022105796
20
12.8968565605416
30
-6.35759999999995
 70
     32
  0
VERTEX
  8
MY3DLAYER
10
7.34761524218319
20
12.9089156082865
30
-6.35759999999995
 70
     32
  0
VERTEX
  8
MY3DLAYER
10
6.84005127010176
20
13.2019578041987
30
-6.35759999999996
 70
     32
  0
VERTEX
  8
MY3DLAYER
10
6.83210533897187
20
13.1916024651393
30
-6.35759999999996
 70
     32
  0
VERTEX
  8
MY3DLAYER
10
6.82174999991254
20
13.1836565340095
30
-6.35759999999996
 70
     32
  0
VERTEX
  8
MY3DLAYER
10
6.80969095216767
20
13.1786615128842
30
-6.35759999999996
 70
     32
  0
VERTEX
  8
MY3DLAYER
10
6.79674999991254
20
13.1769578041987
30
-6.35759999999996
 70
     32
  0
VERTEX
  8
MY3DLAYER
10
6.78380904765741
20
13.1786615128842
30
-6.35759999999996
 70
     32
  0
VERTEX
  8
MY3DLAYER
10
6.77174999991254
20
13.1836565340095
30
-6.35759999999996
 70
     32
  0
VERTEX
  8
MY3DLAYER
10
6.76139466085321
20
13.1916024651393
30
-6.35759999999996
 70
     32
  0
VERTEX
  8
MY3DLAYER
10
6.75344872972332
20
13.2019578041987
30
-6.35759999999996
 70
     32
  0
VERTEX
  8
MY3DLAYER
10
6.74845370859809
20
13.2140168519436
30
-6.35759999999996
 70
     32
  0
VERTEX
  8
MY3DLAYER
10
6.74674999991254
20
13.2269578041987
30
-6.35759999999996
 70
     32
  0
VERTEX
  8
MY3DLAYER
10
6.74845370859809
20
13.2398987564538
30
-6.35759999999996
 70
     32
  0
VERTEX
  8
MY3DLAYER
10
6.75344872972332
20
13.2519578041987
30
-6.35759999999996
 70
     32
  0
VERTEX
  8
MY3DLAYER
10
6.76139466085322
20
13.262313143258
30
-6.35759999999996
 70
     32
  0
VERTEX
  8
MY3DLAYER
10
6.77174999991254
20
13.2702590743879
30
-6.35759999999996
 70
     32
  0
VERTEX
  8
MY3DLAYER
10
6.78380904765742
20
13.2752540955131
30
-6.35759999999996
 70
     32
  0
VERTEX
  8
MY3DLAYER
10
6.79674999991254
20
13.2769578041987
30
-6.35759999999996
 70
     32
  0
VERTEX
  8
MY3DLAYER
10
6.79674999991254
20
13.863042196023
30
-6.35759999999996
 70
     32
  0
VERTEX
  8
MY3DLAYER
10
6.78380904765742
20
13.8647459047086
30
-6.35759999999996
 70
     32
  0
VERTEX
  8
MY3DLAYER
10
6.77174999991254
20
13.8697409258338
30
-6.35759999999996
 70
     32
  0
VERTEX
  8
MY3DLAYER
10
6.76139466085322
20
13.8776868569637
30
-6.35759999999996
 70
     32
  0
VERTEX
  8
MY3DLAYER
10
6.75344872972332
20
13.888042196023
30
-6.35759999999996
 70
     32
  0
VERTEX
  8
MY3DLAYER
10
6.74845370859809
20
13.9001012437679
30
-6.35759999999996
 70
     32
  0
VERTEX
  8
MY3DLAYER
10
6.74674999991254
20
13.913042196023
30
-6.35759999999996
 70
     32
  0
VERTEX
  8
MY3DLAYER
10
6.74845370859809
20
13.9259831482781
30
-6.35759999999996
 70
     32
  0
VERTEX
  8
MY3DLAYER
10
6.75344872972332
20
13.938042196023
30
-6.35759999999996
 70
     32
  0
VERTEX
  8
MY3DLAYER
10
6.76139466085322
20
13.9483975350823
30
-6.35759999999996
 70
     32
  0
VERTEX
  8
MY3DLAYER
10
6.77174999991254
20
13.9563434662122
30
-6.35759999999996
 70
     32
  0
VERTEX
  8
MY3DLAYER
10
6.78380904765742
20
13.9613384873375
30
-6.35759999999996
 70
     32
  0
VERTEX
  8
MY3DLAYER
10
6.79674999991254
20
13.963042196023
30
-6.35759999999996
 70
     32
  0
VERTEX
  8
MY3DLAYER
10
6.80969095216767
20
13.9613384873375
30
-6.35759999999996
 70
     32
  0
VERTEX
  8
MY3DLAYER
10
6.82174999991254
20
13.9563434662122
30
-6.35759999999996
 70
     32
  0
VERTEX
  8
MY3DLAYER
10
6.83210533897187
20
13.9483975350823
30
-6.35759999999996
 70
     32
  0
VERTEX
  8
MY3DLAYER
10
6.84005127010176
20
13.938042196023
30
-6.35759999999996
 70
     32
  0
VERTEX
  8
MY3DLAYER
10
7.3476152421832
20
14.2310843919352
30
-6.35759999999995
 70
     32
  0
VERTEX
  8
MY3DLAYER
10
7.34262022105797
20
14.2431434396801
30
-6.35759999999995
 70
     32
  0
VERTEX
  8
MY3DLAYER
10
7.34091651237242
20
14.2560843919352
30
-6.35759999999995
 70
     32
  0
VERTEX
  8
MY3DLAYER
10
7.34262022105797
20
14.2690253441903
30
-6.35759999999995
 70
     32
  0
VERTEX
  8
MY3DLAYER
10
7.3476152421832
20
14.2810843919352
30
-6.35759999999995
 70
     32
  0
VERTEX
  8
MY3DLAYER
10
7.35556117331309
20
14.2914397309945
30
-6.35759999999995
 70
     32
  0
VERTEX
  8
MY3DLAYER
10
7.36591651237242
20
14.2993856621244
30
-6.35759999999995
 70
     32
  0
VERTEX
  8
MY3DLAYER
10
7.37797556011729
20
14.3043806832496
30
-6.35759999999995
 70
     32
  0
VERTEX
  8
MY3DLAYER
10
7.39091651237242
20
14.3060843919352
30
-6.35759999999995
 70
     32
  0
VERTEX
  8
MY3DLAYER
10
7.40385746462754
20
14.3043806832496
30
-6.35759999999995
 70
     32
  0
VERTEX
  8
MY3DLAYER
10
7.41591651237241
20
14.2993856621244
30
-6.35759999999995
 70
     32
  0
VERTEX
  8
MY3DLAYER
10
7.42627185143174
20
14.2914397309945
30
-6.35759999999995
 70
     32
  0
VERTEX
  8
MY3DLAYER
10
7.43421778256164
20
14.2810843919352
30
-6.35759999999995
 70
     32
  0
VERTEX
  8
MY3DLAYER
10
7.43921280368687
20
14.2690253441903
30
-6.35759999999995
 70
     32
  0
VERTEX
  8
MY3DLAYER
10
7.44091651237241
20
14.2560843919352
30
-6.35759999999995
 70
     32
  0
VERTEX
  8
MY3DLAYER
10
7.43921280368687
20
14.2431434396801
30
-6.35759999999995
 70
     32
  0
VERTEX
  8
MY3DLAYER
10
7.43421778256164
20
14.2310843919352
30
-6.35759999999995
 70
     32
  0
VERTEX
  8
MY3DLAYER
10
7.94178175464309
20
13.938042196023
30
-6.35759999999994
 70
     32
  0
VERTEX
  8
MY3DLAYER
10
7.94972768577299
20
13.9483975350824
30
-6.35759999999994
 70
     32
  0
VERTEX
  8
MY3DLAYER
10
7.96008302483231
20
13.9563434662122
30
-6.35759999999994
 70
     32
  0
VERTEX
  8
MY3DLAYER
10
7.97214207257719
20
13.9613384873375
30
-6.35759999999994
 70
     32
  0
VERTEX
  8
MY3DLAYER
10
7.98508302483231
20
13.963042196023
30
-6.35759999999994
 70
     32
  0
VERTEX
  8
MY3DLAYER
10
7.99802397708744
20
13.9613384873375
30
-6.35759999999994
 70
     32
  0
VERTEX
  8
MY3DLAYER
10
8.01008302483231
20
13.9563434662122
30
-6.35759999999994
 70
     32
  0
VERTEX
  8
MY3DLAYER
10
8.02043836389164
20
13.9483975350824
30
-6.35759999999994
 70
     32
  0
VERTEX
  8
MY3DLAYER
10
8.02838429502154
20
13.938042196023
30
-6.35759999999994
 70
     32
  0
VERTEX
  8
MY3DLAYER
10
8.03337931614676
20
13.9259831482781
30
-6.35759999999994
 70
     32
  0
VERTEX
  8
MY3DLAYER
10
8.03508302483231
20
13.913042196023
30
-6.35759999999994
 70
     32
  0
VERTEX
  8
MY3DLAYER
10
8.03337931614676
20
13.9001012437679
30
-6.35759999999994
 70
     32
  0
VERTEX
  8
MY3DLAYER
10
8.02838429502153
20
13.888042196023
30
-6.35759999999994
 70
     32
  0
VERTEX
  8
MY3DLAYER
10
8.02043836389164
20
13.8776868569637
30
-6.35759999999994
 70
     32
  0
VERTEX
  8
MY3DLAYER
10
8.01008302483231
20
13.8697409258338
30
-6.35759999999994
 70
     32
  0
VERTEX
  8
MY3DLAYER
10
7.99802397708744
20
13.8647459047086
30
-6.35759999999994
 70
     32
  0
SEQEND
  0
POLYLINE
 8
Layer0
 66
     1
70
    8
 10
0.0
 20
 0.0
 30
0.0
  0
VERTEX
  8
MY3DLAYER
10
9.80969095222382
20
11.1497459047177
30
-6.3575999999999
 70
     32
  0
VERTEX
  8
MY3DLAYER
10
9.79674999996869
20
11.1480421960321
30
-6.3575999999999
 70
     32
  0
VERTEX
  8
MY3DLAYER
10
9.79674999996868
20
10.5619578042078
30
-6.3575999999999
 70
     32
  0
VERTEX
  8
MY3DLAYER
10
9.80969095222381
20
10.5602540955222
30
-6.3575999999999
 70
     32
  0
VERTEX
  8
MY3DLAYER
10
9.82174999996868
20
10.555259074397
30
-6.3575999999999
 70
     32
  0
VERTEX
  8
MY3DLAYER
10
9.83210533902801
20
10.5473131432671
30
-6.3575999999999
 70
     32
  0
VERTEX
  8
MY3DLAYER
10
9.8400512701579
20
10.5369578042078
30
-6.3575999999999
 70
     32
  0
VERTEX
  8
MY3DLAYER
10
9.84504629128314
20
10.5248987564629
30
-6.3575999999999
 70
     32
  0
VERTEX
  8
MY3DLAYER
10
9.84674999996868
20
10.5119578042078
30
-6.3575999999999
 70
     32
  0
VERTEX
  8
MY3DLAYER
10
9.84504629128314
20
10.4990168519527
30
-6.3575999999999
 70
     32
  0
VERTEX
  8
MY3DLAYER
10
9.84005127015791
20
10.4869578042078
30
-6.3575999999999
 70
     32
  0
VERTEX
  8
MY3DLAYER
10
9.83210533902801
20
10.4766024651484
30
-6.3575999999999
 70
     32
  0
VERTEX
  8
MY3DLAYER
10
9.82174999996868
20
10.4686565340186
30
-6.3575999999999
 70
     32
  0
VERTEX
  8
MY3DLAYER
10
9.80969095222381
20
10.4636615128933
30
-6.3575999999999
 70
     32
  0
VERTEX
  8
MY3DLAYER
10
9.79674999996869
20
10.4619578042078
30
-6.3575999999999
 70
     32
  0
VERTEX
  8
MY3DLAYER
10
9.78380904771356
20
10.4636615128933
30
-6.3575999999999
 70
     32
  0
VERTEX
  8
MY3DLAYER
10
9.77174999996869
20
10.4686565340185
30
-6.3575999999999
 70
     32
  0
VERTEX
  8
MY3DLAYER
10
9.76139466090936
20
10.4766024651484
30
-6.3575999999999
 70
     32
  0
VERTEX
  8
MY3DLAYER
10
9.75344872977946
20
10.4869578042078
30
-6.3575999999999
 70
     32
  0
VERTEX
  8
MY3DLAYER
10
9.24588475769802
20
10.1939156082956
30
-6.35759999999991
 70
     32
  0
VERTEX
  8
MY3DLAYER
10
9.25087977882325
20
10.1818565605507
30
-6.35759999999991
 70
     32
  0
VERTEX
  8
MY3DLAYER
10
9.25258348750879
20
10.1689156082956
30
-6.35759999999991
 70
     32
  0
VERTEX
  8
MY3DLAYER
10
9.25087977882325
20
10.1559746560405
30
-6.35759999999991
 70
     32
  0
VERTEX
  8
MY3DLAYER
10
9.24588475769802
20
10.1439156082956
30
-6.35759999999991
 70
     32
  0
VERTEX
  8
MY3DLAYER
10
9.23793882656812
20
10.1335602692363
30
-6.35759999999991
 70
     32
  0
VERTEX
  8
MY3DLAYER
10
9.2275834875088
20
10.1256143381064
30
-6.35759999999991
 70
     32
  0
VERTEX
  8
MY3DLAYER
10
9.21552443976392
20
10.1206193169811
30
-6.35759999999991
 70
     32
  0
VERTEX
  8
MY3DLAYER
10
9.2025834875088
20
10.1189156082956
30
-6.35759999999991
 70
     32
  0
VERTEX
  8
MY3DLAYER
10
9.18964253525367
20
10.1206193169811
30
-6.35759999999991
 70
     32
  0
VERTEX
  8
MY3DLAYER
10
9.1775834875088
20
10.1256143381064
30
-6.35759999999991
 70
     32
  0
VERTEX
  8
MY3DLAYER
10
9.16722814844947
20
10.1335602692363
30
-6.35759999999991
 70
     32
  0
VERTEX
  8
MY3DLAYER
10
9.15928221731958
20
10.1439156082956
30
-6.35759999999991
 70
     32
  0
VERTEX
  8
MY3DLAYER
10
9.15428719619435
20
10.1559746560405
30
-6.35759999999991
 70
     32
  0
VERTEX
  8
MY3DLAYER
10
9.1525834875088
20
10.1689156082956
30
-6.35759999999991
 70
     32
  0
VERTEX
  8
MY3DLAYER
10
9.15428719619435
20
10.1818565605507
30
-6.35759999999991
 70
     32
  0
VERTEX
  8
MY3DLAYER
10
9.15928221731958
20
10.1939156082956
30
-6.35759999999991
 70
     32
  0
VERTEX
  8
MY3DLAYER
10
8.65171824523814
20
10.4869578042078
30
-6.35759999999992
 70
     32
  0
VERTEX
  8
MY3DLAYER
10
8.64377231410825
20
10.4766024651484
30
-6.35759999999992
 70
     32
  0
VERTEX
  8
MY3DLAYER
10
8.63341697504892
20
10.4686565340185
30
-6.35759999999992
 70
     32
  0
VERTEX
  8
MY3DLAYER
10
8.62135792730405
20
10.4636615128933
30
-6.35759999999992
 70
     32
  0
VERTEX
  8
MY3DLAYER
10
8.60841697504892
20
10.4619578042078
30
-6.35759999999992
 70
     32
  0
VERTEX
  8
MY3DLAYER
10
8.5954760227938
20
10.4636615128933
30
-6.35759999999992
 70
     32
  0
VERTEX
  8
MY3DLAYER
10
8.58341697504892
20
10.4686565340185
30
-6.35759999999992
 70
     32
  0
VERTEX
  8
MY3DLAYER
10
8.5730616359896
20
10.4766024651484
30
-6.35759999999992
 70
     32
  0
VERTEX
  8
MY3DLAYER
10
8.5651157048597
20
10.4869578042078
30
-6.35759999999992
 70
     32
  0
VERTEX
  8
MY3DLAYER
10
8.56012068373447
20
10.4990168519526
30
-6.35759999999992
 70
     32
  0
VERTEX
  8
MY3DLAYER
10
8.55841697504892
20
10.5119578042078
30
-6.35759999999993
 70
     32
  0
VERTEX
  8
MY3DLAYER
10
8.56012068373447
20
10.5248987564629
30
-6.35759999999992
 70
     32
  0
VERTEX
  8
MY3DLAYER
10
8.5651157048597
20
10.5369578042078
30
-6.35759999999992
 70
     32
  0
VERTEX
  8
MY3DLAYER
10
8.5730616359896
20
10.5473131432671
30
-6.35759999999992
 70
     32
  0
VERTEX
  8
MY3DLAYER
10
8.58341697504893
20
10.555259074397
30
-6.35759999999992
 70
     32
  0
VERTEX
  8
MY3DLAYER
10
8.5954760227938
20
10.5602540955222
30
-6.35759999999992
 70
     32
  0
VERTEX
  8
MY3DLAYER
10
8.60841697504893
20
10.5619578042078
30
-6.35759999999992
 70
     32
  0
VERTEX
  8
MY3DLAYER
10
8.60841697504893
20
11.1480421960321
30
-6.35759999999992
 70
     32
  0
VERTEX
  8
MY3DLAYER
10
8.5954760227938
20
11.1497459047177
30
-6.35759999999993
 70
     32
  0
VERTEX
  8
MY3DLAYER
10
8.58341697504893
20
11.1547409258429
30
-6.35759999999993
 70
     32
  0
VERTEX
  8
MY3DLAYER
10
8.5730616359896
20
11.1626868569728
30
-6.35759999999993
 70
     32
  0
VERTEX
  8
MY3DLAYER
10
8.56511570485971
20
11.1730421960321
30
-6.35759999999993
 70
     32
  0
VERTEX
  8
MY3DLAYER
10
8.56012068373447
20
11.185101243777
30
-6.35759999999993
 70
     32
  0
VERTEX
  8
MY3DLAYER
10
8.55841697504893
20
11.1980421960321
30
-6.35759999999993
 70
     32
  0
VERTEX
  8
MY3DLAYER
10
8.56012068373447
20
11.2109831482872
30
-6.35759999999992
 70
     32
  0
VERTEX
  8
MY3DLAYER
10
8.5651157048597
20
11.2230421960321
30
-6.35759999999992
 70
     32
  0
VERTEX
  8
MY3DLAYER
10
8.5730616359896
20
11.2333975350914
30
-6.35759999999992
 70
     32
  0
VERTEX
  8
MY3DLAYER
10
8.58341697504893
20
11.2413434662213
30
-6.35759999999992
 70
     32
  0
VERTEX
  8
MY3DLAYER
10
8.5954760227938
20
11.2463384873466
30
-6.35759999999992
 70
     32
  0
VERTEX
  8
MY3DLAYER
10
8.60841697504893
20
11.2480421960321
30
-6.35759999999992
 70
     32
  0
VERTEX
  8
MY3DLAYER
10
8.62135792730405
20
11.2463384873466
30
-6.35759999999992
 70
     32
  0
VERTEX
  8
MY3DLAYER
10
8.63341697504892
20
11.2413434662213
30
-6.35759999999992
 70
     32
  0
VERTEX
  8
MY3DLAYER
10
8.64377231410825
20
11.2333975350914
30
-6.35759999999992
 70
     32
  0
VERTEX
  8
MY3DLAYER
10
8.65171824523815
20
11.2230421960321
30
-6.35759999999992
 70
     32
  0
VERTEX
  8
MY3DLAYER
10
9.15928221731958
20
11.5160843919443
30
-6.35759999999991
 70
     32
  0
VERTEX
  8
MY3DLAYER
10
9.15428719619435
20
11.5281434396892
30
-6.35759999999991
 70
     32
  0
VERTEX
  8
MY3DLAYER
10
9.1525834875088
20
11.5410843919443
30
-6.35759999999991
 70
     32
  0
VERTEX
  8
MY3DLAYER
10
9.15428719619435
20
11.5540253441994
30
-6.35759999999991
 70
     32
  0
VERTEX
  8
MY3DLAYER
10
9.15928221731958
20
11.5660843919443
30
-6.35759999999991
 70
     32
  0
VERTEX
  8
MY3DLAYER
10
9.16722814844947
20
11.5764397310036
30
-6.35759999999991
 70
     32
  0
VERTEX
  8
MY3DLAYER
10
9.1775834875088
20
11.5843856621335
30
-6.35759999999991
 70
     32
  0
VERTEX
  8
MY3DLAYER
10
9.18964253525368
20
11.5893806832587
30
-6.35759999999991
 70
     32
  0
VERTEX
  8
MY3DLAYER
10
9.2025834875088
20
11.5910843919443
30
-6.35759999999991
 70
     32
  0
VERTEX
  8
MY3DLAYER
10
9.21552443976393
20
11.5893806832587
30
-6.35759999999991
 70
     32
  0
VERTEX
  8
MY3DLAYER
10
9.2275834875088
20
11.5843856621335
30
-6.35759999999991
 70
     32
  0
VERTEX
  8
MY3DLAYER
10
9.23793882656813
20
11.5764397310036
30
-6.35759999999991
 70
     32
  0
VERTEX
  8
MY3DLAYER
10
9.24588475769802
20
11.5660843919443
30
-6.35759999999991
 70
     32
  0
VERTEX
  8
MY3DLAYER
10
9.25087977882325
20
11.5540253441994
30
-6.35759999999991
 70
     32
  0
VERTEX
  8
MY3DLAYER
10
9.2525834875088
20
11.5410843919443
30
-6.35759999999991
 70
     32
  0
VERTEX
  8
MY3DLAYER
10
9.25087977882325
20
11.5281434396892
30
-6.35759999999991
 70
     32
  0
VERTEX
  8
MY3DLAYER
10
9.24588475769802
20
11.5160843919443
30
-6.35759999999991
 70
     32
  0
VERTEX
  8
MY3DLAYER
10
9.75344872977947
20
11.2230421960321
30
-6.3575999999999
 70
     32
  0
VERTEX
  8
MY3DLAYER
10
9.76139466090937
20
11.2333975350914
30
-6.3575999999999
 70
     32
  0
VERTEX
  8
MY3DLAYER
10
9.7717499999687
20
11.2413434662213
30
-6.3575999999999
 70
     32
  0
VERTEX
  8
MY3DLAYER
10
9.78380904771357
20
11.2463384873466
30
-6.3575999999999
 70
     32
  0
VERTEX
  8
MY3DLAYER
10
9.7967499999687
20
11.2480421960321
30
-6.3575999999999
 70
     32
  0
VERTEX
  8
MY3DLAYER
10
9.80969095222382
20
11.2463384873466
30
-6.3575999999999
 70
     32
  0
VERTEX
  8
MY3DLAYER
10
9.8217499999687
20
11.2413434662213
30
-6.3575999999999
 70
     32
  0
VERTEX
  8
MY3DLAYER
10
9.83210533902802
20
11.2333975350914
30
-6.3575999999999
 70
     32
  0
VERTEX
  8
MY3DLAYER
10
9.84005127015792
20
11.2230421960321
30
-6.3575999999999
 70
     32
  0
VERTEX
  8
MY3DLAYER
10
9.84504629128315
20
11.2109831482872
30
-6.3575999999999
 70
     32
  0
VERTEX
  8
MY3DLAYER
10
9.84674999996869
20
11.1980421960321
30
-6.3575999999999
 70
     32
  0
VERTEX
  8
MY3DLAYER
10
9.84504629128315
20
11.185101243777
30
-6.3575999999999
 70
     32
  0
VERTEX
  8
MY3DLAYER
10
9.84005127015791
20
11.1730421960321
30
-6.3575999999999
 70
     32
  0
VERTEX
  8
MY3DLAYER
10
9.83210533902802
20
11.1626868569728
30
-6.3575999999999
 70
     32
  0
VERTEX
  8
MY3DLAYER
10
9.8217499999687
20
11.1547409258429
30
-6.3575999999999
 70
     32
  0
VERTEX
  8
MY3DLAYER
10
9.80969095222382
20
11.1497459047177
30
-6.3575999999999
 70
     32
  0
SEQEND
  0
POLYLINE
 8
Layer0
 66
     1
70
    8
 10
0.0
 20
 0.0
 30
0.0
  0
VERTEX
  8
MY3DLAYER
10
7.99802397708357
20
11.1497459047177
30
-6.35759999999993
 70
     32
  0
VERTEX
  8
MY3DLAYER
10
7.98508302482844
20
11.1480421960321
30
-6.35759999999993
 70
     32
  0
VERTEX
  8
MY3DLAYER
10
7.98508302482843
20
10.5619578042078
30
-6.35759999999993
 70
     32
  0
VERTEX
  8
MY3DLAYER
10
7.99802397708356
20
10.5602540955222
30
-6.35759999999993
 70
     32
  0
VERTEX
  8
MY3DLAYER
10
8.01008302482843
20
10.555259074397
30
-6.35759999999993
 70
     32
  0
VERTEX
  8
MY3DLAYER
10
8.02043836388776
20
10.5473131432671
30
-6.35759999999993
 70
     32
  0
VERTEX
  8
MY3DLAYER
10
8.02838429501766
20
10.5369578042078
30
-6.35759999999993
 70
     32
  0
VERTEX
  8
MY3DLAYER
10
8.03337931614289
20
10.5248987564629
30
-6.35759999999993
 70
     32
  0
VERTEX
  8
MY3DLAYER
10
8.03508302482843
20
10.5119578042078
30
-6.35759999999993
 70
     32
  0
VERTEX
  8
MY3DLAYER
10
8.03337931614289
20
10.4990168519527
30
-6.35759999999993
 70
     32
  0
VERTEX
  8
MY3DLAYER
10
8.02838429501766
20
10.4869578042078
30
-6.35759999999993
 70
     32
  0
VERTEX
  8
MY3DLAYER
10
8.02043836388776
20
10.4766024651484
30
-6.35759999999993
 70
     32
  0
VERTEX
  8
MY3DLAYER
10
8.01008302482844
20
10.4686565340186
30
-6.35759999999993
 70
     32
  0
VERTEX
  8
MY3DLAYER
10
7.99802397708356
20
10.4636615128933
30
-6.35759999999993
 70
     32
  0
VERTEX
  8
MY3DLAYER
10
7.98508302482844
20
10.4619578042078
30
-6.35759999999993
 70
     32
  0
VERTEX
  8
MY3DLAYER
10
7.97214207257331
20
10.4636615128933
30
-6.35759999999993
 70
     32
  0
VERTEX
  8
MY3DLAYER
10
7.96008302482844
20
10.4686565340185
30
-6.35759999999993
 70
     32
  0
VERTEX
  8
MY3DLAYER
10
7.94972768576911
20
10.4766024651484
30
-6.35759999999993
 70
     32
  0
VERTEX
  8
MY3DLAYER
10
7.94178175463921
20
10.4869578042078
30
-6.35759999999993
 70
     32
  0
VERTEX
  8
MY3DLAYER
10
7.43421778255777
20
10.1939156082956
30
-6.35759999999994
 70
     32
  0
VERTEX
  8
MY3DLAYER
10
7.439212803683
20
10.1818565605507
30
-6.35759999999994
 70
     32
  0
VERTEX
  8
MY3DLAYER
10
7.44091651236854
20
10.1689156082956
30
-6.35759999999994
 70
     32
  0
VERTEX
  8
MY3DLAYER
10
7.439212803683
20
10.1559746560405
30
-6.35759999999994
 70
     32
  0
VERTEX
  8
MY3DLAYER
10
7.43421778255777
20
10.1439156082956
30
-6.35759999999994
 70
     32
  0
VERTEX
  8
MY3DLAYER
10
7.42627185142787
20
10.1335602692363
30
-6.35759999999994
 70
     32
  0
VERTEX
  8
MY3DLAYER
10
7.41591651236855
20
10.1256143381064
30
-6.35759999999995
 70
     32
  0
VERTEX
  8
MY3DLAYER
10
7.40385746462367
20
10.1206193169811
30
-6.35759999999995
 70
     32
  0
VERTEX
  8
MY3DLAYER
10
7.39091651236855
20
10.1189156082956
30
-6.35759999999995
 70
     32
  0
VERTEX
  8
MY3DLAYER
10
7.37797556011342
20
10.1206193169811
30
-6.35759999999995
 70
     32
  0
VERTEX
  8
MY3DLAYER
10
7.36591651236855
20
10.1256143381064
30
-6.35759999999995
 70
     32
  0
VERTEX
  8
MY3DLAYER
10
7.35556117330922
20
10.1335602692363
30
-6.35759999999995
 70
     32
  0
VERTEX
  8
MY3DLAYER
10
7.34761524217933
20
10.1439156082956
30
-6.35759999999995
 70
     32
  0
VERTEX
  8
MY3DLAYER
10
7.3426202210541
20
10.1559746560405
30
-6.35759999999995
 70
     32
  0
VERTEX
  8
MY3DLAYER
10
7.34091651236855
20
10.1689156082956
30
-6.35759999999995
 70
     32
  0
VERTEX
  8
MY3DLAYER
10
7.3426202210541
20
10.1818565605507
30
-6.35759999999995
 70
     32
  0
VERTEX
  8
MY3DLAYER
10
7.34761524217933
20
10.1939156082956
30
-6.35759999999995
 70
     32
  0
VERTEX
  8
MY3DLAYER
10
6.84005127009789
20
10.4869578042078
30
-6.35759999999996
 70
     32
  0
VERTEX
  8
MY3DLAYER
10
6.832105338968
20
10.4766024651484
30
-6.35759999999996
 70
     32
  0
VERTEX
  8
MY3DLAYER
10
6.82174999990867
20
10.4686565340185
30
-6.35759999999996
 70
     32
  0
VERTEX
  8
MY3DLAYER
10
6.8096909521638
20
10.4636615128933
30
-6.35759999999996
 70
     32
  0
VERTEX
  8
MY3DLAYER
10
6.79674999990867
20
10.4619578042078
30
-6.35759999999996
 70
     32
  0
VERTEX
  8
MY3DLAYER
10
6.78380904765355
20
10.4636615128933
30
-6.35759999999996
 70
     32
  0
VERTEX
  8
MY3DLAYER
10
6.77174999990867
20
10.4686565340185
30
-6.35759999999996
 70
     32
  0
VERTEX
  8
MY3DLAYER
10
6.76139466084935
20
10.4766024651484
30
-6.35759999999996
 70
     32
  0
VERTEX
  8
MY3DLAYER
10
6.75344872971945
20
10.4869578042078
30
-6.35759999999996
 70
     32
  0
VERTEX
  8
MY3DLAYER
10
6.74845370859422
20
10.4990168519526
30
-6.35759999999996
 70
     32
  0
VERTEX
  8
MY3DLAYER
10
6.74674999990868
20
10.5119578042078
30
-6.35759999999996
 70
     32
  0
VERTEX
  8
MY3DLAYER
10
6.74845370859422
20
10.5248987564629
30
-6.35759999999996
 70
     32
  0
VERTEX
  8
MY3DLAYER
10
6.75344872971945
20
10.5369578042078
30
-6.35759999999996
 70
     32
  0
VERTEX
  8
MY3DLAYER
10
6.76139466084935
20
10.5473131432671
30
-6.35759999999996
 70
     32
  0
VERTEX
  8
MY3DLAYER
10
6.77174999990868
20
10.555259074397
30
-6.35759999999996
 70
     32
  0
VERTEX
  8
MY3DLAYER
10
6.78380904765355
20
10.5602540955222
30
-6.35759999999996
 70
     32
  0
VERTEX
  8
MY3DLAYER
10
6.79674999990868
20
10.5619578042078
30
-6.35759999999996
 70
     32
  0
VERTEX
  8
MY3DLAYER
10
6.79674999990868
20
11.1480421960321
30
-6.35759999999996
 70
     32
  0
VERTEX
  8
MY3DLAYER
10
6.78380904765355
20
11.1497459047177
30
-6.35759999999996
 70
     32
  0
VERTEX
  8
MY3DLAYER
10
6.77174999990868
20
11.1547409258429
30
-6.35759999999996
 70
     32
  0
VERTEX
  8
MY3DLAYER
10
6.76139466084935
20
11.1626868569728
30
-6.35759999999996
 70
     32
  0
VERTEX
  8
MY3DLAYER
10
6.75344872971946
20
11.1730421960321
30
-6.35759999999996
 70
     32
  0
VERTEX
  8
MY3DLAYER
10
6.74845370859422
20
11.185101243777
30
-6.35759999999996
 70
     32
  0
VERTEX
  8
MY3DLAYER
10
6.74674999990868
20
11.1980421960321
30
-6.35759999999996
 70
     32
  0
VERTEX
  8
MY3DLAYER
10
6.74845370859422
20
11.2109831482872
30
-6.35759999999996
 70
     32
  0
VERTEX
  8
MY3DLAYER
10
6.75344872971945
20
11.2230421960321
30
-6.35759999999996
 70
     32
  0
VERTEX
  8
MY3DLAYER
10
6.76139466084935
20
11.2333975350914
30
-6.35759999999996
 70
     32
  0
VERTEX
  8
MY3DLAYER
10
6.77174999990868
20
11.2413434662213
30
-6.35759999999996
 70
     32
  0
VERTEX
  8
MY3DLAYER
10
6.78380904765355
20
11.2463384873466
30
-6.35759999999996
 70
     32
  0
VERTEX
  8
MY3DLAYER
10
6.79674999990867
20
11.2480421960321
30
-6.35759999999996
 70
     32
  0
VERTEX
  8
MY3DLAYER
10
6.8096909521638
20
11.2463384873466
30
-6.35759999999996
 70
     32
  0
VERTEX
  8
MY3DLAYER
10
6.82174999990867
20
11.2413434662213
30
-6.35759999999996
 70
     32
  0
VERTEX
  8
MY3DLAYER
10
6.832105338968
20
11.2333975350914
30
-6.35759999999996
 70
     32
  0
VERTEX
  8
MY3DLAYER
10
6.8400512700979
20
11.2230421960321
30
-6.35759999999996
 70
     32
  0
VERTEX
  8
MY3DLAYER
10
7.34761524217933
20
11.5160843919443
30
-6.35759999999995
 70
     32
  0
VERTEX
  8
MY3DLAYER
10
7.3426202210541
20
11.5281434396892
30
-6.35759999999995
 70
     32
  0
VERTEX
  8
MY3DLAYER
10
7.34091651236855
20
11.5410843919443
30
-6.35759999999995
 70
     32
  0
VERTEX
  8
MY3DLAYER
10
7.3426202210541
20
11.5540253441994
30
-6.35759999999995
 70
     32
  0
VERTEX
  8
MY3DLAYER
10
7.34761524217933
20
11.5660843919443
30
-6.35759999999995
 70
     32
  0
VERTEX
  8
MY3DLAYER
10
7.35556117330922
20
11.5764397310036
30
-6.35759999999995
 70
     32
  0
VERTEX
  8
MY3DLAYER
10
7.36591651236855
20
11.5843856621335
30
-6.35759999999995
 70
     32
  0
VERTEX
  8
MY3DLAYER
10
7.37797556011342
20
11.5893806832587
30
-6.35759999999995
 70
     32
  0
VERTEX
  8
MY3DLAYER
10
7.39091651236855
20
11.5910843919443
30
-6.35759999999995
 70
     32
  0
VERTEX
  8
MY3DLAYER
10
7.40385746462367
20
11.5893806832587
30
-6.35759999999995
 70
     32
  0
VERTEX
  8
MY3DLAYER
10
7.41591651236855
20
11.5843856621335
30
-6.35759999999995
 70
     32
  0
VERTEX
  8
MY3DLAYER
10
7.42627185142787
20
11.5764397310036
30
-6.35759999999994
 70
     32
  0
VERTEX
  8
MY3DLAYER
10
7.43421778255777
20
11.5660843919443
30
-6.35759999999994
 70
     32
  0
VERTEX
  8
MY3DLAYER
10
7.439212803683
20
11.5540253441994
30
-6.35759999999994
 70
     32
  0
VERTEX
  8
MY3DLAYER
10
7.44091651236855
20
11.5410843919443
30
-6.35759999999994
 70
     32
  0
VERTEX
  8
MY3DLAYER
10
7.439212803683
20
11.5281434396892
30
-6.35759999999994
 70
     32
  0
VERTEX
  8
MY3DLAYER
10
7.43421778255777
20
11.5160843919443
30
-6.35759999999994
 70
     32
  0
VERTEX
  8
MY3DLAYER
10
7.94178175463923
20
11.2230421960321
30
-6.35759999999993
 70
     32
  0
VERTEX
  8
MY3DLAYER
10
7.94972768576912
20
11.2333975350914
30
-6.35759999999993
 70
     32
  0
VERTEX
  8
MY3DLAYER
10
7.96008302482845
20
11.2413434662213
30
-6.35759999999993
 70
     32
  0
VERTEX
  8
MY3DLAYER
10
7.97214207257332
20
11.2463384873466
30
-6.35759999999993
 70
     32
  0
VERTEX
  8
MY3DLAYER
10
7.98508302482845
20
11.2480421960321
30
-6.35759999999993
 70
     32
  0
VERTEX
  8
MY3DLAYER
10
7.99802397708357
20
11.2463384873466
30
-6.35759999999993
 70
     32
  0
VERTEX
  8
MY3DLAYER
10
8.01008302482845
20
11.2413434662213
30
-6.35759999999993
 70
     32
  0
VERTEX
  8
MY3DLAYER
10
8.02043836388777
20
11.2333975350914
30
-6.35759999999993
 70
     32
  0
VERTEX
  8
MY3DLAYER
10
8.02838429501767
20
11.2230421960321
30
-6.35759999999993
 70
     32
  0
VERTEX
  8
MY3DLAYER
10
8.0333793161429
20
11.2109831482872
30
-6.35759999999993
 70
     32
  0
VERTEX
  8
MY3DLAYER
10
8.03508302482845
20
11.1980421960321
30
-6.35759999999993
 70
     32
  0
VERTEX
  8
MY3DLAYER
10
8.0333793161429
20
11.185101243777
30
-6.35759999999993
 70
     32
  0
VERTEX
  8
MY3DLAYER
10
8.02838429501767
20
11.1730421960321
30
-6.35759999999993
 70
     32
  0
VERTEX
  8
MY3DLAYER
10
8.02043836388777
20
11.1626868569728
30
-6.35759999999993
 70
     32
  0
VERTEX
  8
MY3DLAYER
10
8.01008302482844
20
11.1547409258429
30
-6.35759999999993
 70
     32
  0
VERTEX
  8
MY3DLAYER
10
7.99802397708357
20
11.1497459047177
30
-6.35759999999993
 70
     32
  0
SEQEND
  0
POLYLINE
 8
Layer0
 66
     1
70
    8
 10
0.0
 20
 0.0
 30
0.0
  0
VERTEX
  8
MY3DLAYER
10
9.80969095221995
20
8.43474590472676
30
-6.3575999999999
 70
     32
  0
VERTEX
  8
MY3DLAYER
10
9.79674999996483
20
8.43304219604121
30
-6.3575999999999
 70
     32
  0
VERTEX
  8
MY3DLAYER
10
9.79674999996482
20
7.84695780421686
30
-6.3575999999999
 70
     32
  0
VERTEX
  8
MY3DLAYER
10
9.80969095221994
20
7.84525409553132
30
-6.3575999999999
 70
     32
  0
VERTEX
  8
MY3DLAYER
10
9.82174999996482
20
7.84025907440609
30
-6.3575999999999
 70
     32
  0
VERTEX
  8
MY3DLAYER
10
9.83210533902414
20
7.83231314327619
30
-6.3575999999999
 70
     32
  0
VERTEX
  8
MY3DLAYER
10
9.84005127015404
20
7.82195780421686
30
-6.3575999999999
 70
     32
  0
VERTEX
  8
MY3DLAYER
10
9.84504629127927
20
7.80989875647199
30
-6.35759999999989
 70
     32
  0
VERTEX
  8
MY3DLAYER
10
9.84674999996482
20
7.79695780421687
30
-6.35759999999989
 70
     32
  0
VERTEX
  8
MY3DLAYER
10
9.84504629127927
20
7.78401685196174
30
-6.35759999999989
 70
     32
  0
VERTEX
  8
MY3DLAYER
10
9.84005127015404
20
7.77195780421687
30
-6.3575999999999
 70
     32
  0
VERTEX
  8
MY3DLAYER
10
9.83210533902415
20
7.76160246515754
30
-6.3575999999999
 70
     32
  0
VERTEX
  8
MY3DLAYER
10
9.82174999996482
20
7.75365653402765
30
-6.3575999999999
 70
     32
  0
VERTEX
  8
MY3DLAYER
10
9.80969095221995
20
7.74866151290242
30
-6.3575999999999
 70
     32
  0
VERTEX
  8
MY3DLAYER
10
9.79674999996482
20
7.74695780421687
30
-6.3575999999999
 70
     32
  0
VERTEX
  8
MY3DLAYER
10
9.78380904770969
20
7.74866151290242
30
-6.3575999999999
 70
     32
  0
VERTEX
  8
MY3DLAYER
10
9.77174999996482
20
7.75365653402764
30
-6.3575999999999
 70
     32
  0
VERTEX
  8
MY3DLAYER
10
9.76139466090549
20
7.76160246515754
30
-6.3575999999999
 70
     32
  0
VERTEX
  8
MY3DLAYER
10
9.7534487297756
20
7.77195780421687
30
-6.3575999999999
 70
     32
  0
VERTEX
  8
MY3DLAYER
10
9.24588475769415
20
7.47891560830467
30
-6.35759999999991
 70
     32
  0
VERTEX
  8
MY3DLAYER
10
9.25087977881938
20
7.4668565605598
30
-6.35759999999991
 70
     32
  0
VERTEX
  8
MY3DLAYER
10
9.25258348750493
20
7.45391560830468
30
-6.35759999999991
 70
     32
  0
VERTEX
  8
MY3DLAYER
10
9.25087977881938
20
7.44097465604955
30
-6.35759999999991
 70
     32
  0
VERTEX
  8
MY3DLAYER
10
9.24588475769415
20
7.42891560830468
30
-6.35759999999991
 70
     32
  0
VERTEX
  8
MY3DLAYER
10
9.23793882656426
20
7.41856026924535
30
-6.35759999999991
 70
     32
  0
VERTEX
  8
MY3DLAYER
10
9.22758348750493
20
7.41061433811546
30
-6.35759999999991
 70
     32
  0
VERTEX
  8
MY3DLAYER
10
9.21552443976006
20
7.40561931699022
30
-6.35759999999991
 70
     32
  0
VERTEX
  8
MY3DLAYER
10
9.20258348750493
20
7.40391560830468
30
-6.35759999999991
 70
     32
  0
VERTEX
  8
MY3DLAYER
10
9.18964253524981
20
7.40561931699022
30
-6.35759999999991
 70
     32
  0
VERTEX
  8
MY3DLAYER
10
9.17758348750493
20
7.41061433811546
30
-6.35759999999991
 70
     32
  0
VERTEX
  8
MY3DLAYER
10
9.16722814844561
20
7.41856026924535
30
-6.35759999999991
 70
     32
  0
VERTEX
  8
MY3DLAYER
10
9.15928221731571
20
7.42891560830468
30
-6.35759999999991
 70
     32
  0
VERTEX
  8
MY3DLAYER
10
9.15428719619048
20
7.44097465604955
30
-6.35759999999991
 70
     32
  0
VERTEX
  8
MY3DLAYER
10
9.15258348750493
20
7.45391560830468
30
-6.35759999999991
 70
     32
  0
VERTEX
  8
MY3DLAYER
10
9.15428719619048
20
7.4668565605598
30
-6.35759999999991
 70
     32
  0
VERTEX
  8
MY3DLAYER
10
9.15928221731571
20
7.47891560830467
30
-6.35759999999991
 70
     32
  0
VERTEX
  8
MY3DLAYER
10
8.65171824523428
20
7.77195780421686
30
-6.35759999999992
 70
     32
  0
VERTEX
  8
MY3DLAYER
10
8.64377231410438
20
7.76160246515753
30
-6.35759999999992
 70
     32
  0
VERTEX
  8
MY3DLAYER
10
8.63341697504505
20
7.75365653402764
30
-6.35759999999992
 70
     32
  0
VERTEX
  8
MY3DLAYER
10
8.62135792730018
20
7.74866151290241
30
-6.35759999999992
 70
     32
  0
VERTEX
  8
MY3DLAYER
10
8.60841697504506
20
7.74695780421686
30
-6.35759999999992
 70
     32
  0
VERTEX
  8
MY3DLAYER
10
8.59547602278993
20
7.74866151290241
30
-6.35759999999992
 70
     32
  0
VERTEX
  8
MY3DLAYER
10
8.58341697504506
20
7.75365653402764
30
-6.35759999999992
 70
     32
  0
VERTEX
  8
MY3DLAYER
10
8.57306163598573
20
7.76160246515753
30
-6.35759999999992
 70
     32
  0
VERTEX
  8
MY3DLAYER
10
8.56511570485583
20
7.77195780421686
30
-6.35759999999992
 70
     32
  0
VERTEX
  8
MY3DLAYER
10
8.56012068373061
20
7.78401685196174
30
-6.35759999999992
 70
     32
  0
VERTEX
  8
MY3DLAYER
10
8.55841697504506
20
7.79695780421686
30
-6.35759999999992
 70
     32
  0
VERTEX
  8
MY3DLAYER
10
8.56012068373061
20
7.80989875647199
30
-6.35759999999992
 70
     32
  0
VERTEX
  8
MY3DLAYER
10
8.56511570485584
20
7.82195780421686
30
-6.35759999999992
 70
     32
  0
VERTEX
  8
MY3DLAYER
10
8.57306163598573
20
7.83231314327619
30
-6.35759999999992
 70
     32
  0
VERTEX
  8
MY3DLAYER
10
8.58341697504506
20
7.84025907440608
30
-6.35759999999992
 70
     32
  0
VERTEX
  8
MY3DLAYER
10
8.59547602278993
20
7.84525409553131
30
-6.35759999999992
 70
     32
  0
VERTEX
  8
MY3DLAYER
10
8.60841697504506
20
7.84695780421686
30
-6.35759999999992
 70
     32
  0
VERTEX
  8
MY3DLAYER
10
8.60841697504506
20
8.4330421960412
30
-6.35759999999992
 70
     32
  0
VERTEX
  8
MY3DLAYER
10
8.59547602278993
20
8.43474590472675
30
-6.35759999999992
 70
     32
  0
VERTEX
  8
MY3DLAYER
10
8.58341697504506
20
8.43974092585198
30
-6.35759999999992
 70
     32
  0
VERTEX
  8
MY3DLAYER
10
8.57306163598573
20
8.44768685698187
30
-6.35759999999992
 70
     32
  0
VERTEX
  8
MY3DLAYER
10
8.56511570485584
20
8.4580421960412
30
-6.35759999999992
 70
     32
  0
VERTEX
  8
MY3DLAYER
10
8.56012068373061
20
8.47010124378607
30
-6.35759999999992
 70
     32
  0
VERTEX
  8
MY3DLAYER
10
8.55841697504506
20
8.4830421960412
30
-6.35759999999992
 70
     32
  0
VERTEX
  8
MY3DLAYER
10
8.56012068373061
20
8.49598314829632
30
-6.35759999999992
 70
     32
  0
VERTEX
  8
MY3DLAYER
10
8.56511570485584
20
8.5080421960412
30
-6.35759999999992
 70
     32
  0
VERTEX
  8
MY3DLAYER
10
8.57306163598573
20
8.51839753510053
30
-6.35759999999992
 70
     32
  0
VERTEX
  8
MY3DLAYER
10
8.58341697504506
20
8.52634346623041
30
-6.35759999999992
 70
     32
  0
VERTEX
  8
MY3DLAYER
10
8.59547602278993
20
8.53133848735565
30
-6.35759999999992
 70
     32
  0
VERTEX
  8
MY3DLAYER
10
8.60841697504506
20
8.53304219604119
30
-6.35759999999992
 70
     32
  0
VERTEX
  8
MY3DLAYER
10
8.62135792730018
20
8.53133848735565
30
-6.35759999999992
 70
     32
  0
VERTEX
  8
MY3DLAYER
10
8.63341697504506
20
8.52634346623042
30
-6.35759999999992
 70
     32
  0
VERTEX
  8
MY3DLAYER
10
8.64377231410439
20
8.51839753510053
30
-6.35759999999992
 70
     32
  0
VERTEX
  8
MY3DLAYER
10
8.65171824523428
20
8.5080421960412
30
-6.35759999999992
 70
     32
  0
VERTEX
  8
MY3DLAYER
10
9.15928221731571
20
8.80108439195338
30
-6.35759999999991
 70
     32
  0
VERTEX
  8
MY3DLAYER
10
9.15428719619048
20
8.81314343969825
30
-6.35759999999991
 70
     32
  0
VERTEX
  8
MY3DLAYER
10
9.15258348750493
20
8.82608439195338
30
-6.35759999999991
 70
     32
  0
VERTEX
  8
MY3DLAYER
10
9.15428719619048
20
8.83902534420851
30
-6.35759999999991
 70
     32
  0
VERTEX
  8
MY3DLAYER
10
9.15928221731571
20
8.85108439195338
30
-6.35759999999991
 70
     32
  0
VERTEX
  8
MY3DLAYER
10
9.16722814844561
20
8.8614397310127
30
-6.35759999999991
 70
     32
  0
VERTEX
  8
MY3DLAYER
10
9.17758348750493
20
8.8693856621426
30
-6.35759999999991
 70
     32
  0
VERTEX
  8
MY3DLAYER
10
9.18964253524981
20
8.87438068326783
30
-6.35759999999991
 70
     32
  0
VERTEX
  8
MY3DLAYER
10
9.20258348750493
20
8.87608439195338
30
-6.35759999999991
 70
     32
  0
VERTEX
  8
MY3DLAYER
10
9.21552443976006
20
8.87438068326783
30
-6.35759999999991
 70
     32
  0
VERTEX
  8
MY3DLAYER
10
9.22758348750493
20
8.8693856621426
30
-6.35759999999991
 70
     32
  0
VERTEX
  8
MY3DLAYER
10
9.23793882656426
20
8.8614397310127
30
-6.35759999999991
 70
     32
  0
VERTEX
  8
MY3DLAYER
10
9.24588475769415
20
8.85108439195338
30
-6.35759999999991
 70
     32
  0
VERTEX
  8
MY3DLAYER
10
9.25087977881938
20
8.83902534420851
30
-6.35759999999991
 70
     32
  0
VERTEX
  8
MY3DLAYER
10
9.25258348750493
20
8.82608439195338
30
-6.35759999999991
 70
     32
  0
VERTEX
  8
MY3DLAYER
10
9.25087977881938
20
8.81314343969825
30
-6.35759999999991
 70
     32
  0
VERTEX
  8
MY3DLAYER
10
9.24588475769415
20
8.80108439195338
30
-6.35759999999991
 70
     32
  0
VERTEX
  8
MY3DLAYER
10
9.75344872977561
20
8.50804219604121
30
-6.3575999999999
 70
     32
  0
VERTEX
  8
MY3DLAYER
10
9.7613946609055
20
8.51839753510054
30
-6.3575999999999
 70
     32
  0
VERTEX
  8
MY3DLAYER
10
9.77174999996483
20
8.52634346623043
30
-6.3575999999999
 70
     32
  0
VERTEX
  8
MY3DLAYER
10
9.7838090477097
20
8.53133848735566
30
-6.3575999999999
 70
     32
  0
VERTEX
  8
MY3DLAYER
10
9.79674999996483
20
8.53304219604121
30
-6.3575999999999
 70
     32
  0
VERTEX
  8
MY3DLAYER
10
9.80969095221996
20
8.53133848735566
30
-6.3575999999999
 70
     32
  0
VERTEX
  8
MY3DLAYER
10
9.82174999996483
20
8.52634346623043
30
-6.35759999999989
 70
     32
  0
VERTEX
  8
MY3DLAYER
10
9.83210533902416
20
8.51839753510054
30
-6.35759999999989
 70
     32
  0
VERTEX
  8
MY3DLAYER
10
9.84005127015405
20
8.50804219604121
30
-6.35759999999989
 70
     32
  0
VERTEX
  8
MY3DLAYER
10
9.84504629127928
20
8.49598314829633
30
-6.35759999999989
 70
     32
  0
VERTEX
  8
MY3DLAYER
10
9.84674999996483
20
8.48304219604121
30
-6.3575999999999
 70
     32
  0
VERTEX
  8
MY3DLAYER
10
9.84504629127928
20
8.47010124378608
30
-6.3575999999999
 70
     32
  0
VERTEX
  8
MY3DLAYER
10
9.84005127015405
20
8.45804219604121
30
-6.3575999999999
 70
     32
  0
VERTEX
  8
MY3DLAYER
10
9.83210533902415
20
8.44768685698188
30
-6.3575999999999
 70
     32
  0
VERTEX
  8
MY3DLAYER
10
9.82174999996483
20
8.43974092585199
30
-6.3575999999999
 70
     32
  0
VERTEX
  8
MY3DLAYER
10
9.80969095221995
20
8.43474590472676
30
-6.3575999999999
 70
     32
  0
SEQEND
  0
POLYLINE
 8
Layer0
 66
     1
70
    8
 10
0.0
 20
 0.0
 30
0.0
  0
VERTEX
  8
MY3DLAYER
10
7.9980239770797
20
8.43474590472676
30
-6.35759999999993
 70
     32
  0
VERTEX
  8
MY3DLAYER
10
7.98508302482458
20
8.43304219604121
30
-6.35759999999993
 70
     32
  0
VERTEX
  8
MY3DLAYER
10
7.98508302482457
20
7.84695780421686
30
-6.35759999999993
 70
     32
  0
VERTEX
  8
MY3DLAYER
10
7.99802397707969
20
7.84525409553132
30
-6.35759999999993
 70
     32
  0
VERTEX
  8
MY3DLAYER
10
8.01008302482457
20
7.84025907440609
30
-6.35759999999993
 70
     32
  0
VERTEX
  8
MY3DLAYER
10
8.02043836388389
20
7.83231314327619
30
-6.35759999999993
 70
     32
  0
VERTEX
  8
MY3DLAYER
10
8.02838429501379
20
7.82195780421686
30
-6.35759999999993
 70
     32
  0
VERTEX
  8
MY3DLAYER
10
8.03337931613902
20
7.80989875647199
30
-6.35759999999993
 70
     32
  0
VERTEX
  8
MY3DLAYER
10
8.03508302482457
20
7.79695780421687
30
-6.35759999999993
 70
     32
  0
VERTEX
  8
MY3DLAYER
10
8.03337931613902
20
7.78401685196174
30
-6.35759999999993
 70
     32
  0
VERTEX
  8
MY3DLAYER
10
8.02838429501379
20
7.77195780421687
30
-6.35759999999993
 70
     32
  0
VERTEX
  8
MY3DLAYER
10
8.02043836388389
20
7.76160246515754
30
-6.35759999999993
 70
     32
  0
VERTEX
  8
MY3DLAYER
10
8.01008302482457
20
7.75365653402765
30
-6.35759999999993
 70
     32
  0
VERTEX
  8
MY3DLAYER
10
7.99802397707969
20
7.74866151290242
30
-6.35759999999993
 70
     32
  0
VERTEX
  8
MY3DLAYER
10
7.98508302482457
20
7.74695780421687
30
-6.35759999999993
 70
     32
  0
VERTEX
  8
MY3DLAYER
10
7.97214207256944
20
7.74866151290242
30
-6.35759999999993
 70
     32
  0
VERTEX
  8
MY3DLAYER
10
7.96008302482457
20
7.75365653402764
30
-6.35759999999993
 70
     32
  0
VERTEX
  8
MY3DLAYER
10
7.94972768576524
20
7.76160246515754
30
-6.35759999999993
 70
     32
  0
VERTEX
  8
MY3DLAYER
10
7.94178175463535
20
7.77195780421687
30
-6.35759999999993
 70
     32
  0
VERTEX
  8
MY3DLAYER
10
7.4342177825539
20
7.47891560830467
30
-6.35759999999994
 70
     32
  0
VERTEX
  8
MY3DLAYER
10
7.43921280367913
20
7.4668565605598
30
-6.35759999999994
 70
     32
  0
VERTEX
  8
MY3DLAYER
10
7.44091651236468
20
7.45391560830468
30
-6.35759999999994
 70
     32
  0
VERTEX
  8
MY3DLAYER
10
7.43921280367913
20
7.44097465604955
30
-6.35759999999994
 70
     32
  0
VERTEX
  8
MY3DLAYER
10
7.4342177825539
20
7.42891560830468
30
-6.35759999999994
 70
     32
  0
VERTEX
  8
MY3DLAYER
10
7.42627185142401
20
7.41856026924535
30
-6.35759999999994
 70
     32
  0
VERTEX
  8
MY3DLAYER
10
7.41591651236468
20
7.41061433811546
30
-6.35759999999994
 70
     32
  0
VERTEX
  8
MY3DLAYER
10
7.40385746461981
20
7.40561931699022
30
-6.35759999999994
 70
     32
  0
VERTEX
  8
MY3DLAYER
10
7.39091651236468
20
7.40391560830468
30
-6.35759999999994
 70
     32
  0
VERTEX
  8
MY3DLAYER
10
7.37797556010956
20
7.40561931699022
30
-6.35759999999994
 70
     32
  0
VERTEX
  8
MY3DLAYER
10
7.36591651236468
20
7.41061433811546
30
-6.35759999999994
 70
     32
  0
VERTEX
  8
MY3DLAYER
10
7.35556117330535
20
7.41856026924535
30
-6.35759999999994
 70
     32
  0
VERTEX
  8
MY3DLAYER
10
7.34761524217546
20
7.42891560830468
30
-6.35759999999994
 70
     32
  0
VERTEX
  8
MY3DLAYER
10
7.34262022105023
20
7.44097465604955
30
-6.35759999999994
 70
     32
  0
VERTEX
  8
MY3DLAYER
10
7.34091651236468
20
7.45391560830468
30
-6.35759999999994
 70
     32
  0
VERTEX
  8
MY3DLAYER
10
7.34262022105023
20
7.4668565605598
30
-6.35759999999994
 70
     32
  0
VERTEX
  8
MY3DLAYER
10
7.34761524217546
20
7.47891560830467
30
-6.35759999999994
 70
     32
  0
VERTEX
  8
MY3DLAYER
10
6.84005127009403
20
7.77195780421686
30
-6.35759999999995
 70
     32
  0
VERTEX
  8
MY3DLAYER
10
6.83210533896413
20
7.76160246515753
30
-6.35759999999995
 70
     32
  0
VERTEX
  8
MY3DLAYER
10
6.82174999990481
20
7.75365653402764
30
-6.35759999999995
 70
     32
  0
VERTEX
  8
MY3DLAYER
10
6.80969095215993
20
7.74866151290241
30
-6.35759999999995
 70
     32
  0
VERTEX
  8
MY3DLAYER
10
6.79674999990481
20
7.74695780421686
30
-6.35759999999995
 70
     32
  0
VERTEX
  8
MY3DLAYER
10
6.78380904764968
20
7.74866151290241
30
-6.35759999999995
 70
     32
  0
VERTEX
  8
MY3DLAYER
10
6.77174999990481
20
7.75365653402764
30
-6.35759999999995
 70
     32
  0
VERTEX
  8
MY3DLAYER
10
6.76139466084548
20
7.76160246515753
30
-6.35759999999995
 70
     32
  0
VERTEX
  8
MY3DLAYER
10
6.75344872971559
20
7.77195780421686
30
-6.35759999999995
 70
     32
  0
VERTEX
  8
MY3DLAYER
10
6.74845370859035
20
7.78401685196174
30
-6.35759999999995
 70
     32
  0
VERTEX
  8
MY3DLAYER
10
6.74674999990481
20
7.79695780421686
30
-6.35759999999995
 70
     32
  0
VERTEX
  8
MY3DLAYER
10
6.74845370859035
20
7.80989875647199
30
-6.35759999999995
 70
     32
  0
VERTEX
  8
MY3DLAYER
10
6.75344872971559
20
7.82195780421686
30
-6.35759999999995
 70
     32
  0
VERTEX
  8
MY3DLAYER
10
6.76139466084548
20
7.83231314327619
30
-6.35759999999995
 70
     32
  0
VERTEX
  8
MY3DLAYER
10
6.77174999990481
20
7.84025907440608
30
-6.35759999999995
 70
     32
  0
VERTEX
  8
MY3DLAYER
10
6.78380904764968
20
7.84525409553131
30
-6.35759999999995
 70
     32
  0
VERTEX
  8
MY3DLAYER
10
6.79674999990481
20
7.84695780421686
30
-6.35759999999995
 70
     32
  0
VERTEX
  8
MY3DLAYER
10
6.79674999990481
20
8.4330421960412
30
-6.35759999999995
 70
     32
  0
VERTEX
  8
MY3DLAYER
10
6.78380904764968
20
8.43474590472675
30
-6.35759999999995
 70
     32
  0
VERTEX
  8
MY3DLAYER
10
6.77174999990481
20
8.43974092585198
30
-6.35759999999995
 70
     32
  0
VERTEX
  8
MY3DLAYER
10
6.76139466084548
20
8.44768685698187
30
-6.35759999999995
 70
     32
  0
VERTEX
  8
MY3DLAYER
10
6.75344872971559
20
8.4580421960412
30
-6.35759999999995
 70
     32
  0
VERTEX
  8
MY3DLAYER
10
6.74845370859036
20
8.47010124378607
30
-6.35759999999995
 70
     32
  0
VERTEX
  8
MY3DLAYER
10
6.74674999990481
20
8.4830421960412
30
-6.35759999999995
 70
     32
  0
VERTEX
  8
MY3DLAYER
10
6.74845370859036
20
8.49598314829632
30
-6.35759999999995
 70
     32
  0
VERTEX
  8
MY3DLAYER
10
6.75344872971559
20
8.5080421960412
30
-6.35759999999995
 70
     32
  0
VERTEX
  8
MY3DLAYER
10
6.76139466084548
20
8.51839753510053
30
-6.35759999999995
 70
     32
  0
VERTEX
  8
MY3DLAYER
10
6.77174999990481
20
8.52634346623041
30
-6.35759999999995
 70
     32
  0
VERTEX
  8
MY3DLAYER
10
6.78380904764968
20
8.53133848735565
30
-6.35759999999995
 70
     32
  0
VERTEX
  8
MY3DLAYER
10
6.79674999990481
20
8.53304219604119
30
-6.35759999999995
 70
     32
  0
VERTEX
  8
MY3DLAYER
10
6.80969095215993
20
8.53133848735565
30
-6.35759999999995
 70
     32
  0
VERTEX
  8
MY3DLAYER
10
6.82174999990481
20
8.52634346623042
30
-6.35759999999995
 70
     32
  0
VERTEX
  8
MY3DLAYER
10
6.83210533896413
20
8.51839753510053
30
-6.35759999999995
 70
     32
  0
VERTEX
  8
MY3DLAYER
10
6.84005127009403
20
8.5080421960412
30
-6.35759999999995
 70
     32
  0
VERTEX
  8
MY3DLAYER
10
7.34761524217546
20
8.80108439195338
30
-6.35759999999994
 70
     32
  0
VERTEX
  8
MY3DLAYER
10
7.34262022105023
20
8.81314343969825
30
-6.35759999999994
 70
     32
  0
VERTEX
  8
MY3DLAYER
10
7.34091651236468
20
8.82608439195338
30
-6.35759999999994
 70
     32
  0
VERTEX
  8
MY3DLAYER
10
7.34262022105023
20
8.83902534420851
30
-6.35759999999994
 70
     32
  0
VERTEX
  8
MY3DLAYER
10
7.34761524217546
20
8.85108439195338
30
-6.35759999999994
 70
     32
  0
VERTEX
  8
MY3DLAYER
10
7.35556117330536
20
8.8614397310127
30
-6.35759999999994
 70
     32
  0
VERTEX
  8
MY3DLAYER
10
7.36591651236468
20
8.8693856621426
30
-6.35759999999994
 70
     32
  0
VERTEX
  8
MY3DLAYER
10
7.37797556010956
20
8.87438068326783
30
-6.35759999999994
 70
     32
  0
VERTEX
  8
MY3DLAYER
10
7.39091651236468
20
8.87608439195338
30
-6.35759999999994
 70
     32
  0
VERTEX
  8
MY3DLAYER
10
7.40385746461981
20
8.87438068326783
30
-6.35759999999994
 70
     32
  0
VERTEX
  8
MY3DLAYER
10
7.41591651236468
20
8.8693856621426
30
-6.35759999999994
 70
     32
  0
VERTEX
  8
MY3DLAYER
10
7.42627185142401
20
8.8614397310127
30
-6.35759999999994
 70
     32
  0
VERTEX
  8
MY3DLAYER
10
7.4342177825539
20
8.85108439195338
30
-6.35759999999994
 70
     32
  0
VERTEX
  8
MY3DLAYER
10
7.43921280367913
20
8.83902534420851
30
-6.35759999999994
 70
     32
  0
VERTEX
  8
MY3DLAYER
10
7.44091651236468
20
8.82608439195338
30
-6.35759999999994
 70
     32
  0
VERTEX
  8
MY3DLAYER
10
7.43921280367913
20
8.81314343969825
30
-6.35759999999994
 70
     32
  0
VERTEX
  8
MY3DLAYER
10
7.4342177825539
20
8.80108439195338
30
-6.35759999999994
 70
     32
  0
VERTEX
  8
MY3DLAYER
10
7.94178175463536
20
8.50804219604121
30
-6.35759999999993
 70
     32
  0
VERTEX
  8
MY3DLAYER
10
7.94972768576525
20
8.51839753510054
30
-6.35759999999993
 70
     32
  0
VERTEX
  8
MY3DLAYER
10
7.96008302482458
20
8.52634346623043
30
-6.35759999999993
 70
     32
  0
VERTEX
  8
MY3DLAYER
10
7.97214207256945
20
8.53133848735566
30
-6.35759999999993
 70
     32
  0
VERTEX
  8
MY3DLAYER
10
7.98508302482458
20
8.53304219604121
30
-6.35759999999993
 70
     32
  0
VERTEX
  8
MY3DLAYER
10
7.99802397707971
20
8.53133848735566
30
-6.35759999999993
 70
     32
  0
VERTEX
  8
MY3DLAYER
10
8.01008302482458
20
8.52634346623043
30
-6.35759999999993
 70
     32
  0
VERTEX
  8
MY3DLAYER
10
8.0204383638839
20
8.51839753510054
30
-6.35759999999993
 70
     32
  0
VERTEX
  8
MY3DLAYER
10
8.0283842950138
20
8.50804219604121
30
-6.35759999999993
 70
     32
  0
VERTEX
  8
MY3DLAYER
10
8.03337931613903
20
8.49598314829633
30
-6.35759999999993
 70
     32
  0
VERTEX
  8
MY3DLAYER
10
8.03508302482458
20
8.48304219604121
30
-6.35759999999993
 70
     32
  0
VERTEX
  8
MY3DLAYER
10
8.03337931613903
20
8.47010124378608
30
-6.35759999999993
 70
     32
  0
VERTEX
  8
MY3DLAYER
10
8.0283842950138
20
8.45804219604121
30
-6.35759999999993
 70
     32
  0
VERTEX
  8
MY3DLAYER
10
8.0204383638839
20
8.44768685698188
30
-6.35759999999993
 70
     32
  0
VERTEX
  8
MY3DLAYER
10
8.01008302482458
20
8.43974092585199
30
-6.35759999999993
 70
     32
  0
VERTEX
  8
MY3DLAYER
10
7.9980239770797
20
8.43474590472676
30
-6.35759999999993
 70
     32
  0
SEQEND
  0
POLYLINE
 8
Layer0
 66
     1
70
    8
 10
0.0
 20
 0.0
 30
0.0
  0
VERTEX
  8
MY3DLAYER
10
9.80969095221609
20
5.71974590473585
30
-6.35759999999989
 70
     32
  0
VERTEX
  8
MY3DLAYER
10
9.79674999996096
20
5.7180421960503
30
-6.35759999999989
 70
     32
  0
VERTEX
  8
MY3DLAYER
10
9.79674999996095
20
5.13195780422595
30
-6.35759999999989
 70
     32
  0
VERTEX
  8
MY3DLAYER
10
9.80969095221608
20
5.13025409554041
30
-6.35759999999989
 70
     32
  0
VERTEX
  8
MY3DLAYER
10
9.82174999996095
20
5.12525907441518
30
-6.35759999999989
 70
     32
  0
VERTEX
  8
MY3DLAYER
10
9.83210533902028
20
5.11731314328529
30
-6.35759999999989
 70
     32
  0
VERTEX
  8
MY3DLAYER
10
9.84005127015017
20
5.10695780422596
30
-6.35759999999989
 70
     32
  0
VERTEX
  8
MY3DLAYER
10
9.8450462912754
20
5.09489875648109
30
-6.35759999999989
 70
     32
  0
VERTEX
  8
MY3DLAYER
10
9.84674999996095
20
5.08195780422596
30
-6.35759999999989
 70
     32
  0
VERTEX
  8
MY3DLAYER
10
9.8450462912754
20
5.06901685197084
30
-6.35759999999989
 70
     32
  0
VERTEX
  8
MY3DLAYER
10
9.84005127015017
20
5.05695780422596
30
-6.35759999999989
 70
     32
  0
VERTEX
  8
MY3DLAYER
10
9.83210533902028
20
5.04660246516663
30
-6.35759999999989
 70
     32
  0
VERTEX
  8
MY3DLAYER
10
9.82174999996095
20
5.03865653403674
30
-6.35759999999989
 70
     32
  0
VERTEX
  8
MY3DLAYER
10
9.80969095221608
20
5.03366151291151
30
-6.35759999999989
 70
     32
  0
VERTEX
  8
MY3DLAYER
10
9.79674999996095
20
5.03195780422596
30
-6.35759999999989
 70
     32
  0
VERTEX
  8
MY3DLAYER
10
9.78380904770583
20
5.03366151291151
30
-6.35759999999989
 70
     32
  0
VERTEX
  8
MY3DLAYER
10
9.77174999996095
20
5.03865653403673
30
-6.35759999999989
 70
     32
  0
VERTEX
  8
MY3DLAYER
10
9.76139466090163
20
5.04660246516663
30
-6.35759999999989
 70
     32
  0
VERTEX
  8
MY3DLAYER
10
9.75344872977173
20
5.05695780422596
30
-6.35759999999989
 70
     32
  0
VERTEX
  8
MY3DLAYER
10
9.24588475769028
20
4.76391560831377
30
-6.3575999999999
 70
     32
  0
VERTEX
  8
MY3DLAYER
10
9.25087977881551
20
4.7518565605689
30
-6.3575999999999
 70
     32
  0
VERTEX
  8
MY3DLAYER
10
9.25258348750106
20
4.73891560831377
30
-6.3575999999999
 70
     32
  0
VERTEX
  8
MY3DLAYER
10
9.25087977881551
20
4.72597465605864
30
-6.3575999999999
 70
     32
  0
VERTEX
  8
MY3DLAYER
10
9.24588475769028
20
4.71391560831377
30
-6.3575999999999
 70
     32
  0
VERTEX
  8
MY3DLAYER
10
9.23793882656039
20
4.70356026925444
30
-6.3575999999999
 70
     32
  0
VERTEX
  8
MY3DLAYER
10
9.22758348750106
20
4.69561433812455
30
-6.3575999999999
 70
     32
  0
VERTEX
  8
MY3DLAYER
10
9.21552443975619
20
4.69061931699932
30
-6.3575999999999
 70
     32
  0
VERTEX
  8
MY3DLAYER
10
9.20258348750106
20
4.68891560831377
30
-6.3575999999999
 70
     32
  0
VERTEX
  8
MY3DLAYER
10
9.18964253524594
20
4.69061931699932
30
-6.3575999999999
 70
     32
  0
VERTEX
  8
MY3DLAYER
10
9.17758348750106
20
4.69561433812455
30
-6.3575999999999
 70
     32
  0
VERTEX
  8
MY3DLAYER
10
9.16722814844174
20
4.70356026925444
30
-6.3575999999999
 70
     32
  0
VERTEX
  8
MY3DLAYER
10
9.15928221731184
20
4.71391560831377
30
-6.3575999999999
 70
     32
  0
VERTEX
  8
MY3DLAYER
10
9.15428719618661
20
4.72597465605864
30
-6.3575999999999
 70
     32
  0
VERTEX
  8
MY3DLAYER
10
9.15258348750107
20
4.73891560831377
30
-6.3575999999999
 70
     32
  0
VERTEX
  8
MY3DLAYER
10
9.15428719618661
20
4.7518565605689
30
-6.3575999999999
 70
     32
  0
VERTEX
  8
MY3DLAYER
10
9.15928221731184
20
4.76391560831377
30
-6.3575999999999
 70
     32
  0
VERTEX
  8
MY3DLAYER
10
8.65171824523041
20
5.05695780422595
30
-6.35759999999991
 70
     32
  0
VERTEX
  8
MY3DLAYER
10
8.64377231410052
20
5.04660246516662
30
-6.35759999999991
 70
     32
  0
VERTEX
  8
MY3DLAYER
10
8.63341697504119
20
5.03865653403673
30
-6.35759999999991
 70
     32
  0
VERTEX
  8
MY3DLAYER
10
8.62135792729632
20
5.0336615129115
30
-6.35759999999991
 70
     32
  0
VERTEX
  8
MY3DLAYER
10
8.60841697504119
20
5.03195780422595
30
-6.35759999999991
 70
     32
  0
VERTEX
  8
MY3DLAYER
10
8.59547602278606
20
5.0336615129115
30
-6.35759999999991
 70
     32
  0
VERTEX
  8
MY3DLAYER
10
8.58341697504119
20
5.03865653403673
30
-6.35759999999991
 70
     32
  0
VERTEX
  8
MY3DLAYER
10
8.57306163598186
20
5.04660246516662
30
-6.35759999999991
 70
     32
  0
VERTEX
  8
MY3DLAYER
10
8.56511570485197
20
5.05695780422595
30
-6.35759999999991
 70
     32
  0
VERTEX
  8
MY3DLAYER
10
8.56012068372674
20
5.06901685197083
30
-6.35759999999991
 70
     32
  0
VERTEX
  8
MY3DLAYER
10
8.55841697504119
20
5.08195780422595
30
-6.35759999999992
 70
     32
  0
VERTEX
  8
MY3DLAYER
10
8.56012068372674
20
5.09489875648108
30
-6.35759999999991
 70
     32
  0
VERTEX
  8
MY3DLAYER
10
8.56511570485197
20
5.10695780422595
30
-6.35759999999991
 70
     32
  0
VERTEX
  8
MY3DLAYER
10
8.57306163598187
20
5.11731314328528
30
-6.35759999999991
 70
     32
  0
VERTEX
  8
MY3DLAYER
10
8.58341697504119
20
5.12525907441517
30
-6.35759999999991
 70
     32
  0
VERTEX
  8
MY3DLAYER
10
8.59547602278607
20
5.1302540955404
30
-6.35759999999991
 70
     32
  0
VERTEX
  8
MY3DLAYER
10
8.60841697504119
20
5.13195780422595
30
-6.35759999999991
 70
     32
  0
VERTEX
  8
MY3DLAYER
10
8.60841697504119
20
5.71804219605029
30
-6.35759999999991
 70
     32
  0
VERTEX
  8
MY3DLAYER
10
8.59547602278607
20
5.71974590473584
30
-6.35759999999992
 70
     32
  0
VERTEX
  8
MY3DLAYER
10
8.58341697504119
20
5.72474092586107
30
-6.35759999999992
 70
     32
  0
VERTEX
  8
MY3DLAYER
10
8.57306163598187
20
5.73268685699096
30
-6.35759999999992
 70
     32
  0
VERTEX
  8
MY3DLAYER
10
8.56511570485197
20
5.74304219605029
30
-6.35759999999992
 70
     32
  0
VERTEX
  8
MY3DLAYER
10
8.56012068372674
20
5.75510124379516
30
-6.35759999999992
 70
     32
  0
VERTEX
  8
MY3DLAYER
10
8.55841697504119
20
5.76804219605029
30
-6.35759999999992
 70
     32
  0
VERTEX
  8
MY3DLAYER
10
8.56012068372674
20
5.78098314830541
30
-6.35759999999991
 70
     32
  0
VERTEX
  8
MY3DLAYER
10
8.56511570485197
20
5.79304219605029
30
-6.35759999999991
 70
     32
  0
VERTEX
  8
MY3DLAYER
10
8.57306163598187
20
5.80339753510962
30
-6.35759999999991
 70
     32
  0
VERTEX
  8
MY3DLAYER
10
8.58341697504119
20
5.81134346623951
30
-6.35759999999991
 70
     32
  0
VERTEX
  8
MY3DLAYER
10
8.59547602278607
20
5.81633848736474
30
-6.35759999999991
 70
     32
  0
VERTEX
  8
MY3DLAYER
10
8.60841697504119
20
5.81804219605028
30
-6.35759999999991
 70
     32
  0
VERTEX
  8
MY3DLAYER
10
8.62135792729632
20
5.81633848736474
30
-6.35759999999991
 70
     32
  0
VERTEX
  8
MY3DLAYER
10
8.63341697504119
20
5.81134346623951
30
-6.35759999999991
 70
     32
  0
VERTEX
  8
MY3DLAYER
10
8.64377231410052
20
5.80339753510962
30
-6.35759999999991
 70
     32
  0
VERTEX
  8
MY3DLAYER
10
8.65171824523041
20
5.79304219605029
30
-6.35759999999991
 70
     32
  0
VERTEX
  8
MY3DLAYER
10
9.15928221731184
20
6.08608439196247
30
-6.3575999999999
 70
     32
  0
VERTEX
  8
MY3DLAYER
10
9.15428719618662
20
6.09814343970734
30
-6.3575999999999
 70
     32
  0
VERTEX
  8
MY3DLAYER
10
9.15258348750107
20
6.11108439196247
30
-6.3575999999999
 70
     32
  0
VERTEX
  8
MY3DLAYER
10
9.15428719618662
20
6.1240253442176
30
-6.3575999999999
 70
     32
  0
VERTEX
  8
MY3DLAYER
10
9.15928221731184
20
6.13608439196247
30
-6.3575999999999
 70
     32
  0
VERTEX
  8
MY3DLAYER
10
9.16722814844174
20
6.14643973102179
30
-6.3575999999999
 70
     32
  0
VERTEX
  8
MY3DLAYER
10
9.17758348750107
20
6.15438566215169
30
-6.3575999999999
 70
     32
  0
VERTEX
  8
MY3DLAYER
10
9.18964253524594
20
6.15938068327692
30
-6.3575999999999
 70
     32
  0
VERTEX
  8
MY3DLAYER
10
9.20258348750107
20
6.16108439196247
30
-6.3575999999999
 70
     32
  0
VERTEX
  8
MY3DLAYER
10
9.21552443975619
20
6.15938068327692
30
-6.3575999999999
 70
     32
  0
VERTEX
  8
MY3DLAYER
10
9.22758348750106
20
6.15438566215169
30
-6.3575999999999
 70
     32
  0
VERTEX
  8
MY3DLAYER
10
9.23793882656039
20
6.14643973102179
30
-6.3575999999999
 70
     32
  0
VERTEX
  8
MY3DLAYER
10
9.24588475769028
20
6.13608439196247
30
-6.3575999999999
 70
     32
  0
VERTEX
  8
MY3DLAYER
10
9.25087977881552
20
6.1240253442176
30
-6.3575999999999
 70
     32
  0
VERTEX
  8
MY3DLAYER
10
9.25258348750106
20
6.11108439196247
30
-6.3575999999999
 70
     32
  0
VERTEX
  8
MY3DLAYER
10
9.25087977881552
20
6.09814343970734
30
-6.3575999999999
 70
     32
  0
VERTEX
  8
MY3DLAYER
10
9.24588475769028
20
6.08608439196247
30
-6.3575999999999
 70
     32
  0
VERTEX
  8
MY3DLAYER
10
9.75344872977174
20
5.7930421960503
30
-6.35759999999989
 70
     32
  0
VERTEX
  8
MY3DLAYER
10
9.76139466090164
20
5.80339753510963
30
-6.35759999999989
 70
     32
  0
VERTEX
  8
MY3DLAYER
10
9.77174999996096
20
5.81134346623952
30
-6.35759999999989
 70
     32
  0
VERTEX
  8
MY3DLAYER
10
9.78380904770584
20
5.81633848736475
30
-6.35759999999989
 70
     32
  0
VERTEX
  8
MY3DLAYER
10
9.79674999996096
20
5.8180421960503
30
-6.35759999999989
 70
     32
  0
VERTEX
  8
MY3DLAYER
10
9.80969095221609
20
5.81633848736475
30
-6.35759999999989
 70
     32
  0
VERTEX
  8
MY3DLAYER
10
9.82174999996096
20
5.81134346623952
30
-6.35759999999989
 70
     32
  0
VERTEX
  8
MY3DLAYER
10
9.83210533902029
20
5.80339753510963
30
-6.35759999999989
 70
     32
  0
VERTEX
  8
MY3DLAYER
10
9.84005127015018
20
5.7930421960503
30
-6.35759999999989
 70
     32
  0
VERTEX
  8
MY3DLAYER
10
9.84504629127541
20
5.78098314830542
30
-6.35759999999989
 70
     32
  0
VERTEX
  8
MY3DLAYER
10
9.84674999996096
20
5.7680421960503
30
-6.35759999999989
 70
     32
  0
VERTEX
  8
MY3DLAYER
10
9.84504629127541
20
5.75510124379517
30
-6.35759999999989
 70
     32
  0
VERTEX
  8
MY3DLAYER
10
9.84005127015018
20
5.7430421960503
30
-6.35759999999989
 70
     32
  0
VERTEX
  8
MY3DLAYER
10
9.83210533902029
20
5.73268685699097
30
-6.35759999999989
 70
     32
  0
VERTEX
  8
MY3DLAYER
10
9.82174999996096
20
5.72474092586108
30
-6.35759999999989
 70
     32
  0
VERTEX
  8
MY3DLAYER
10
9.80969095221609
20
5.71974590473585
30
-6.35759999999989
 70
     32
  0
SEQEND
  0
POLYLINE
 8
Layer0
 66
     1
70
    8
 10
0.0
 20
 0.0
 30
0.0
  0
VERTEX
  8
MY3DLAYER
10
7.99802397707584
20
5.71974590473585
30
-6.35759999999992
 70
     32
  0
VERTEX
  8
MY3DLAYER
10
7.98508302482071
20
5.7180421960503
30
-6.35759999999992
 70
     32
  0
VERTEX
  8
MY3DLAYER
10
7.9850830248207
20
5.13195780422595
30
-6.35759999999992
 70
     32
  0
VERTEX
  8
MY3DLAYER
10
7.99802397707583
20
5.13025409554041
30
-6.35759999999992
 70
     32
  0
VERTEX
  8
MY3DLAYER
10
8.0100830248207
20
5.12525907441518
30
-6.35759999999992
 70
     32
  0
VERTEX
  8
MY3DLAYER
10
8.02043836388003
20
5.11731314328529
30
-6.35759999999992
 70
     32
  0
VERTEX
  8
MY3DLAYER
10
8.02838429500992
20
5.10695780422596
30
-6.35759999999992
 70
     32
  0
VERTEX
  8
MY3DLAYER
10
8.03337931613515
20
5.09489875648109
30
-6.35759999999992
 70
     32
  0
VERTEX
  8
MY3DLAYER
10
8.0350830248207
20
5.08195780422596
30
-6.35759999999992
 70
     32
  0
VERTEX
  8
MY3DLAYER
10
8.03337931613515
20
5.06901685197084
30
-6.35759999999992
 70
     32
  0
VERTEX
  8
MY3DLAYER
10
8.02838429500992
20
5.05695780422596
30
-6.35759999999992
 70
     32
  0
VERTEX
  8
MY3DLAYER
10
8.02043836388003
20
5.04660246516663
30
-6.35759999999992
 70
     32
  0
VERTEX
  8
MY3DLAYER
10
8.0100830248207
20
5.03865653403674
30
-6.35759999999992
 70
     32
  0
VERTEX
  8
MY3DLAYER
10
7.99802397707583
20
5.03366151291151
30
-6.35759999999992
 70
     32
  0
VERTEX
  8
MY3DLAYER
10
7.9850830248207
20
5.03195780422596
30
-6.35759999999992
 70
     32
  0
VERTEX
  8
MY3DLAYER
10
7.97214207256558
20
5.03366151291151
30
-6.35759999999993
 70
     32
  0
VERTEX
  8
MY3DLAYER
10
7.9600830248207
20
5.03865653403673
30
-6.35759999999993
 70
     32
  0
VERTEX
  8
MY3DLAYER
10
7.94972768576138
20
5.04660246516663
30
-6.35759999999993
 70
     32
  0
VERTEX
  8
MY3DLAYER
10
7.94178175463148
20
5.05695780422596
30
-6.35759999999993
 70
     32
  0
VERTEX
  8
MY3DLAYER
10
7.43421778255003
20
4.76391560831377
30
-6.35759999999993
 70
     32
  0
VERTEX
  8
MY3DLAYER
10
7.43921280367526
20
4.7518565605689
30
-6.35759999999993
 70
     32
  0
VERTEX
  8
MY3DLAYER
10
7.44091651236081
20
4.73891560831377
30
-6.35759999999993
 70
     32
  0
VERTEX
  8
MY3DLAYER
10
7.43921280367526
20
4.72597465605864
30
-6.35759999999993
 70
     32
  0
VERTEX
  8
MY3DLAYER
10
7.43421778255003
20
4.71391560831377
30
-6.35759999999993
 70
     32
  0
VERTEX
  8
MY3DLAYER
10
7.42627185142014
20
4.70356026925444
30
-6.35759999999993
 70
     32
  0
VERTEX
  8
MY3DLAYER
10
7.41591651236081
20
4.69561433812455
30
-6.35759999999994
 70
     32
  0
VERTEX
  8
MY3DLAYER
10
7.40385746461594
20
4.69061931699932
30
-6.35759999999994
 70
     32
  0
VERTEX
  8
MY3DLAYER
10
7.39091651236081
20
4.68891560831377
30
-6.35759999999994
 70
     32
  0
VERTEX
  8
MY3DLAYER
10
7.37797556010569
20
4.69061931699932
30
-6.35759999999994
 70
     32
  0
VERTEX
  8
MY3DLAYER
10
7.36591651236081
20
4.69561433812455
30
-6.35759999999994
 70
     32
  0
VERTEX
  8
MY3DLAYER
10
7.35556117330149
20
4.70356026925444
30
-6.35759999999994
 70
     32
  0
VERTEX
  8
MY3DLAYER
10
7.34761524217159
20
4.71391560831377
30
-6.35759999999994
 70
     32
  0
VERTEX
  8
MY3DLAYER
10
7.34262022104636
20
4.72597465605864
30
-6.35759999999994
 70
     32
  0
VERTEX
  8
MY3DLAYER
10
7.34091651236082
20
4.73891560831377
30
-6.35759999999994
 70
     32
  0
VERTEX
  8
MY3DLAYER
10
7.34262022104636
20
4.7518565605689
30
-6.35759999999994
 70
     32
  0
VERTEX
  8
MY3DLAYER
10
7.34761524217159
20
4.76391560831377
30
-6.35759999999994
 70
     32
  0
VERTEX
  8
MY3DLAYER
10
6.84005127009016
20
5.05695780422595
30
-6.35759999999995
 70
     32
  0
VERTEX
  8
MY3DLAYER
10
6.83210533896027
20
5.04660246516662
30
-6.35759999999995
 70
     32
  0
VERTEX
  8
MY3DLAYER
10
6.82174999990094
20
5.03865653403673
30
-6.35759999999995
 70
     32
  0
VERTEX
  8
MY3DLAYER
10
6.80969095215606
20
5.0336615129115
30
-6.35759999999995
 70
     32
  0
VERTEX
  8
MY3DLAYER
10
6.79674999990094
20
5.03195780422595
30
-6.35759999999995
 70
     32
  0
VERTEX
  8
MY3DLAYER
10
6.78380904764581
20
5.0336615129115
30
-6.35759999999995
 70
     32
  0
VERTEX
  8
MY3DLAYER
10
6.77174999990094
20
5.03865653403673
30
-6.35759999999995
 70
     32
  0
VERTEX
  8
MY3DLAYER
10
6.76139466084161
20
5.04660246516662
30
-6.35759999999995
 70
     32
  0
VERTEX
  8
MY3DLAYER
10
6.75344872971172
20
5.05695780422595
30
-6.35759999999995
 70
     32
  0
VERTEX
  8
MY3DLAYER
10
6.74845370858649
20
5.06901685197083
30
-6.35759999999995
 70
     32
  0
VERTEX
  8
MY3DLAYER
10
6.74674999990094
20
5.08195780422595
30
-6.35759999999995
 70
     32
  0
VERTEX
  8
MY3DLAYER
10
6.74845370858649
20
5.09489875648108
30
-6.35759999999995
 70
     32
  0
VERTEX
  8
MY3DLAYER
10
6.75344872971172
20
5.10695780422595
30
-6.35759999999995
 70
     32
  0
VERTEX
  8
MY3DLAYER
10
6.76139466084161
20
5.11731314328528
30
-6.35759999999995
 70
     32
  0
VERTEX
  8
MY3DLAYER
10
6.77174999990094
20
5.12525907441517
30
-6.35759999999995
 70
     32
  0
VERTEX
  8
MY3DLAYER
10
6.78380904764582
20
5.1302540955404
30
-6.35759999999995
 70
     32
  0
VERTEX
  8
MY3DLAYER
10
6.79674999990094
20
5.13195780422595
30
-6.35759999999995
 70
     32
  0
VERTEX
  8
MY3DLAYER
10
6.79674999990094
20
5.71804219605029
30
-6.35759999999995
 70
     32
  0
VERTEX
  8
MY3DLAYER
10
6.78380904764582
20
5.71974590473584
30
-6.35759999999995
 70
     32
  0
VERTEX
  8
MY3DLAYER
10
6.77174999990094
20
5.72474092586107
30
-6.35759999999995
 70
     32
  0
VERTEX
  8
MY3DLAYER
10
6.76139466084162
20
5.73268685699096
30
-6.35759999999995
 70
     32
  0
VERTEX
  8
MY3DLAYER
10
6.75344872971172
20
5.74304219605029
30
-6.35759999999995
 70
     32
  0
VERTEX
  8
MY3DLAYER
10
6.74845370858649
20
5.75510124379516
30
-6.35759999999995
 70
     32
  0
VERTEX
  8
MY3DLAYER
10
6.74674999990094
20
5.76804219605029
30
-6.35759999999995
 70
     32
  0
VERTEX
  8
MY3DLAYER
10
6.74845370858649
20
5.78098314830541
30
-6.35759999999995
 70
     32
  0
VERTEX
  8
MY3DLAYER
10
6.75344872971172
20
5.79304219605029
30
-6.35759999999995
 70
     32
  0
VERTEX
  8
MY3DLAYER
10
6.76139466084161
20
5.80339753510962
30
-6.35759999999995
 70
     32
  0
VERTEX
  8
MY3DLAYER
10
6.77174999990094
20
5.81134346623951
30
-6.35759999999995
 70
     32
  0
VERTEX
  8
MY3DLAYER
10
6.78380904764582
20
5.81633848736474
30
-6.35759999999995
 70
     32
  0
VERTEX
  8
MY3DLAYER
10
6.79674999990094
20
5.81804219605028
30
-6.35759999999995
 70
     32
  0
VERTEX
  8
MY3DLAYER
10
6.80969095215607
20
5.81633848736474
30
-6.35759999999995
 70
     32
  0
VERTEX
  8
MY3DLAYER
10
6.82174999990094
20
5.81134346623951
30
-6.35759999999995
 70
     32
  0
VERTEX
  8
MY3DLAYER
10
6.83210533896027
20
5.80339753510962
30
-6.35759999999995
 70
     32
  0
VERTEX
  8
MY3DLAYER
10
6.84005127009016
20
5.79304219605029
30
-6.35759999999995
 70
     32
  0
VERTEX
  8
MY3DLAYER
10
7.3476152421716
20
6.08608439196247
30
-6.35759999999994
 70
     32
  0
VERTEX
  8
MY3DLAYER
10
7.34262022104636
20
6.09814343970734
30
-6.35759999999994
 70
     32
  0
VERTEX
  8
MY3DLAYER
10
7.34091651236082
20
6.11108439196247
30
-6.35759999999994
 70
     32
  0
VERTEX
  8
MY3DLAYER
10
7.34262022104636
20
6.1240253442176
30
-6.35759999999994
 70
     32
  0
VERTEX
  8
MY3DLAYER
10
7.3476152421716
20
6.13608439196247
30
-6.35759999999994
 70
     32
  0
VERTEX
  8
MY3DLAYER
10
7.35556117330149
20
6.14643973102179
30
-6.35759999999994
 70
     32
  0
VERTEX
  8
MY3DLAYER
10
7.36591651236082
20
6.15438566215169
30
-6.35759999999994
 70
     32
  0
VERTEX
  8
MY3DLAYER
10
7.37797556010569
20
6.15938068327692
30
-6.35759999999994
 70
     32
  0
VERTEX
  8
MY3DLAYER
10
7.39091651236081
20
6.16108439196247
30
-6.35759999999994
 70
     32
  0
VERTEX
  8
MY3DLAYER
10
7.40385746461594
20
6.15938068327692
30
-6.35759999999994
 70
     32
  0
VERTEX
  8
MY3DLAYER
10
7.41591651236081
20
6.15438566215169
30
-6.35759999999994
 70
     32
  0
VERTEX
  8
MY3DLAYER
10
7.42627185142014
20
6.14643973102179
30
-6.35759999999993
 70
     32
  0
VERTEX
  8
MY3DLAYER
10
7.43421778255003
20
6.13608439196247
30
-6.35759999999993
 70
     32
  0
VERTEX
  8
MY3DLAYER
10
7.43921280367527
20
6.1240253442176
30
-6.35759999999993
 70
     32
  0
VERTEX
  8
MY3DLAYER
10
7.44091651236081
20
6.11108439196247
30
-6.35759999999993
 70
     32
  0
VERTEX
  8
MY3DLAYER
10
7.43921280367527
20
6.09814343970734
30
-6.35759999999993
 70
     32
  0
VERTEX
  8
MY3DLAYER
10
7.43421778255003
20
6.08608439196247
30
-6.35759999999993
 70
     32
  0
VERTEX
  8
MY3DLAYER
10
7.94178175463149
20
5.7930421960503
30
-6.35759999999993
 70
     32
  0
VERTEX
  8
MY3DLAYER
10
7.94972768576139
20
5.80339753510963
30
-6.35759999999993
 70
     32
  0
VERTEX
  8
MY3DLAYER
10
7.96008302482071
20
5.81134346623952
30
-6.35759999999993
 70
     32
  0
VERTEX
  8
MY3DLAYER
10
7.97214207256559
20
5.81633848736475
30
-6.35759999999992
 70
     32
  0
VERTEX
  8
MY3DLAYER
10
7.98508302482071
20
5.8180421960503
30
-6.35759999999992
 70
     32
  0
VERTEX
  8
MY3DLAYER
10
7.99802397707584
20
5.81633848736475
30
-6.35759999999992
 70
     32
  0
VERTEX
  8
MY3DLAYER
10
8.01008302482071
20
5.81134346623952
30
-6.35759999999992
 70
     32
  0
VERTEX
  8
MY3DLAYER
10
8.02043836388004
20
5.80339753510963
30
-6.35759999999992
 70
     32
  0
VERTEX
  8
MY3DLAYER
10
8.02838429500993
20
5.7930421960503
30
-6.35759999999992
 70
     32
  0
VERTEX
  8
MY3DLAYER
10
8.03337931613516
20
5.78098314830542
30
-6.35759999999992
 70
     32
  0
VERTEX
  8
MY3DLAYER
10
8.03508302482071
20
5.7680421960503
30
-6.35759999999992
 70
     32
  0
VERTEX
  8
MY3DLAYER
10
8.03337931613516
20
5.75510124379517
30
-6.35759999999992
 70
     32
  0
VERTEX
  8
MY3DLAYER
10
8.02838429500993
20
5.7430421960503
30
-6.35759999999992
 70
     32
  0
VERTEX
  8
MY3DLAYER
10
8.02043836388004
20
5.73268685699097
30
-6.35759999999992
 70
     32
  0
VERTEX
  8
MY3DLAYER
10
8.01008302482071
20
5.72474092586108
30
-6.35759999999992
 70
     32
  0
VERTEX
  8
MY3DLAYER
10
7.99802397707584
20
5.71974590473585
30
-6.35759999999992
 70
     32
  0
SEQEND
  0
POLYLINE
 8
Layer0
 66
     1
70
    8
 10
0.0
 20
 0.0
 30
0.0
  0
VERTEX
  8
MY3DLAYER
10
8.42615952255126
20
41.7329629131639
30
-6.35759999999996
 70
     32
  0
VERTEX
  8
MY3DLAYER
10
8.54675
20
41.6830127019116
30
-6.35759999999996
 70
     32
  0
VERTEX
  8
MY3DLAYER
10
8.65030339059328
20
41.6035533906126
30
-6.35759999999996
 70
     32
  0
VERTEX
  8
MY3DLAYER
10
8.72976270189222
20
41.5000000000193
30
-6.35759999999996
 70
     32
  0
VERTEX
  8
MY3DLAYER
10
8.77971291314454
20
41.3794095225706
30
-6.35759999999996
 70
     32
  0
VERTEX
  8
MY3DLAYER
10
8.79675
20
41.2500000000193
30
-6.35759999999996
 70
     32
  0
VERTEX
  8
MY3DLAYER
10
8.79675
20
40.7500000000193
30
-6.35759999999996
 70
     32
  0
VERTEX
  8
MY3DLAYER
10
8.77971291314454
20
40.6205904774681
30
-6.35759999999996
 70
     32
  0
VERTEX
  8
MY3DLAYER
10
8.72976270189222
20
40.5000000000193
30
-6.35759999999996
 70
     32
  0
VERTEX
  8
MY3DLAYER
10
8.65030339059328
20
40.3964466094261
30
-6.35759999999996
 70
     32
  0
VERTEX
  8
MY3DLAYER
10
8.54675
20
40.3169872981271
30
-6.35759999999996
 70
     32
  0
VERTEX
  8
MY3DLAYER
10
8.42615952255126
20
40.2670370868748
30
-6.35759999999996
 70
     32
  0
VERTEX
  8
MY3DLAYER
10
8.29675
20
40.2500000000193
30
-6.35759999999997
 70
     32
  0
VERTEX
  8
MY3DLAYER
10
8.16734047744874
20
40.2670370868748
30
-6.35759999999997
 70
     32
  0
VERTEX
  8
MY3DLAYER
10
8.04675
20
40.3169872981271
30
-6.35759999999997
 70
     32
  0
VERTEX
  8
MY3DLAYER
10
7.94319660940673
20
40.3964466094261
30
-6.35759999999998
 70
     32
  0
VERTEX
  8
MY3DLAYER
10
7.86373729810778
20
40.5000000000193
30
-6.35759999999997
 70
     32
  0
VERTEX
  8
MY3DLAYER
10
7.81378708685547
20
40.6205904774681
30
-6.35759999999998
 70
     32
  0
VERTEX
  8
MY3DLAYER
10
7.79675
20
40.7500000000193
30
-6.35759999999998
 70
     32
  0
VERTEX
  8
MY3DLAYER
10
7.79675
20
41.2500000000193
30
-6.35759999999998
 70
     32
  0
VERTEX
  8
MY3DLAYER
10
7.81378708685547
20
41.3794095225706
30
-6.35759999999998
 70
     32
  0
VERTEX
  8
MY3DLAYER
10
7.86373729810778
20
41.5000000000193
30
-6.35759999999998
 70
     32
  0
VERTEX
  8
MY3DLAYER
10
7.94319660940673
20
41.6035533906126
30
-6.35759999999998
 70
     32
  0
VERTEX
  8
MY3DLAYER
10
8.04675
20
41.6830127019116
30
-6.35759999999997
 70
     32
  0
VERTEX
  8
MY3DLAYER
10
8.16734047744874
20
41.7329629131639
30
-6.35759999999997
 70
     32
  0
VERTEX
  8
MY3DLAYER
10
8.29675
20
41.7500000000193
30
-6.35759999999997
 70
     32
  0
VERTEX
  8
MY3DLAYER
10
8.42615952255126
20
41.7329629131639
30
-6.35759999999996
 70
     32
  0
SEQEND
  0
POLYLINE
 8
Layer0
 66
     1
70
    8
 10
0.0
 20
 0.0
 30
0.0
  0
VERTEX
  8
MY3DLAYER
10
7.94319660940673
20
37.6035533906126
30
-6.35759999999997
 70
     32
  0
VERTEX
  8
MY3DLAYER
10
8.04675
20
37.6830127019116
30
-6.35759999999997
 70
     32
  0
VERTEX
  8
MY3DLAYER
10
8.16734047744874
20
37.7329629131639
30
-6.35759999999997
 70
     32
  0
VERTEX
  8
MY3DLAYER
10
8.29675
20
37.7500000000193
30
-6.35759999999997
 70
     32
  0
VERTEX
  8
MY3DLAYER
10
8.42615952255126
20
37.7329629131639
30
-6.35759999999996
 70
     32
  0
VERTEX
  8
MY3DLAYER
10
8.54675
20
37.6830127019116
30
-6.35759999999996
 70
     32
  0
VERTEX
  8
MY3DLAYER
10
8.65030339059328
20
37.6035533906126
30
-6.35759999999996
 70
     32
  0
VERTEX
  8
MY3DLAYER
10
8.72976270189222
20
37.5000000000193
30
-6.35759999999996
 70
     32
  0
VERTEX
  8
MY3DLAYER
10
8.77971291314454
20
37.3794095225706
30
-6.35759999999996
 70
     32
  0
VERTEX
  8
MY3DLAYER
10
8.79675
20
37.2500000000193
30
-6.35759999999996
 70
     32
  0
VERTEX
  8
MY3DLAYER
10
8.79675
20
36.7500000000193
30
-6.35759999999996
 70
     32
  0
VERTEX
  8
MY3DLAYER
10
8.77971291314454
20
36.6205904774681
30
-6.35759999999996
 70
     32
  0
VERTEX
  8
MY3DLAYER
10
8.72976270189222
20
36.5000000000193
30
-6.35759999999996
 70
     32
  0
VERTEX
  8
MY3DLAYER
10
8.65030339059328
20
36.3964466094261
30
-6.35759999999996
 70
     32
  0
VERTEX
  8
MY3DLAYER
10
8.54675
20
36.3169872981271
30
-6.35759999999996
 70
     32
  0
VERTEX
  8
MY3DLAYER
10
8.42615952255127
20
36.2670370868748
30
-6.35759999999996
 70
     32
  0
VERTEX
  8
MY3DLAYER
10
8.29675
20
36.2500000000193
30
-6.35759999999997
 70
     32
  0
VERTEX
  8
MY3DLAYER
10
8.16734047744874
20
36.2670370868748
30
-6.35759999999997
 70
     32
  0
VERTEX
  8
MY3DLAYER
10
8.04675
20
36.3169872981271
30
-6.35759999999997
 70
     32
  0
VERTEX
  8
MY3DLAYER
10
7.94319660940673
20
36.3964466094261
30
-6.35759999999997
 70
     32
  0
VERTEX
  8
MY3DLAYER
10
7.86373729810779
20
36.5000000000193
30
-6.35759999999997
 70
     32
  0
VERTEX
  8
MY3DLAYER
10
7.81378708685547
20
36.6205904774681
30
-6.35759999999998
 70
     32
  0
VERTEX
  8
MY3DLAYER
10
7.79675
20
36.7500000000193
30
-6.35759999999998
 70
     32
  0
VERTEX
  8
MY3DLAYER
10
7.79675
20
37.2500000000193
30
-6.35759999999997
 70
     32
  0
VERTEX
  8
MY3DLAYER
10
7.81378708685547
20
37.3794095225706
30
-6.35759999999998
 70
     32
  0
VERTEX
  8
MY3DLAYER
10
7.86373729810779
20
37.5000000000193
30
-6.35759999999998
 70
     32
  0
VERTEX
  8
MY3DLAYER
10
7.94319660940673
20
37.6035533906126
30
-6.35759999999997
 70
     32
  0
SEQEND
  0
POLYLINE
 8
Layer0
 66
     1
70
    8
 10
0.0
 20
 0.0
 30
0.0
  0
VERTEX
  8
MY3DLAYER
10
7.86373729810777
20
0.500000000019355
30
-6.35759999999997
 70
     32
  0
VERTEX
  8
MY3DLAYER
10
7.81378708685546
20
0.620590477468092
30
-6.35759999999997
 70
     32
  0
VERTEX
  8
MY3DLAYER
10
7.79674999999999
20
0.750000000019355
30
-6.35759999999997
 70
     32
  0
VERTEX
  8
MY3DLAYER
10
7.79674999999999
20
1.25000000001936
30
-6.35759999999997
 70
     32
  0
VERTEX
  8
MY3DLAYER
10
7.81378708685546
20
1.37940952257062
30
-6.35759999999997
 70
     32
  0
VERTEX
  8
MY3DLAYER
10
7.86373729810777
20
1.50000000001936
30
-6.35759999999997
 70
     32
  0
VERTEX
  8
MY3DLAYER
10
7.94319660940672
20
1.60355339061263
30
-6.35759999999997
 70
     32
  0
VERTEX
  8
MY3DLAYER
10
8.04674999999999
20
1.68301270191157
30
-6.35759999999997
 70
     32
  0
VERTEX
  8
MY3DLAYER
10
8.16734047744873
20
1.73296291316389
30
-6.35759999999996
 70
     32
  0
VERTEX
  8
MY3DLAYER
10
8.29674999999999
20
1.75000000001936
30
-6.35759999999996
 70
     32
  0
VERTEX
  8
MY3DLAYER
10
8.42615952255125
20
1.73296291316389
30
-6.35759999999995
 70
     32
  0
VERTEX
  8
MY3DLAYER
10
8.54674999999999
20
1.68301270191157
30
-6.35759999999995
 70
     32
  0
VERTEX
  8
MY3DLAYER
10
8.65030339059327
20
1.60355339061263
30
-6.35759999999995
 70
     32
  0
VERTEX
  8
MY3DLAYER
10
8.72976270189221
20
1.50000000001936
30
-6.35759999999995
 70
     32
  0
VERTEX
  8
MY3DLAYER
10
8.77971291314453
20
1.37940952257062
30
-6.35759999999995
 70
     32
  0
VERTEX
  8
MY3DLAYER
10
8.79674999999999
20
1.25000000001936
30
-6.35759999999995
 70
     32
  0
VERTEX
  8
MY3DLAYER
10
8.79674999999999
20
0.750000000019355
30
-6.35759999999995
 70
     32
  0
VERTEX
  8
MY3DLAYER
10
8.77971291314453
20
0.620590477468092
30
-6.35759999999995
 70
     32
  0
VERTEX
  8
MY3DLAYER
10
8.72976270189221
20
0.500000000019355
30
-6.35759999999995
 70
     32
  0
VERTEX
  8
MY3DLAYER
10
8.65030339059327
20
0.396446609426079
30
-6.35759999999995
 70
     32
  0
VERTEX
  8
MY3DLAYER
10
8.54674999999999
20
0.316987298127138
30
-6.35759999999995
 70
     32
  0
VERTEX
  8
MY3DLAYER
10
8.42615952255125
20
0.267037086874822
30
-6.35759999999995
 70
     32
  0
VERTEX
  8
MY3DLAYER
10
8.29674999999999
20
0.250000000019355
30
-6.35759999999996
 70
     32
  0
VERTEX
  8
MY3DLAYER
10
8.16734047744873
20
0.267037086874822
30
-6.35759999999996
 70
     32
  0
VERTEX
  8
MY3DLAYER
10
8.04674999999999
20
0.316987298127138
30
-6.35759999999997
 70
     32
  0
VERTEX
  8
MY3DLAYER
10
7.94319660940672
20
0.396446609426079
30
-6.35759999999997
 70
     32
  0
VERTEX
  8
MY3DLAYER
10
7.86373729810777
20
0.500000000019355
30
-6.35759999999997
 70
     32
  0
SEQEND
  0
POLYLINE
 8
Layer0
 66
     1
70
    8
 10
0.0
 20
 0.0
 30
0.0
  0
VERTEX
  8
MY3DLAYER
10
8.65030339059327
20
-2.39644660938737
30
-6.35759999999995
 70
     32
  0
VERTEX
  8
MY3DLAYER
10
8.72976270189221
20
-2.49999999998064
30
-6.35759999999995
 70
     32
  0
VERTEX
  8
MY3DLAYER
10
8.77971291314453
20
-2.62059047742938
30
-6.35759999999995
 70
     32
  0
VERTEX
  8
MY3DLAYER
10
8.79674999999999
20
-2.74999999998064
30
-6.35759999999995
 70
     32
  0
VERTEX
  8
MY3DLAYER
10
8.79674999999999
20
-3.24999999998064
30
-6.35759999999995
 70
     32
  0
VERTEX
  8
MY3DLAYER
10
8.77971291314453
20
-3.37940952253191
30
-6.35759999999995
 70
     32
  0
VERTEX
  8
MY3DLAYER
10
8.72976270189221
20
-3.49999999998064
30
-6.35759999999995
 70
     32
  0
VERTEX
  8
MY3DLAYER
10
8.65030339059327
20
-3.60355339057392
30
-6.35759999999995
 70
     32
  0
VERTEX
  8
MY3DLAYER
10
8.54674999999999
20
-3.68301270187286
30
-6.35759999999995
 70
     32
  0
VERTEX
  8
MY3DLAYER
10
8.42615952255126
20
-3.73296291312518
30
-6.35759999999995
 70
     32
  0
VERTEX
  8
MY3DLAYER
10
8.29674999999999
20
-3.74999999998064
30
-6.35759999999996
 70
     32
  0
VERTEX
  8
MY3DLAYER
10
8.16734047744873
20
-3.73296291312518
30
-6.35759999999996
 70
     32
  0
VERTEX
  8
MY3DLAYER
10
8.04674999999999
20
-3.68301270187286
30
-6.35759999999996
 70
     32
  0
VERTEX
  8
MY3DLAYER
10
7.94319660940672
20
-3.60355339057392
30
-6.35759999999997
 70
     32
  0
VERTEX
  8
MY3DLAYER
10
7.86373729810777
20
-3.49999999998064
30
-6.35759999999997
 70
     32
  0
VERTEX
  8
MY3DLAYER
10
7.81378708685546
20
-3.37940952253191
30
-6.35759999999997
 70
     32
  0
VERTEX
  8
MY3DLAYER
10
7.79674999999999
20
-3.24999999998064
30
-6.35759999999997
 70
     32
  0
VERTEX
  8
MY3DLAYER
10
7.79674999999999
20
-2.74999999998064
30
-6.35759999999997
 70
     32
  0
VERTEX
  8
MY3DLAYER
10
7.81378708685546
20
-2.62059047742938
30
-6.35759999999997
 70
     32
  0
VERTEX
  8
MY3DLAYER
10
7.86373729810777
20
-2.49999999998064
30
-6.35759999999997
 70
     32
  0
VERTEX
  8
MY3DLAYER
10
7.94319660940672
20
-2.39644660938737
30
-6.35759999999997
 70
     32
  0
VERTEX
  8
MY3DLAYER
10
8.04674999999999
20
-2.31698729808843
30
-6.35759999999996
 70
     32
  0
VERTEX
  8
MY3DLAYER
10
8.16734047744873
20
-2.26703708683611
30
-6.35759999999996
 70
     32
  0
VERTEX
  8
MY3DLAYER
10
8.29674999999999
20
-2.24999999998064
30
-6.35759999999996
 70
     32
  0
VERTEX
  8
MY3DLAYER
10
8.42615952255125
20
-2.26703708683611
30
-6.35759999999995
 70
     32
  0
VERTEX
  8
MY3DLAYER
10
8.54674999999999
20
-2.31698729808843
30
-6.35759999999995
 70
     32
  0
VERTEX
  8
MY3DLAYER
10
8.65030339059327
20
-2.39644660938737
30
-6.35759999999995
 70
     32
  0
SEQEND
  0
POLYLINE
 8
Layer0
 66
     1
70
    8
 10
0.0
 20
 0.0
 30
0.0
  0
VERTEX
  8
MY3DLAYER
10
8.50675
20
31.4946281292582
30
-6.35759999999996
 70
     32
  0
VERTEX
  8
MY3DLAYER
10
8.64174999999999
20
31.2608012702364
30
-6.35759999999996
 70
     32
  0
VERTEX
  8
MY3DLAYER
10
8.65380904774487
20
31.2657962913617
30
-6.35759999999995
 70
     32
  0
VERTEX
  8
MY3DLAYER
10
8.66674999999999
20
31.2675000000472
30
-6.35759999999995
 70
     32
  0
VERTEX
  8
MY3DLAYER
10
8.67969095225512
20
31.2657962913616
30
-6.35759999999995
 70
     32
  0
VERTEX
  8
MY3DLAYER
10
8.69175
20
31.2608012702364
30
-6.35759999999995
 70
     32
  0
VERTEX
  8
MY3DLAYER
10
8.70210533905933
20
31.2528553391065
30
-6.35759999999995
 70
     32
  0
VERTEX
  8
MY3DLAYER
10
8.71005127018922
20
31.2425000000472
30
-6.35759999999995
 70
     32
  0
VERTEX
  8
MY3DLAYER
10
8.71504629131445
20
31.2304409523023
30
-6.35759999999995
 70
     32
  0
VERTEX
  8
MY3DLAYER
10
8.71675
20
31.2175000000472
30
-6.35759999999995
 70
     32
  0
VERTEX
  8
MY3DLAYER
10
8.71504629131445
20
31.2045590477921
30
-6.35759999999995
 70
     32
  0
VERTEX
  8
MY3DLAYER
10
8.71005127018922
20
31.1925000000472
30
-6.35759999999995
 70
     32
  0
VERTEX
  8
MY3DLAYER
10
8.70210533905932
20
31.1821446609879
30
-6.35759999999995
 70
     32
  0
VERTEX
  8
MY3DLAYER
10
8.69175
20
31.174198729858
30
-6.35759999999995
 70
     32
  0
VERTEX
  8
MY3DLAYER
10
8.67969095225512
20
31.1692037087327
30
-6.35759999999995
 70
     32
  0
VERTEX
  8
MY3DLAYER
10
8.66675
20
31.1675000000472
30
-6.35759999999995
 70
     32
  0
VERTEX
  8
MY3DLAYER
10
8.65380904774487
20
31.1692037087327
30
-6.35759999999995
 70
     32
  0
VERTEX
  8
MY3DLAYER
10
8.64174999999999
20
31.174198729858
30
-6.35759999999996
 70
     32
  0
VERTEX
  8
MY3DLAYER
10
8.50674999999999
20
30.9403718708362
30
-6.35759999999996
 70
     32
  0
VERTEX
  8
MY3DLAYER
10
8.51710533905932
20
30.9324259397063
30
-6.35759999999996
 70
     32
  0
VERTEX
  8
MY3DLAYER
10
8.52505127018921
20
30.922070600647
30
-6.35759999999996
 70
     32
  0
VERTEX
  8
MY3DLAYER
10
8.53004629131445
20
30.9100115529021
30
-6.35759999999996
 70
     32
  0
VERTEX
  8
MY3DLAYER
10
8.53174999999999
20
30.897070600647
30
-6.35759999999996
 70
     32
  0
VERTEX
  8
MY3DLAYER
10
8.53004629131445
20
30.8841296483918
30
-6.35759999999996
 70
     32
  0
VERTEX
  8
MY3DLAYER
10
8.52505127018922
20
30.872070600647
30
-6.35759999999996
 70
     32
  0
VERTEX
  8
MY3DLAYER
10
8.51710533905932
20
30.8617152615876
30
-6.35759999999996
 70
     32
  0
VERTEX
  8
MY3DLAYER
10
8.50674999999999
20
30.8537693304577
30
-6.35759999999996
 70
     32
  0
VERTEX
  8
MY3DLAYER
10
8.49469095225512
20
30.8487743093325
30
-6.35759999999996
 70
     32
  0
VERTEX
  8
MY3DLAYER
10
8.48174999999999
20
30.847070600647
30
-6.35759999999996
 70
     32
  0
VERTEX
  8
MY3DLAYER
10
8.46880904774486
20
30.8487743093325
30
-6.35759999999996
 70
     32
  0
VERTEX
  8
MY3DLAYER
10
8.45674999999999
20
30.8537693304577
30
-6.35759999999996
 70
     32
  0
VERTEX
  8
MY3DLAYER
10
8.44639466094065
20
30.8617152615876
30
-6.35759999999996
 70
     32
  0
VERTEX
  8
MY3DLAYER
10
8.43844872981077
20
30.872070600647
30
-6.35759999999996
 70
     32
  0
VERTEX
  8
MY3DLAYER
10
8.43345370868553
20
30.8841296483918
30
-6.35759999999996
 70
     32
  0
VERTEX
  8
MY3DLAYER
10
8.43174999999999
20
30.897070600647
30
-6.35759999999996
 70
     32
  0
VERTEX
  8
MY3DLAYER
10
8.16175
20
30.897070600647
30
-6.35759999999996
 70
     32
  0
VERTEX
  8
MY3DLAYER
10
8.16004629131445
20
30.8841296483918
30
-6.35759999999996
 70
     32
  0
VERTEX
  8
MY3DLAYER
10
8.15505127018922
20
30.872070600647
30
-6.35759999999996
 70
     32
  0
VERTEX
  8
MY3DLAYER
10
8.14710533905933
20
30.8617152615876
30
-6.35759999999996
 70
     32
  0
VERTEX
  8
MY3DLAYER
10
8.13675
20
30.8537693304577
30
-6.35759999999996
 70
     32
  0
VERTEX
  8
MY3DLAYER
10
8.12469095225512
20
30.8487743093325
30
-6.35759999999997
 70
     32
  0
VERTEX
  8
MY3DLAYER
10
8.11175
20
30.847070600647
30
-6.35759999999997
 70
     32
  0
VERTEX
  8
MY3DLAYER
10
8.09880904774487
20
30.8487743093325
30
-6.35759999999997
 70
     32
  0
VERTEX
  8
MY3DLAYER
10
8.08674999999999
20
30.8537693304577
30
-6.35759999999997
 70
     32
  0
VERTEX
  8
MY3DLAYER
10
8.07639466094066
20
30.8617152615876
30
-6.35759999999997
 70
     32
  0
VERTEX
  8
MY3DLAYER
10
8.06844872981077
20
30.872070600647
30
-6.35759999999997
 70
     32
  0
VERTEX
  8
MY3DLAYER
10
8.06345370868554
20
30.8841296483918
30
-6.35759999999997
 70
     32
  0
VERTEX
  8
MY3DLAYER
10
8.06174999999999
20
30.897070600647
30
-6.35759999999997
 70
     32
  0
VERTEX
  8
MY3DLAYER
10
8.06345370868554
20
30.9100115529021
30
-6.35759999999997
 70
     32
  0
VERTEX
  8
MY3DLAYER
10
8.06844872981077
20
30.922070600647
30
-6.35759999999997
 70
     32
  0
VERTEX
  8
MY3DLAYER
10
8.07639466094066
20
30.9324259397063
30
-6.35759999999997
 70
     32
  0
VERTEX
  8
MY3DLAYER
10
8.08674999999999
20
30.9403718708362
30
-6.35759999999997
 70
     32
  0
VERTEX
  8
MY3DLAYER
10
7.95175000000001
20
31.174198729858
30
-6.35759999999997
 70
     32
  0
VERTEX
  8
MY3DLAYER
10
7.93969095225513
20
31.1692037087327
30
-6.35759999999997
 70
     32
  0
VERTEX
  8
MY3DLAYER
10
7.92675000000001
20
31.1675000000472
30
-6.35759999999997
 70
     32
  0
VERTEX
  8
MY3DLAYER
10
7.91380904774488
20
31.1692037087328
30
-6.35759999999997
 70
     32
  0
VERTEX
  8
MY3DLAYER
10
7.90175000000001
20
31.174198729858
30
-6.35759999999997
 70
     32
  0
VERTEX
  8
MY3DLAYER
10
7.89139466094068
20
31.1821446609879
30
-6.35759999999997
 70
     32
  0
VERTEX
  8
MY3DLAYER
10
7.88344872981078
20
31.1925000000472
30
-6.35759999999997
 70
     32
  0
VERTEX
  8
MY3DLAYER
10
7.87845370868555
20
31.2045590477921
30
-6.35759999999997
 70
     32
  0
VERTEX
  8
MY3DLAYER
10
7.87675000000001
20
31.2175000000472
30
-6.35759999999997
 70
     32
  0
VERTEX
  8
MY3DLAYER
10
7.87845370868555
20
31.2304409523023
30
-6.35759999999997
 70
     32
  0
VERTEX
  8
MY3DLAYER
10
7.88344872981078
20
31.2425000000472
30
-6.35759999999997
 70
     32
  0
VERTEX
  8
MY3DLAYER
10
7.89139466094068
20
31.2528553391065
30
-6.35759999999997
 70
     32
  0
VERTEX
  8
MY3DLAYER
10
7.90175000000001
20
31.2608012702364
30
-6.35759999999997
 70
     32
  0
VERTEX
  8
MY3DLAYER
10
7.91380904774489
20
31.2657962913617
30
-6.35759999999997
 70
     32
  0
VERTEX
  8
MY3DLAYER
10
7.92675000000001
20
31.2675000000472
30
-6.35759999999997
 70
     32
  0
VERTEX
  8
MY3DLAYER
10
7.93969095225514
20
31.2657962913617
30
-6.35759999999997
 70
     32
  0
VERTEX
  8
MY3DLAYER
10
7.95175000000001
20
31.2608012702364
30
-6.35759999999997
 70
     32
  0
VERTEX
  8
MY3DLAYER
10
8.08675
20
31.4946281292582
30
-6.35759999999997
 70
     32
  0
VERTEX
  8
MY3DLAYER
10
8.07639466094067
20
31.5025740603881
30
-6.35759999999997
 70
     32
  0
VERTEX
  8
MY3DLAYER
10
8.06844872981078
20
31.5129293994474
30
-6.35759999999997
 70
     32
  0
VERTEX
  8
MY3DLAYER
10
8.06345370868555
20
31.5249884471923
30
-6.35759999999997
 70
     32
  0
VERTEX
  8
MY3DLAYER
10
8.06175
20
31.5379293994474
30
-6.35759999999997
 70
     32
  0
VERTEX
  8
MY3DLAYER
10
8.06345370868555
20
31.5508703517026
30
-6.35759999999997
 70
     32
  0
VERTEX
  8
MY3DLAYER
10
8.06844872981078
20
31.5629293994474
30
-6.35759999999997
 70
     32
  0
VERTEX
  8
MY3DLAYER
10
8.07639466094067
20
31.5732847385068
30
-6.35759999999997
 70
     32
  0
VERTEX
  8
MY3DLAYER
10
8.08675
20
31.5812306696367
30
-6.35759999999997
 70
     32
  0
VERTEX
  8
MY3DLAYER
10
8.09880904774488
20
31.5862256907619
30
-6.35759999999997
 70
     32
  0
VERTEX
  8
MY3DLAYER
10
8.11175
20
31.5879293994474
30
-6.35759999999997
 70
     32
  0
VERTEX
  8
MY3DLAYER
10
8.12469095225513
20
31.5862256907619
30
-6.35759999999997
 70
     32
  0
VERTEX
  8
MY3DLAYER
10
8.13675000000001
20
31.5812306696367
30
-6.35759999999996
 70
     32
  0
VERTEX
  8
MY3DLAYER
10
8.14710533905933
20
31.5732847385068
30
-6.35759999999996
 70
     32
  0
VERTEX
  8
MY3DLAYER
10
8.15505127018923
20
31.5629293994474
30
-6.35759999999996
 70
     32
  0
VERTEX
  8
MY3DLAYER
10
8.16004629131446
20
31.5508703517026
30
-6.35759999999996
 70
     32
  0
VERTEX
  8
MY3DLAYER
10
8.16175000000001
20
31.5379293994474
30
-6.35759999999996
 70
     32
  0
VERTEX
  8
MY3DLAYER
10
8.43175
20
31.5379293994474
30
-6.35759999999996
 70
     32
  0
VERTEX
  8
MY3DLAYER
10
8.43345370868554
20
31.5508703517026
30
-6.35759999999996
 70
     32
  0
VERTEX
  8
MY3DLAYER
10
8.43844872981077
20
31.5629293994474
30
-6.35759999999996
 70
     32
  0
VERTEX
  8
MY3DLAYER
10
8.44639466094067
20
31.5732847385068
30
-6.35759999999996
 70
     32
  0
VERTEX
  8
MY3DLAYER
10
8.45675
20
31.5812306696367
30
-6.35759999999996
 70
     32
  0
VERTEX
  8
MY3DLAYER
10
8.46880904774487
20
31.5862256907619
30
-6.35759999999996
 70
     32
  0
VERTEX
  8
MY3DLAYER
10
8.48175
20
31.5879293994474
30
-6.35759999999996
 70
     32
  0
VERTEX
  8
MY3DLAYER
10
8.49469095225512
20
31.5862256907619
30
-6.35759999999996
 70
     32
  0
VERTEX
  8
MY3DLAYER
10
8.50675
20
31.5812306696367
30
-6.35759999999996
 70
     32
  0
VERTEX
  8
MY3DLAYER
10
8.51710533905933
20
31.5732847385068
30
-6.35759999999996
 70
     32
  0
VERTEX
  8
MY3DLAYER
10
8.52505127018922
20
31.5629293994474
30
-6.35759999999996
 70
     32
  0
VERTEX
  8
MY3DLAYER
10
8.53004629131446
20
31.5508703517026
30
-6.35759999999996
 70
     32
  0
VERTEX
  8
MY3DLAYER
10
8.53175
20
31.5379293994474
30
-6.35759999999996
 70
     32
  0
VERTEX
  8
MY3DLAYER
10
8.53004629131446
20
31.5249884471923
30
-6.35759999999996
 70
     32
  0
VERTEX
  8
MY3DLAYER
10
8.52505127018922
20
31.5129293994474
30
-6.35759999999996
 70
     32
  0
VERTEX
  8
MY3DLAYER
10
8.51710533905933
20
31.5025740603881
30
-6.35759999999996
 70
     32
  0
VERTEX
  8
MY3DLAYER
10
8.50675
20
31.4946281292582
30
-6.35759999999996
 70
     32
  0
SEQEND
 0
ENDSEC
 0
EOF
