ISO-10303-21;
HEADER;
FILE_DESCRIPTION (( 'STEP AP203' ),
    '1' );
FILE_NAME ('ClampBlock.STEP',
    '2012-06-27T21:21:54',
    ( '' ),
    ( '' ),
    'SwSTEP 2.0',
    'SolidWorks 2010',
    '' );
FILE_SCHEMA (( 'CONFIG_CONTROL_DESIGN' ));
ENDSEC;

DATA;
#1 = EDGE_CURVE ( 'NONE', #174, #141, #65, .T. ) ;
#2 = EDGE_CURVE ( 'NONE', #158, #135, #66, .T. ) ;
#3 = PRODUCT ( 'ClampBlock', 'ClampBlock', '', ( #315 ) ) ;
#4 = PERSON ( 'UNSPECIFIED', 'UNSPECIFIED', 'UNSPECIFIED', ('UNSPECIFIED'), ('UNSPECIFIED'), ('UNSPECIFIED') ) ;
#5 = SHAPE_DEFINITION_REPRESENTATION ( #199, #362 ) ;
#6 =( GEOMETRIC_REPRESENTATION_CONTEXT ( 3 ) GLOBAL_UNCERTAINTY_ASSIGNED_CONTEXT ( ( #361 ) ) GLOBAL_UNIT_ASSIGNED_CONTEXT ( ( #351, #352, #296 ) ) REPRESENTATION_CONTEXT ( 'NONE', 'WORKASPACE' ) );
#7 = ORIENTED_EDGE ( 'NONE', *, *, #237, .F. ) ;
#8 = EDGE_LOOP ( 'NONE', ( #85, #84 ) ) ;
#9 = EDGE_LOOP ( 'NONE', ( #70, #71, #72, #73, #74, #41 ) ) ;
#10 = ORIENTED_EDGE ( 'NONE', *, *, #94, .F. ) ;
#11 = EDGE_LOOP ( 'NONE', ( #21, #20, #22, #24, #45 ) ) ;
#12 = ORIENTED_EDGE ( 'NONE', *, *, #238, .T. ) ;
#13 = ORIENTED_EDGE ( 'NONE', *, *, #210, .F. ) ;
#14 = EDGE_LOOP ( 'NONE', ( #30, #27, #32, #26 ) ) ;
#15 = EDGE_LOOP ( 'NONE', ( #89, #88, #87, #86 ) ) ;
#16 = EDGE_LOOP ( 'NONE', ( #91, #80 ) ) ;
#17 = EDGE_LOOP ( 'NONE', ( #77, #81, #78, #82 ) ) ;
#18 = ORIENTED_EDGE ( 'NONE', *, *, #235, .F. ) ;
#19 = ORIENTED_EDGE ( 'NONE', *, *, #219, .F. ) ;
#20 = ORIENTED_EDGE ( 'NONE', *, *, #240, .F. ) ;
#21 = ORIENTED_EDGE ( 'NONE', *, *, #236, .F. ) ;
#22 = ORIENTED_EDGE ( 'NONE', *, *, #231, .F. ) ;
#23 = EDGE_LOOP ( 'NONE', ( #40, #76, #75, #83, #79 ) ) ;
#24 = ORIENTED_EDGE ( 'NONE', *, *, #223, .F. ) ;
#25 = ORIENTED_EDGE ( 'NONE', *, *, #222, .F. ) ;
#26 = ORIENTED_EDGE ( 'NONE', *, *, #223, .T. ) ;
#27 = ORIENTED_EDGE ( 'NONE', *, *, #239, .F. ) ;
#28 = ORIENTED_EDGE ( 'NONE', *, *, #228, .F. ) ;
#29 = EDGE_LOOP ( 'NONE', ( #35, #12, #93, #92 ) ) ;
#30 = ORIENTED_EDGE ( 'NONE', *, *, #227, .F. ) ;
#31 = ORIENTED_EDGE ( 'NONE', *, *, #241, .T. ) ;
#32 = ORIENTED_EDGE ( 'NONE', *, *, #232, .T. ) ;
#33 = CLOSED_SHELL ( 'NONE', ( #367, #364, #368, #366, #365, #363, #369, #370, #371, #372, #373 ) ) ;
#34 = EDGE_LOOP ( 'NONE', ( #7, #42, #18, #19 ) ) ;
#35 = ORIENTED_EDGE ( 'NONE', *, *, #228, .T. ) ;
#36 = EDGE_LOOP ( 'NONE', ( #58, #48, #53, #90 ) ) ;
#37 = EDGE_LOOP ( 'NONE', ( #13, #38, #39, #25 ) ) ;
#38 = ORIENTED_EDGE ( 'NONE', *, *, #234, .T. ) ;
#39 = ORIENTED_EDGE ( 'NONE', *, *, #1, .F. ) ;
#40 = ORIENTED_EDGE ( 'NONE', *, *, #2, .T. ) ;
#41 = ORIENTED_EDGE ( 'NONE', *, *, #231, .T. ) ;
#42 = ORIENTED_EDGE ( 'NONE', *, *, #236, .T. ) ;
#43 = EDGE_LOOP ( 'NONE', ( #46, #47, #28, #10, #44, #31 ) ) ;
#44 = ORIENTED_EDGE ( 'NONE', *, *, #235, .T. ) ;
#45 = ORIENTED_EDGE ( 'NONE', *, *, #241, .F. ) ;
#46 = ORIENTED_EDGE ( 'NONE', *, *, #232, .F. ) ;
#47 = ORIENTED_EDGE ( 'NONE', *, *, #214, .F. ) ;
#48 = ORIENTED_EDGE ( 'NONE', *, *, #233, .F. ) ;
#49 = LINE ( 'NONE', #294, #113 ) ;
#50 = VECTOR ( 'NONE', #320, 1000.000000000000000 ) ;
#51 = VECTOR ( 'NONE', #325, 1000.000000000000000 ) ;
#52 = LINE ( 'NONE', #279, #51 ) ;
#53 = ORIENTED_EDGE ( 'NONE', *, *, #238, .F. ) ;
#54 = LINE ( 'NONE', #303, #100 ) ;
#55 = VECTOR ( 'NONE', #260, 1000.000000000000000 ) ;
#56 = VECTOR ( 'NONE', #275, 1000.000000000000000 ) ;
#57 = LINE ( 'NONE', #347, #55 ) ;
#58 = ORIENTED_EDGE ( 'NONE', *, *, #239, .T. ) ;
#59 = LINE ( 'NONE', #309, #50 ) ;
#60 = VECTOR ( 'NONE', #270, 1000.000000000000000 ) ;
#61 = CIRCLE ( 'NONE', #226, 5.249999999999997300 ) ;
#62 = LINE ( 'NONE', #268, #56 ) ;
#63 = VECTOR ( 'NONE', #163, 1000.000000000000000 ) ;
#64 = LINE ( 'NONE', #132, #63 ) ;
#65 = CIRCLE ( 'NONE', #244, 5.249999999999997300 ) ;
#66 = LINE ( 'NONE', #149, #69 ) ;
#67 = LINE ( 'NONE', #138, #60 ) ;
#68 = LINE ( 'NONE', #307, #110 ) ;
#69 = VECTOR ( 'NONE', #160, 1000.000000000000100 ) ;
#70 = ORIENTED_EDGE ( 'NONE', *, *, #229, .T. ) ;
#71 = ORIENTED_EDGE ( 'NONE', *, *, #245, .F. ) ;
#72 = ORIENTED_EDGE ( 'NONE', *, *, #230, .F. ) ;
#73 = ORIENTED_EDGE ( 'NONE', *, *, #233, .T. ) ;
#74 = ORIENTED_EDGE ( 'NONE', *, *, #227, .T. ) ;
#75 = ORIENTED_EDGE ( 'NONE', *, *, #94, .T. ) ;
#76 = ORIENTED_EDGE ( 'NONE', *, *, #219, .T. ) ;
#77 = ORIENTED_EDGE ( 'NONE', *, *, #234, .F. ) ;
#78 = ORIENTED_EDGE ( 'NONE', *, *, #222, .T. ) ;
#79 = ORIENTED_EDGE ( 'NONE', *, *, #245, .T. ) ;
#80 = ORIENTED_EDGE ( 'NONE', *, *, #95, .T. ) ;
#81 = ORIENTED_EDGE ( 'NONE', *, *, #212, .F. ) ;
#82 = ORIENTED_EDGE ( 'NONE', *, *, #95, .F. ) ;
#83 = ORIENTED_EDGE ( 'NONE', *, *, #211, .F. ) ;
#84 = ORIENTED_EDGE ( 'NONE', *, *, #210, .T. ) ;
#85 = ORIENTED_EDGE ( 'NONE', *, *, #212, .T. ) ;
#86 = ORIENTED_EDGE ( 'NONE', *, *, #237, .T. ) ;
#87 = ORIENTED_EDGE ( 'NONE', *, *, #240, .T. ) ;
#88 = ORIENTED_EDGE ( 'NONE', *, *, #229, .F. ) ;
#89 = ORIENTED_EDGE ( 'NONE', *, *, #2, .F. ) ;
#90 = ORIENTED_EDGE ( 'NONE', *, *, #214, .T. ) ;
#91 = ORIENTED_EDGE ( 'NONE', *, *, #1, .T. ) ;
#92 = ORIENTED_EDGE ( 'NONE', *, *, #211, .T. ) ;
#93 = ORIENTED_EDGE ( 'NONE', *, *, #230, .T. ) ;
#94 = EDGE_CURVE ( 'NONE', #156, #166, #64, .T. ) ;
#95 = EDGE_CURVE ( 'NONE', #141, #174, #61, .T. ) ;
#96 = VECTOR ( 'NONE', #267, 1000.000000000000000 ) ;
#97 = LINE ( 'NONE', #356, #96 ) ;
#98 = VECTOR ( 'NONE', #322, 1000.000000000000100 ) ;
#99 = LINE ( 'NONE', #323, #98 ) ;
#100 = VECTOR ( 'NONE', #292, 1000.000000000000000 ) ;
#101 = VECTOR ( 'NONE', #263, 1000.000000000000000 ) ;
#102 = LINE ( 'NONE', #274, #101 ) ;
#103 = LINE ( 'NONE', #261, #111 ) ;
#104 = FACE_OUTER_BOUND ( 'NONE', #11, .T. ) ;
#105 = VECTOR ( 'NONE', #287, 1000.000000000000000 ) ;
#106 = DATE_AND_TIME ( #109, #187 ) ;
#107 = LINE ( 'NONE', #293, #125 ) ;
#108 = VECTOR ( 'NONE', #289, 1000.000000000000000 ) ;
#109 = CALENDAR_DATE ( 2012, 27, 6 ) ;
#110 = VECTOR ( 'NONE', #298, 1000.000000000000000 ) ;
#111 = VECTOR ( 'NONE', #262, 1000.000000000000000 ) ;
#112 = LINE ( 'NONE', #257, #105 ) ;
#113 = VECTOR ( 'NONE', #258, 1000.000000000000000 ) ;
#114 = VECTOR ( 'NONE', #290, 1000.000000000000000 ) ;
#115 = LINE ( 'NONE', #304, #114 ) ;
#116 = VECTOR ( 'NONE', #306, 1000.000000000000000 ) ;
#117 = LINE ( 'NONE', #318, #116 ) ;
#118 = VECTOR ( 'NONE', #319, 1000.000000000000000 ) ;
#119 = LINE ( 'NONE', #305, #118 ) ;
#120 = VECTOR ( 'NONE', #301, 1000.000000000000000 ) ;
#121 = LINE ( 'NONE', #302, #120 ) ;
#122 = VECTOR ( 'NONE', #297, 1000.000000000000000 ) ;
#123 = LINE ( 'NONE', #299, #122 ) ;
#124 = LINE ( 'NONE', #280, #108 ) ;
#125 = VECTOR ( 'NONE', #295, 1000.000000000000000 ) ;
#126 = CARTESIAN_POINT ( 'NONE',  ( 30.39999999999999500, 0.0000000000000000000, -76.20000000000000300 ) ) ;
#127 = CARTESIAN_POINT ( 'NONE',  ( 76.20000000000000300, 25.40000000000000600, 0.0000000000000000000 ) ) ;
#128 = CARTESIAN_POINT ( 'NONE',  ( 0.0000000000000000000, 0.0000000000000000000, 0.0000000000000000000 ) ) ;
#129 = CARTESIAN_POINT ( 'NONE',  ( 0.0000000000000000000, 88.90000000000000600, -76.20000000000000300 ) ) ;
#130 = CARTESIAN_POINT ( 'NONE',  ( 43.34999999999999400, 57.14999999999999900, -5.000000000000004400 ) ) ;
#131 = CARTESIAN_POINT ( 'NONE',  ( 76.20000000000000300, 88.90000000000000600, -30.40000000000000200 ) ) ;
#132 = CARTESIAN_POINT ( 'NONE',  ( 0.0000000000000000000, 88.90000000000000600, 0.0000000000000000000 ) ) ;
#133 = CARTESIAN_POINT ( 'NONE',  ( 38.09999999999999400, 57.14999999999999900, -5.000000000000004400 ) ) ;
#134 = VERTEX_POINT ( 'NONE', #155 ) ;
#135 = VERTEX_POINT ( 'NONE', #164 ) ;
#136 = VERTEX_POINT ( 'NONE', #165 ) ;
#137 = CARTESIAN_POINT ( 'NONE',  ( 32.84999999999999400, 46.65000000000001300, -73.75000000000001400 ) ) ;
#138 = CARTESIAN_POINT ( 'NONE',  ( 0.0000000000000000000, 88.90000000000000600, -5.000000000000000000 ) ) ;
#139 = CARTESIAN_POINT ( 'NONE',  ( 43.34999999999999400, 46.65000000000001300, -63.25000000000004300 ) ) ;
#140 = CARTESIAN_POINT ( 'NONE',  ( 43.34999999999999400, 57.14999999999999900, -63.25000000000002800 ) ) ;
#141 = VERTEX_POINT ( 'NONE', #162 ) ;
#142 = CARTESIAN_POINT ( 'NONE',  ( 76.20000000000000300, 88.90000000000000600, -5.000000000000002700 ) ) ;
#143 = CARTESIAN_POINT ( 'NONE',  ( 0.0000000000000000000, 88.90000000000000600, -5.000000000000000000 ) ) ;
#144 = CARTESIAN_POINT ( 'NONE',  ( 76.20000000000000300, 25.40000000000000600, -5.000000000000000000 ) ) ;
#145 = CARTESIAN_POINT ( 'NONE',  ( 43.34999999999999400, 57.14999999999999900, -63.25000000000002800 ) ) ;
#146 = CARTESIAN_POINT ( 'NONE',  ( 7.776507174585693000E-015, 25.40000000000000600, 0.0000000000000000000 ) ) ;
#147 = VERTEX_POINT ( 'NONE', #127 ) ;
#148 = VERTEX_POINT ( 'NONE', #145 ) ;
#149 = CARTESIAN_POINT ( 'NONE',  ( 11.42097513107701100, 88.90000000000000600, -95.17902486892298000 ) ) ;
#150 = VERTEX_POINT ( 'NONE', #167 ) ;
#151 = VERTEX_POINT ( 'NONE', #142 ) ;
#152 = CARTESIAN_POINT ( 'NONE',  ( 76.20000000000000300, 0.0000000000000000000, 0.0000000000000000000 ) ) ;
#153 = VERTEX_POINT ( 'NONE', #128 ) ;
#154 = CARTESIAN_POINT ( 'NONE',  ( 32.84999999999999400, 57.14999999999999900, -73.75000000000001400 ) ) ;
#155 = CARTESIAN_POINT ( 'NONE',  ( 0.0000000000000000000, 0.0000000000000000000, -76.20000000000000300 ) ) ;
#156 = VERTEX_POINT ( 'NONE', #129 ) ;
#157 = CARTESIAN_POINT ( 'NONE',  ( 7.776507174585693000E-015, 25.40000000000000600, -5.000000000000000000 ) ) ;
#158 = VERTEX_POINT ( 'NONE', #131 ) ;
#159 = VERTEX_POINT ( 'NONE', #144 ) ;
#160 = DIRECTION ( 'NONE',  ( -0.7071067811865474600, 0.0000000000000000000, -0.7071067811865474600 ) ) ;
#161 = VERTEX_POINT ( 'NONE', #152 ) ;
#162 = CARTESIAN_POINT ( 'NONE',  ( 32.84999999999999400, 57.14999999999999900, -5.000000000000004400 ) ) ;
#163 = DIRECTION ( 'NONE',  ( -0.0000000000000000000, -0.0000000000000000000, 1.000000000000000000 ) ) ;
#164 = CARTESIAN_POINT ( 'NONE',  ( 30.39999999999999500, 88.90000000000000600, -76.20000000000000300 ) ) ;
#165 = CARTESIAN_POINT ( 'NONE',  ( 76.20000000000000300, 0.0000000000000000000, -30.39999999999999500 ) ) ;
#166 = VERTEX_POINT ( 'NONE', #143 ) ;
#167 = CARTESIAN_POINT ( 'NONE',  ( 32.84999999999999400, 57.14999999999999900, -73.75000000000001400 ) ) ;
#168 = DIRECTION ( 'NONE',  ( 0.0000000000000000000, -0.0000000000000000000, -1.000000000000000000 ) ) ;
#169 = VERTEX_POINT ( 'NONE', #146 ) ;
#170 = DIRECTION ( 'NONE',  ( 1.000000000000000000, 0.0000000000000000000, 0.0000000000000000000 ) ) ;
#171 = CARTESIAN_POINT ( 'NONE',  ( 38.09999999999999400, 57.14999999999999900, -5.000000000000004400 ) ) ;
#172 = DIRECTION ( 'NONE',  ( 0.0000000000000000000, -0.0000000000000000000, -1.000000000000000000 ) ) ;
#173 = DIRECTION ( 'NONE',  ( 1.000000000000000000, 0.0000000000000000000, 0.0000000000000000000 ) ) ;
#174 = VERTEX_POINT ( 'NONE', #130 ) ;
#175 = VERTEX_POINT ( 'NONE', #157 ) ;
#176 = VERTEX_POINT ( 'NONE', #126 ) ;
#177 = CC_DESIGN_PERSON_AND_ORGANIZATION_ASSIGNMENT ( #190, #276, ( #178 ) ) ;
#178 = SECURITY_CLASSIFICATION ( '', '', #246 ) ;
#179 = CC_DESIGN_PERSON_AND_ORGANIZATION_ASSIGNMENT ( #191, #283, ( #358 ) ) ;
#180 = CC_DESIGN_PERSON_AND_ORGANIZATION_ASSIGNMENT ( #192, #284, ( #358 ) ) ;
#181 = CC_DESIGN_DATE_AND_TIME_ASSIGNMENT ( #106, #265, ( #178 ) ) ;
#182 = CC_DESIGN_APPROVAL ( #183, ( #178 ) ) ;
#183 = APPROVAL ( #254, 'UNSPECIFIED' ) ;
#184 = PRODUCT_RELATED_PRODUCT_CATEGORY ( 'detail', '', ( #3 ) ) ;
#185 = CC_DESIGN_SECURITY_CLASSIFICATION ( #178, ( #358 ) ) ;
#186 = CC_DESIGN_APPROVAL ( #359, ( #358 ) ) ;
#187 = LOCAL_TIME ( 16, 21, 54.00000000000000000, #189 ) ;
#188 = APPROVAL_PERSON_ORGANIZATION ( #195, #359, #273 ) ;
#189 = COORDINATED_UNIVERSAL_TIME_OFFSET ( 6, 0, .BEHIND. ) ;
#190 = PERSON_AND_ORGANIZATION ( #4, #377 ) ;
#191 = PERSON_AND_ORGANIZATION ( #4, #377 ) ;
#192 = PERSON_AND_ORGANIZATION ( #4, #377 ) ;
#193 = APPROVAL_DATE_TIME ( #194, #359 ) ;
#194 = DATE_AND_TIME ( #196, #197 ) ;
#195 = PERSON_AND_ORGANIZATION ( #4, #377 ) ;
#196 = CALENDAR_DATE ( 2012, 27, 6 ) ;
#197 = LOCAL_TIME ( 16, 21, 54.00000000000000000, #198 ) ;
#198 = COORDINATED_UNIVERSAL_TIME_OFFSET ( 6, 0, .BEHIND. ) ;
#199 = PRODUCT_DEFINITION_SHAPE ( 'NONE', 'NONE',  #388 ) ;
#200 =( BOUNDED_CURVE ( )  B_SPLINE_CURVE ( 3, ( #357, #331, #350, #264 ),
 .UNSPECIFIED., .F., .T. ) 
 B_SPLINE_CURVE_WITH_KNOTS ( ( 4, 4 ),
 ( 0.0000000000000000000, 3.141592653589793100 ),
 .UNSPECIFIED. ) 
 CURVE ( )  GEOMETRIC_REPRESENTATION_ITEM ( )  RATIONAL_B_SPLINE_CURVE ( ( 1.000000000000000000, 0.3333333333333333700, 0.3333333333333333700, 1.000000000000000000 ) ) 
 REPRESENTATION_ITEM ( '' )  );
#201 =( BOUNDED_CURVE ( )  B_SPLINE_CURVE ( 3, ( #154, #137, #139, #140 ),
 .UNSPECIFIED., .F., .F. ) 
 B_SPLINE_CURVE_WITH_KNOTS ( ( 4, 4 ),
 ( 3.141592653589793100, 6.283185307179586200 ),
 .UNSPECIFIED. ) 
 CURVE ( )  GEOMETRIC_REPRESENTATION_ITEM ( )  RATIONAL_B_SPLINE_CURVE ( ( 1.000000000000000000, 0.3333333333333333700, 0.3333333333333333700, 1.000000000000000000 ) ) 
 REPRESENTATION_ITEM ( '' )  );
#202 = DESIGN_CONTEXT ( 'detailed design', #313, 'design' ) ;
#203 = APPROVAL_PERSON_ORGANIZATION ( #206, #183, #255 ) ;
#204 = COORDINATED_UNIVERSAL_TIME_OFFSET ( 6, 0, .BEHIND. ) ;
#205 = CALENDAR_DATE ( 2012, 27, 6 ) ;
#206 = PERSON_AND_ORGANIZATION ( #4, #377 ) ;
#207 = APPROVAL_DATE_TIME ( #209, #183 ) ;
#208 = LOCAL_TIME ( 16, 21, 54.00000000000000000, #204 ) ;
#209 = DATE_AND_TIME ( #205, #208 ) ;
#210 = EDGE_CURVE ( 'NONE', #150, #148, #201, .T. ) ;
#211 = EDGE_CURVE ( 'NONE', #151, #166, #67, .T. ) ;
#212 = EDGE_CURVE ( 'NONE', #148, #150, #200, .T. ) ;
#213 = AXIS2_PLACEMENT_3D ( 'NONE', #333, #341, #285 ) ;
#214 = EDGE_CURVE ( 'NONE', #175, #169, #62, .T. ) ;
#215 = AXIS2_PLACEMENT_3D ( 'NONE', #354, #343, #324 ) ;
#216 = AXIS2_PLACEMENT_3D ( 'NONE', #312, #336, #332 ) ;
#217 = AXIS2_PLACEMENT_3D ( 'NONE', #248, #317, #330 ) ;
#218 = AXIS2_PLACEMENT_3D ( 'NONE', #353, #337, #355 ) ;
#219 = EDGE_CURVE ( 'NONE', #135, #156, #57, .T. ) ;
#220 = AXIS2_PLACEMENT_3D ( 'NONE', #266, #250, #249 ) ;
#221 = AXIS2_PLACEMENT_3D ( 'NONE', #311, #338, #335 ) ;
#222 = EDGE_CURVE ( 'NONE', #148, #174, #52, .T. ) ;
#223 = EDGE_CURVE ( 'NONE', #153, #161, #59, .T. ) ;
#224 = AXIS2_PLACEMENT_3D ( 'NONE', #326, #329, #342 ) ;
#225 = AXIS2_PLACEMENT_3D ( 'NONE', #328, #291, #288 ) ;
#226 = AXIS2_PLACEMENT_3D ( 'NONE', #171, #168, #170 ) ;
#227 = EDGE_CURVE ( 'NONE', #147, #161, #68, .T. ) ;
#228 = EDGE_CURVE ( 'NONE', #166, #175, #54, .T. ) ;
#229 = EDGE_CURVE ( 'NONE', #136, #158, #107, .T. ) ;
#230 = EDGE_CURVE ( 'NONE', #159, #151, #123, .T. ) ;
#231 = EDGE_CURVE ( 'NONE', #161, #136, #121, .T. ) ;
#232 = EDGE_CURVE ( 'NONE', #169, #153, #119, .T. ) ;
#233 = EDGE_CURVE ( 'NONE', #159, #147, #117, .T. ) ;
#234 = EDGE_CURVE ( 'NONE', #150, #141, #115, .T. ) ;
#235 = EDGE_CURVE ( 'NONE', #156, #134, #49, .T. ) ;
#236 = EDGE_CURVE ( 'NONE', #176, #134, #103, .T. ) ;
#237 = EDGE_CURVE ( 'NONE', #176, #135, #124, .T. ) ;
#238 = EDGE_CURVE ( 'NONE', #175, #159, #112, .T. ) ;
#239 = EDGE_CURVE ( 'NONE', #169, #147, #102, .T. ) ;
#240 = EDGE_CURVE ( 'NONE', #136, #176, #99, .T. ) ;
#241 = EDGE_CURVE ( 'NONE', #134, #153, #97, .T. ) ;
#242 = CC_DESIGN_DATE_AND_TIME_ASSIGNMENT ( #380, #282, ( #388 ) ) ;
#243 = CC_DESIGN_PERSON_AND_ORGANIZATION_ASSIGNMENT ( #378, #252, ( #388 ) ) ;
#244 = AXIS2_PLACEMENT_3D ( 'NONE', #133, #172, #173 ) ;
#245 = EDGE_CURVE ( 'NONE', #151, #158, #410, .T. ) ;
#246 = SECURITY_CLASSIFICATION_LEVEL ( 'unclassified' ) ;
#247 = PLANE ( 'NONE',  #389 ) ;
#248 = CARTESIAN_POINT ( 'NONE',  ( 76.20000000000000300, 88.90000000000000600, 0.0000000000000000000 ) ) ;
#249 = DIRECTION ( 'NONE',  ( 0.0000000000000000000, -0.0000000000000000000, -1.000000000000000000 ) ) ;
#250 = DIRECTION ( 'NONE',  ( 0.0000000000000000000, -1.000000000000000000, 0.0000000000000000000 ) ) ;
#251 = PLANE ( 'NONE',  #218 ) ;
#252 = PERSON_AND_ORGANIZATION_ROLE ( 'creator' ) ;
#253 = APPLICATION_PROTOCOL_DEFINITION ( 'international standard', 'config_control_design', 1994, #313 ) ;
#254 = APPROVAL_STATUS ( 'not_yet_approved' ) ;
#255 = APPROVAL_ROLE ( '' ) ;
#256 = APPLICATION_PROTOCOL_DEFINITION ( 'international standard', 'config_control_design', 1994, #286 ) ;
#257 = CARTESIAN_POINT ( 'NONE',  ( 7.776507174585693000E-015, 25.40000000000000600, -5.000000000000000000 ) ) ;
#258 = DIRECTION ( 'NONE',  ( -0.0000000000000000000, -1.000000000000000000, -0.0000000000000000000 ) ) ;
#259 = DIRECTION ( 'NONE',  ( 0.0000000000000000000, 0.0000000000000000000, -1.000000000000000000 ) ) ;
#260 = DIRECTION ( 'NONE',  ( -1.000000000000000000, -0.0000000000000000000, -0.0000000000000000000 ) ) ;
#261 = CARTESIAN_POINT ( 'NONE',  ( 0.0000000000000000000, 0.0000000000000000000, -76.20000000000000300 ) ) ;
#262 = DIRECTION ( 'NONE',  ( -1.000000000000000000, -0.0000000000000000000, -0.0000000000000000000 ) ) ;
#263 = DIRECTION ( 'NONE',  ( 1.000000000000000000, 0.0000000000000000000, 0.0000000000000000000 ) ) ;
#264 = CARTESIAN_POINT ( 'NONE',  ( 32.84999999999999400, 57.14999999999999900, -73.75000000000001400 ) ) ;
#265 = DATE_TIME_ROLE ( 'classification_date' ) ;
#266 = CARTESIAN_POINT ( 'NONE',  ( 0.0000000000000000000, 0.0000000000000000000, -76.20000000000000300 ) ) ;
#267 = DIRECTION ( 'NONE',  ( -0.0000000000000000000, -0.0000000000000000000, 1.000000000000000000 ) ) ;
#268 = CARTESIAN_POINT ( 'NONE',  ( 7.776507174585693000E-015, 25.40000000000000600, -5.000000000000000000 ) ) ;
#269 = PLANE ( 'NONE',  #221 ) ;
#270 = DIRECTION ( 'NONE',  ( -1.000000000000000000, -0.0000000000000000000, -0.0000000000000000000 ) ) ;
#271 = PLANE ( 'NONE',  #220 ) ;
#272 = CARTESIAN_POINT ( 'NONE',  ( 76.20000000000000300, 88.90000000000000600, 0.0000000000000000000 ) ) ;
#273 = APPROVAL_ROLE ( '' ) ;
#274 = CARTESIAN_POINT ( 'NONE',  ( 7.776507174585693000E-015, 25.40000000000000600, 0.0000000000000000000 ) ) ;
#275 = DIRECTION ( 'NONE',  ( -0.0000000000000000000, -0.0000000000000000000, 1.000000000000000000 ) ) ;
#276 = PERSON_AND_ORGANIZATION_ROLE ( 'classification_officer' ) ;
#277 = PERSON_AND_ORGANIZATION_ROLE ( 'design_owner' ) ;
#278 = APPROVAL_STATUS ( 'not_yet_approved' ) ;
#279 = CARTESIAN_POINT ( 'NONE',  ( 43.34999999999999400, 57.14999999999999900, -300.0000000000000000 ) ) ;
#280 = CARTESIAN_POINT ( 'NONE',  ( 30.39999999999999500, 0.0000000000000000000, -76.20000000000000300 ) ) ;
#281 = APPROVAL_STATUS ( 'not_yet_approved' ) ;
#282 = DATE_TIME_ROLE ( 'creation_date' ) ;
#283 = PERSON_AND_ORGANIZATION_ROLE ( 'design_supplier' ) ;
#284 = PERSON_AND_ORGANIZATION_ROLE ( 'creator' ) ;
#285 = DIRECTION ( 'NONE',  ( 0.0000000000000000000, 0.0000000000000000000, -1.000000000000000000 ) ) ;
#286 = APPLICATION_CONTEXT ( 'configuration controlled 3d designs of mechanical parts and assemblies' ) ;
#287 = DIRECTION ( 'NONE',  ( 1.000000000000000000, 0.0000000000000000000, 0.0000000000000000000 ) ) ;
#288 = DIRECTION ( 'NONE',  ( 1.000000000000000000, 0.0000000000000000000, 0.0000000000000000000 ) ) ;
#289 = DIRECTION ( 'NONE',  ( -0.0000000000000000000, 1.000000000000000000, -0.0000000000000000000 ) ) ;
#290 = DIRECTION ( 'NONE',  ( -0.0000000000000000000, -0.0000000000000000000, 1.000000000000000000 ) ) ;
#291 = DIRECTION ( 'NONE',  ( 0.0000000000000000000, 0.0000000000000000000, 1.000000000000000000 ) ) ;
#292 = DIRECTION ( 'NONE',  ( 1.224646799147353200E-016, -1.000000000000000000, 0.0000000000000000000 ) ) ;
#293 = CARTESIAN_POINT ( 'NONE',  ( 76.20000000000000300, 0.0000000000000000000, -30.40000000000000200 ) ) ;
#294 = CARTESIAN_POINT ( 'NONE',  ( 0.0000000000000000000, 88.90000000000000600, -76.20000000000000300 ) ) ;
#295 = DIRECTION ( 'NONE',  ( -0.0000000000000000000, 1.000000000000000000, -0.0000000000000000000 ) ) ;
#296 =( NAMED_UNIT ( * ) SI_UNIT ( $, .STERADIAN. ) SOLID_ANGLE_UNIT ( ) );
#297 = DIRECTION ( 'NONE',  ( -0.0000000000000000000, 1.000000000000000000, -0.0000000000000000000 ) ) ;
#298 = DIRECTION ( 'NONE',  ( -0.0000000000000000000, -1.000000000000000000, -0.0000000000000000000 ) ) ;
#299 = CARTESIAN_POINT ( 'NONE',  ( 76.20000000000000300, 88.90000000000000600, -5.000000000000000000 ) ) ;
#300 = DIRECTION ( 'NONE',  ( -0.7071067811865474600, 0.0000000000000000000, -0.7071067811865474600 ) ) ;
#301 = DIRECTION ( 'NONE',  ( 0.0000000000000000000, 0.0000000000000000000, -1.000000000000000000 ) ) ;
#302 = CARTESIAN_POINT ( 'NONE',  ( 76.20000000000000300, 0.0000000000000000000, 0.0000000000000000000 ) ) ;
#303 = CARTESIAN_POINT ( 'NONE',  ( 0.0000000000000000000, 88.90000000000000600, -5.000000000000000000 ) ) ;
#304 = CARTESIAN_POINT ( 'NONE',  ( 32.84999999999999400, 57.14999999999999900, -300.0000000000000000 ) ) ;
#305 = CARTESIAN_POINT ( 'NONE',  ( 0.0000000000000000000, 88.90000000000000600, 0.0000000000000000000 ) ) ;
#306 = DIRECTION ( 'NONE',  ( -0.0000000000000000000, -0.0000000000000000000, 1.000000000000000000 ) ) ;
#307 = CARTESIAN_POINT ( 'NONE',  ( 76.20000000000000300, 88.90000000000000600, 0.0000000000000000000 ) ) ;
#308 = DIRECTION ( 'NONE',  ( 0.0000000000000000000, -1.000000000000000000, 0.0000000000000000000 ) ) ;
#309 = CARTESIAN_POINT ( 'NONE',  ( 0.0000000000000000000, 0.0000000000000000000, 0.0000000000000000000 ) ) ;
#310 = CARTESIAN_POINT ( 'NONE',  ( 7.776507174585693000E-015, 25.40000000000000600, -5.000000000000000000 ) ) ;
#311 = CARTESIAN_POINT ( 'NONE',  ( 0.0000000000000000000, 88.90000000000000600, -76.20000000000000300 ) ) ;
#312 = CARTESIAN_POINT ( 'NONE',  ( 38.09999999999999400, 57.14999999999999900, -300.0000000000000000 ) ) ;
#313 = APPLICATION_CONTEXT ( 'configuration controlled 3d designs of mechanical parts and assemblies' ) ;
#314 = PLANE ( 'NONE',  #213 ) ;
#315 = MECHANICAL_CONTEXT ( 'NONE', #286, 'mechanical' ) ;
#316 = APPROVAL_ROLE ( '' ) ;
#317 = DIRECTION ( 'NONE',  ( -1.000000000000000000, 0.0000000000000000000, 0.0000000000000000000 ) ) ;
#318 = CARTESIAN_POINT ( 'NONE',  ( 76.20000000000000300, 25.40000000000000600, -5.000000000000000000 ) ) ;
#319 = DIRECTION ( 'NONE',  ( -0.0000000000000000000, -1.000000000000000000, -0.0000000000000000000 ) ) ;
#320 = DIRECTION ( 'NONE',  ( 1.000000000000000000, 0.0000000000000000000, 0.0000000000000000000 ) ) ;
#321 = DIRECTION ( 'NONE',  ( 0.0000000000000000000, -0.0000000000000000000, -1.000000000000000000 ) ) ;
#322 = DIRECTION ( 'NONE',  ( -0.7071067811865474600, 0.0000000000000000000, -0.7071067811865474600 ) ) ;
#323 = CARTESIAN_POINT ( 'NONE',  ( 11.42097513107701100, 0.0000000000000000000, -95.17902486892298000 ) ) ;
#324 = DIRECTION ( 'NONE',  ( 1.000000000000000000, 0.0000000000000000000, 0.0000000000000000000 ) ) ;
#325 = DIRECTION ( 'NONE',  ( -0.0000000000000000000, -0.0000000000000000000, 1.000000000000000000 ) ) ;
#326 = CARTESIAN_POINT ( 'NONE',  ( 0.0000000000000000000, 88.90000000000000600, 0.0000000000000000000 ) ) ;
#327 = DIRECTION ( 'NONE',  ( -0.0000000000000000000, 0.0000000000000000000, 1.000000000000000000 ) ) ;
#328 = CARTESIAN_POINT ( 'NONE',  ( 0.0000000000000000000, 0.0000000000000000000, 0.0000000000000000000 ) ) ;
#329 = DIRECTION ( 'NONE',  ( 0.0000000000000000000, 0.0000000000000000000, -1.000000000000000000 ) ) ;
#330 = DIRECTION ( 'NONE',  ( 0.0000000000000000000, 0.0000000000000000000, 1.000000000000000000 ) ) ;
#331 = CARTESIAN_POINT ( 'NONE',  ( 43.34999999999999400, 67.64999999999999100, -63.25000000000004300 ) ) ;
#332 = DIRECTION ( 'NONE',  ( 1.000000000000000000, 0.0000000000000000000, 0.0000000000000000000 ) ) ;
#333 = CARTESIAN_POINT ( 'NONE',  ( 0.0000000000000000000, 88.90000000000000600, 0.0000000000000000000 ) ) ;
#334 = PLANE ( 'NONE',  #387 ) ;
#335 = DIRECTION ( 'NONE',  ( 0.0000000000000000000, -0.0000000000000000000, -1.000000000000000000 ) ) ;
#336 = DIRECTION ( 'NONE',  ( -0.0000000000000000000, -0.0000000000000000000, 1.000000000000000000 ) ) ;
#337 = DIRECTION ( 'NONE',  ( 0.0000000000000000000, 0.0000000000000000000, 1.000000000000000000 ) ) ;
#338 = DIRECTION ( 'NONE',  ( 0.0000000000000000000, -1.000000000000000000, 0.0000000000000000000 ) ) ;
#339 = PLANE ( 'NONE',  #224 ) ;
#340 = PLANE ( 'NONE',  #217 ) ;
#341 = DIRECTION ( 'NONE',  ( 1.000000000000000000, -0.0000000000000000000, 0.0000000000000000000 ) ) ;
#342 = DIRECTION ( 'NONE',  ( -1.000000000000000000, 0.0000000000000000000, -0.0000000000000000000 ) ) ;
#343 = DIRECTION ( 'NONE',  ( -0.0000000000000000000, -0.0000000000000000000, 1.000000000000000000 ) ) ;
#344 = CARTESIAN_POINT ( 'NONE',  ( 7.776507174585693000E-015, 25.40000000000000600, -5.000000000000000000 ) ) ;
#345 = DIRECTION ( 'NONE',  ( 0.7071067811865475700, 0.0000000000000000000, -0.7071067811865475700 ) ) ;
#346 = PLANE ( 'NONE',  #383 ) ;
#347 = CARTESIAN_POINT ( 'NONE',  ( 0.0000000000000000000, 88.90000000000000600, -76.20000000000000300 ) ) ;
#348 = CARTESIAN_POINT ( 'NONE',  ( 11.42097513107701100, 0.0000000000000000000, -95.17902486892298000 ) ) ;
#349 = DIRECTION ( 'NONE',  ( 1.000000000000000000, 0.0000000000000000000, 0.0000000000000000000 ) ) ;
#350 = CARTESIAN_POINT ( 'NONE',  ( 32.84999999999999400, 67.64999999999999100, -73.75000000000001400 ) ) ;
#351 =( LENGTH_UNIT ( ) NAMED_UNIT ( * ) SI_UNIT ( .MILLI., .METRE. ) );
#352 =( NAMED_UNIT ( * ) PLANE_ANGLE_UNIT ( ) SI_UNIT ( $, .RADIAN. ) );
#353 = CARTESIAN_POINT ( 'NONE',  ( 0.0000000000000000000, 88.90000000000000600, -76.20000000000000300 ) ) ;
#354 = CARTESIAN_POINT ( 'NONE',  ( 38.09999999999999400, 57.14999999999999900, -300.0000000000000000 ) ) ;
#355 = DIRECTION ( 'NONE',  ( 1.000000000000000000, 0.0000000000000000000, -0.0000000000000000000 ) ) ;
#356 = CARTESIAN_POINT ( 'NONE',  ( 0.0000000000000000000, 0.0000000000000000000, 0.0000000000000000000 ) ) ;
#357 = CARTESIAN_POINT ( 'NONE',  ( 43.34999999999999400, 57.14999999999999900, -63.25000000000002800 ) ) ;
#358 = PRODUCT_DEFINITION_FORMATION_WITH_SPECIFIED_SOURCE ( 'ANY', '', #3, .NOT_KNOWN. ) ;
#359 = APPROVAL ( #281, 'UNSPECIFIED' ) ;
#360 = MANIFOLD_SOLID_BREP ( 'Cut-Extrude4', #33 ) ;
#361 = UNCERTAINTY_MEASURE_WITH_UNIT (LENGTH_MEASURE( 1.000000000000000100E-005 ), #351, 'distance_accuracy_value', 'NONE');
#362 = ADVANCED_BREP_SHAPE_REPRESENTATION ( 'ClampBlock', ( #360, #225 ), #6 ) ;
#363 = ADVANCED_FACE ( 'NONE', ( #104 ), #271, .T. ) ;
#364 = ADVANCED_FACE ( 'NONE', ( #407 ), #269, .F. ) ;
#365 = ADVANCED_FACE ( 'NONE', ( #402 ), #251, .F. ) ;
#366 = ADVANCED_FACE ( 'NONE', ( #409 ), #340, .F. ) ;
#367 = ADVANCED_FACE ( 'NONE', ( #403 ), #400, .F. ) ;
#368 = ADVANCED_FACE ( 'NONE', ( #408 ), #399, .F. ) ;
#369 = ADVANCED_FACE ( 'NONE', ( #401 ), #314, .F. ) ;
#370 = ADVANCED_FACE ( 'NONE', ( #405 ), #339, .F. ) ;
#371 = ADVANCED_FACE ( 'NONE', ( #404, #397 ), #247, .T. ) ;
#372 = ADVANCED_FACE ( 'NONE', ( #398 ), #346, .F. ) ;
#373 = ADVANCED_FACE ( 'NONE', ( #396, #395 ), #334, .T. ) ;
#374 = APPROVAL_PERSON_ORGANIZATION ( #375, #386, #316 ) ;
#375 = PERSON_AND_ORGANIZATION ( #4, #377 ) ;
#376 = PERSON_AND_ORGANIZATION ( #4, #377 ) ;
#377 = ORGANIZATION ( 'UNSPECIFIED', 'UNSPECIFIED', '' ) ;
#378 = PERSON_AND_ORGANIZATION ( #4, #377 ) ;
#379 = CALENDAR_DATE ( 2012, 27, 6 ) ;
#380 = DATE_AND_TIME ( #379, #381 ) ;
#381 = LOCAL_TIME ( 16, 21, 54.00000000000000000, #382 ) ;
#382 = COORDINATED_UNIVERSAL_TIME_OFFSET ( 6, 0, .BEHIND. ) ;
#383 = AXIS2_PLACEMENT_3D ( 'NONE', #344, #308, #321 ) ;
#384 = CC_DESIGN_APPROVAL ( #386, ( #388 ) ) ;
#385 = CC_DESIGN_PERSON_AND_ORGANIZATION_ASSIGNMENT ( #376, #277, ( #3 ) ) ;
#386 = APPROVAL ( #278, 'UNSPECIFIED' ) ;
#387 = AXIS2_PLACEMENT_3D ( 'NONE', #348, #345, #300 ) ;
#388 = PRODUCT_DEFINITION ( 'UNKNOWN', '', #358, #202 ) ;
#389 = AXIS2_PLACEMENT_3D ( 'NONE', #310, #327, #349 ) ;
#390 = LOCAL_TIME ( 16, 21, 54.00000000000000000, #391 ) ;
#391 = COORDINATED_UNIVERSAL_TIME_OFFSET ( 6, 0, .BEHIND. ) ;
#392 = DATE_AND_TIME ( #394, #390 ) ;
#393 = APPROVAL_DATE_TIME ( #392, #386 ) ;
#394 = CALENDAR_DATE ( 2012, 27, 6 ) ;
#395 = FACE_BOUND ( 'NONE', #8, .T. ) ;
#396 = FACE_OUTER_BOUND ( 'NONE', #15, .T. ) ;
#397 = FACE_BOUND ( 'NONE', #16, .T. ) ;
#398 = FACE_OUTER_BOUND ( 'NONE', #36, .T. ) ;
#399 = CYLINDRICAL_SURFACE ( 'NONE', #215, 5.249999999999997300 ) ;
#400 = CYLINDRICAL_SURFACE ( 'NONE', #216, 5.249999999999997300 ) ;
#401 = FACE_OUTER_BOUND ( 'NONE', #43, .T. ) ;
#402 = FACE_OUTER_BOUND ( 'NONE', #34, .T. ) ;
#403 = FACE_OUTER_BOUND ( 'NONE', #37, .T. ) ;
#404 = FACE_OUTER_BOUND ( 'NONE', #29, .T. ) ;
#405 = FACE_OUTER_BOUND ( 'NONE', #14, .T. ) ;
#406 = VECTOR ( 'NONE', #259, 1000.000000000000000 ) ;
#407 = FACE_OUTER_BOUND ( 'NONE', #23, .T. ) ;
#408 = FACE_OUTER_BOUND ( 'NONE', #17, .T. ) ;
#409 = FACE_OUTER_BOUND ( 'NONE', #9, .T. ) ;
#410 = LINE ( 'NONE', #272, #406 ) ;
ENDSEC;
END-ISO-10303-21;
