999
dxflib 2.2.0.0
  0
SECTION
  2
HEADER
  9
$ACADVER
  1
AC1015
  9
$HANDSEED
  5
FFFF
  9
$DIMASZ
 40
0.1
  9
$PLIMMIN
 10
0.0
 20
0.0
  9
$DIMEXE
 40
0.05
  9
$DIMGAP
 40
0.025
  9
$PLIMMAX
 10
0.0
 20
0.0
  9
$INSUNITS
 70
1
  9
$DIMSTYLE
  2
Standard
  9
$DIMEXO
 40
0.025
  9
$DIMTXT
 40
0.1
  0
ENDSEC
  0
SECTION
  2
TABLES
  0
TABLE
  2
VPORT
  5
8
100
AcDbSymbolTable
 70
1
  0
VPORT
  5
30
100
AcDbSymbolTableRecord
100
AcDbViewportTableRecord
  2
*Active
 70
0
 10
0.0
 20
0.0
 11
1.0
 21
1.0
 12
286.3055555555554861
 22
148.5
 13
0.0
 23
0.0
 14
10.0
 24
10.0
 15
10.0
 25
10.0
 16
0.0
 26
0.0
 36
1.0
 17
0.0
 27
0.0
 37
0.0
 40
297.0
 41
1.92798353909465
 42
50.0
 43
0.0
 44
0.0
 50
0.0
 51
0.0
 71
0
 72
100
 73
1
 74
3
 75
1
 76
1
 77
0
 78
0
281
0
 65
1
110
0.0
120
0.0
130
0.0
111
1.0
121
0.0
131
0.0
112
0.0
122
1.0
132
0.0
 79
0
146
0.0
  0
ENDTAB
  0
TABLE
  2
LTYPE
  5
5
100
AcDbSymbolTable
 70
21
  0
LTYPE
  5
14
100
AcDbSymbolTableRecord
100
AcDbLinetypeTableRecord
  2
ByBlock
 70
0
  3

 72
65
 73
0
 40
0.0
  0
LTYPE
  5
15
100
AcDbSymbolTableRecord
100
AcDbLinetypeTableRecord
  2
ByLayer
 70
0
  3

 72
65
 73
0
 40
0.0
  0
LTYPE
  5
16
100
AcDbSymbolTableRecord
100
AcDbLinetypeTableRecord
  2
CONTINUOUS
 70
0
  3
Solid line
 72
65
 73
0
 40
0.0
  0
LTYPE
  5
31
100
AcDbSymbolTableRecord
100
AcDbLinetypeTableRecord
  2
DOT
 70
0
  3
Dot . . . . . . . . . . . . . . . . . . . . . .
 72
65
 73
2
 40
6.3499999999999996
 49
0.0
 74
0
 49
-6.3499999999999996
 74
0
  0
LTYPE
  5
32
100
AcDbSymbolTableRecord
100
AcDbLinetypeTableRecord
  2
DOT2
 70
0
  3
Dot (.5x) .....................................
 72
65
 73
2
 40
3.1749999999999998
 49
0.0
 74
0
 49
-3.1749999999999998
 74
0
  0
LTYPE
  5
33
100
AcDbSymbolTableRecord
100
AcDbLinetypeTableRecord
  2
DOTX2
 70
0
  3
Dot (2x) .  .  .  .  .  .  .  .  .  .  .  .  .
 72
65
 73
2
 40
12.6999999999999993
 49
0.0
 74
0
 49
-12.6999999999999993
 74
0
  0
LTYPE
  5
34
100
AcDbSymbolTableRecord
100
AcDbLinetypeTableRecord
  2
DASHED
 70
0
  3
Dashed __ __ __ __ __ __ __ __ __ __ __ __ __ _
 72
65
 73
2
 40
19.0500000000000007
 49
12.6999999999999993
 74
0
 49
-6.3499999999999996
 74
0
  0
LTYPE
  5
35
100
AcDbSymbolTableRecord
100
AcDbLinetypeTableRecord
  2
DASHED2
 70
0
  3
Dashed (.5x) _ _ _ _ _ _ _ _ _ _ _ _ _ _ _ _ _
 72
65
 73
2
 40
9.5250000000000004
 49
6.3499999999999996
 74
0
 49
-3.1749999999999998
 74
0
  0
LTYPE
  5
36
100
AcDbSymbolTableRecord
100
AcDbLinetypeTableRecord
  2
DASHEDX2
 70
0
  3
Dashed (2x) ____  ____  ____  ____  ____  ___
 72
65
 73
2
 40
38.1000000000000014
 49
25.3999999999999986
 74
0
 49
-12.6999999999999993
 74
0
  0
LTYPE
  5
37
100
AcDbSymbolTableRecord
100
AcDbLinetypeTableRecord
  2
DASHDOT
 70
0
  3
Dash dot __ . __ . __ . __ . __ . __ . __ . __
 72
65
 73
4
 40
25.3999999999999986
 49
12.6999999999999993
 74
0
 49
-6.3499999999999996
 74
0
 49
0.0
 74
0
 49
-6.3499999999999996
 74
0
  0
LTYPE
  5
38
100
AcDbSymbolTableRecord
100
AcDbLinetypeTableRecord
  2
DASHDOT2
 70
0
  3
Dash dot (.5x) _._._._._._._._._._._._._._._.
 72
65
 73
4
 40
12.6999999999999993
 49
6.3499999999999996
 74
0
 49
-3.1749999999999998
 74
0
 49
0.0
 74
0
 49
-3.1749999999999998
 74
0
  0
LTYPE
  5
39
100
AcDbSymbolTableRecord
100
AcDbLinetypeTableRecord
  2
DASHDOTX2
 70
0
  3
Dash dot (2x) ____  .  ____  .  ____  .  ___
 72
65
 73
4
 40
50.7999999999999972
 49
25.3999999999999986
 74
0
 49
-12.6999999999999993
 74
0
 49
0.0
 74
0
 49
-12.6999999999999993
 74
0
  0
LTYPE
  5
3A
100
AcDbSymbolTableRecord
100
AcDbLinetypeTableRecord
  2
DIVIDE
 70
0
  3
Divide ____ . . ____ . . ____ . . ____ . . ____
 72
65
 73
6
 40
31.75
 49
12.6999999999999993
 74
0
 49
-6.3499999999999996
 74
0
 49
0.0
 74
0
 49
-6.3499999999999996
 74
0
 49
0.0
 74
0
 49
-6.3499999999999996
 74
0
  0
LTYPE
  5
3B
100
AcDbSymbolTableRecord
100
AcDbLinetypeTableRecord
  2
DIVIDE2
 70
0
  3
Divide (.5x) __..__..__..__..__..__..__..__.._
 72
65
 73
6
 40
15.875
 49
6.3499999999999996
 74
0
 49
-3.1749999999999998
 74
0
 49
0.0
 74
0
 49
-3.1749999999999998
 74
0
 49
0.0
 74
0
 49
-3.1749999999999998
 74
0
  0
LTYPE
  5
3C
100
AcDbSymbolTableRecord
100
AcDbLinetypeTableRecord
  2
DIVIDEX2
 70
0
  3
Divide (2x) ________  .  .  ________  .  .  _
 72
65
 73
6
 40
63.5
 49
25.3999999999999986
 74
0
 49
-12.6999999999999993
 74
0
 49
0.0
 74
0
 49
-12.6999999999999993
 74
0
 49
0.0
 74
0
 49
-12.6999999999999993
 74
0
  0
LTYPE
  5
3D
100
AcDbSymbolTableRecord
100
AcDbLinetypeTableRecord
  2
CENTER
 70
0
  3
Center ____ _ ____ _ ____ _ ____ _ ____ _ ____
 72
65
 73
4
 40
50.7999999999999972
 49
31.75
 74
0
 49
-6.3499999999999996
 74
0
 49
6.3499999999999996
 74
0
 49
-6.3499999999999996
 74
0
  0
LTYPE
  5
3E
100
AcDbSymbolTableRecord
100
AcDbLinetypeTableRecord
  2
CENTER2
 70
0
  3
Center (.5x) ___ _ ___ _ ___ _ ___ _ ___ _ ___
 72
65
 73
4
 40
28.5749999999999993
 49
19.0500000000000007
 74
0
 49
-3.1749999999999998
 74
0
 49
3.1749999999999998
 74
0
 49
-3.1749999999999998
 74
0
  0
LTYPE
  5
3F
100
AcDbSymbolTableRecord
100
AcDbLinetypeTableRecord
  2
CENTERX2
 70
0
  3
Center (2x) ________  __  ________  __  _____
 72
65
 73
4
 40
101.5999999999999943
 49
63.5
 74
0
 49
-12.6999999999999993
 74
0
 49
12.6999999999999993
 74
0
 49
-12.6999999999999993
 74
0
  0
LTYPE
  5
40
100
AcDbSymbolTableRecord
100
AcDbLinetypeTableRecord
  2
BORDER
 70
0
  3
Border __ __ . __ __ . __ __ . __ __ . __ __ .
 72
65
 73
6
 40
44.4500000000000028
 49
12.6999999999999993
 74
0
 49
-6.3499999999999996
 74
0
 49
12.6999999999999993
 74
0
 49
-6.3499999999999996
 74
0
 49
0.0
 74
0
 49
-6.3499999999999996
 74
0
  0
LTYPE
  5
41
100
AcDbSymbolTableRecord
100
AcDbLinetypeTableRecord
  2
BORDER2
 70
0
  3
Border (.5x) __.__.__.__.__.__.__.__.__.__.__.
 72
65
 73
6
 40
22.2250000000000014
 49
6.3499999999999996
 74
0
 49
-3.1749999999999998
 74
0
 49
6.3499999999999996
 74
0
 49
-3.1749999999999998
 74
0
 49
0.0
 74
0
 49
-3.1749999999999998
 74
0
  0
LTYPE
  5
42
100
AcDbSymbolTableRecord
100
AcDbLinetypeTableRecord
  2
BORDERX2
 70
0
  3
Border (2x) ____  ____  .  ____  ____  .  ___
 72
65
 73
6
 40
88.9000000000000057
 49
25.3999999999999986
 74
0
 49
-12.6999999999999993
 74
0
 49
25.3999999999999986
 74
0
 49
-12.6999999999999993
 74
0
 49
0.0
 74
0
 49
-12.6999999999999993
 74
0
  0
ENDTAB
  0
TABLE
  2
LAYER
  5
2
100
AcDbSymbolTable
 70
3
  0
LAYER
  5
10
100
AcDbSymbolTableRecord
100
AcDbLayerTableRecord
  2
0
 70
0
 62
7
  6
CONTINUOUS
370
0
390
F
  0
LAYER
  5
43
100
AcDbSymbolTableRecord
100
AcDbLayerTableRecord
  2
Plates 2
 70
0
 62
7
  6
ByLayer
390
F
  0
LAYER
  5
44
100
AcDbSymbolTableRecord
100
AcDbLayerTableRecord
  2
Group#9
 70
0
 62
7
  6
ByLayer
390
F
  0
ENDTAB
  0
TABLE
  2
STYLE
  5
3
100
AcDbSymbolTable
 70
1
  0
STYLE
  5
11
100
AcDbSymbolTableRecord
100
AcDbTextStyleTableRecord
  2
Standard
 70
0
 40
0.0
 41
0.75
 50
0.0
 71
0
 42
2.5
  3
txt
  4

  0
ENDTAB
  0
TABLE
  2
VIEW
  5
6
100
AcDbSymbolTable
 70
0
  0
ENDTAB
  0
TABLE
  2
UCS
  5
7
100
AcDbSymbolTable
 70
0
  0
ENDTAB
  0
TABLE
  2
APPID
  5
9
100
AcDbSymbolTable
 70
1
  0
APPID
  5
12
100
AcDbSymbolTableRecord
100
AcDbRegAppTableRecord
  2
ACAD
 70
0
  0
ENDTAB
  0
TABLE
  2
DIMSTYLE
  5
A
100
AcDbSymbolTable
 70
1
100
AcDbDimStyleTable
 71
0
  0
DIMSTYLE
105
27
100
AcDbSymbolTableRecord
100
AcDbDimStyleTableRecord
  2
Standard
 41
0.1
 42
0.025
 43
3.75
 44
0.05
 70
0
 73
0
 74
0
 77
1
 78
8
140
0.1
141
2.5
143
0.03937007874016
147
0.025
171
3
172
1
271
2
272
2
274
3
278
44
283
0
284
8
340
11
  0
ENDTAB
  0
TABLE
  2
BLOCK_RECORD
  5
1
100
AcDbSymbolTable
 70
1
  0
BLOCK_RECORD
  5
1F
100
AcDbSymbolTableRecord
100
AcDbBlockTableRecord
  2
*Model_Space
340
22
  0
BLOCK_RECORD
  5
1B
100
AcDbSymbolTableRecord
100
AcDbBlockTableRecord
  2
*Paper_Space
340
1E
  0
BLOCK_RECORD
  5
23
100
AcDbSymbolTableRecord
100
AcDbBlockTableRecord
  2
*Paper_Space0
340
26
  0
ENDTAB
  0
ENDSEC
  0
SECTION
  2
BLOCKS
  0
BLOCK
  5
20
100
AcDbEntity
  8
0
100
AcDbBlockBegin
  2
*Model_Space
 70
0
 10
0.0
 20
0.0
 30
0.0
  3
*Model_Space
  1

  0
ENDBLK
  5
21
100
AcDbEntity
  8
0
100
AcDbBlockEnd
  0
BLOCK
  5
1C
100
AcDbEntity
 67
1
  8
0
100
AcDbBlockBegin
  2
*Paper_Space
 70
0
 10
0.0
 20
0.0
 30
0.0
  3
*Paper_Space
  1

  0
ENDBLK
  5
1D
100
AcDbEntity
 67
1
  8
0
100
AcDbBlockEnd
  0
BLOCK
  5
24
100
AcDbEntity
  8
0
100
AcDbBlockBegin
  2
*Paper_Space0
 70
0
 10
0.0
 20
0.0
 30
0.0
  3
*Paper_Space0
  1

  0
ENDBLK
  5
25
100
AcDbEntity
  8
0
100
AcDbBlockEnd
  0
ENDSEC
  0
SECTION
  2
ENTITIES
  0
LINE
  5
45
100
AcDbEntity
100
AcDbLine
  8
Group#9
 62
256
370
-1
  6
ByLayer
 10
52.23359085772789
 20
15.6748049668278018
 30
0.0
 11
52.2315274109673524
 21
15.6748089842531186
 31
0.0
  0
LINE
  5
46
100
AcDbEntity
100
AcDbLine
  8
Group#9
 62
256
370
-1
  6
ByLayer
 10
52.3387163407053606
 20
16.4814302857319959
 30
0.0
 11
52.4318553215108594
 21
16.5728021758943882
 31
0.0
  0
LINE
  5
47
100
AcDbEntity
100
AcDbLine
  8
Group#9
 62
256
370
-1
  6
ByLayer
 10
52.6718538647972636
 20
16.6695520077283028
 30
0.0
 11
52.8023579231696658
 21
16.6683366082468893
 31
0.0
  0
LINE
  5
48
100
AcDbEntity
100
AcDbLine
  8
Group#9
 62
256
370
-1
  6
ByLayer
 10
52.2362483916150282
 20
16.1129676586427486
 30
0.0
 11
52.2374627430832277
 21
16.2434024244115065
 31
0.0
  0
LINE
  5
49
100
AcDbEntity
100
AcDbLine
  8
Group#9
 62
256
370
-1
  6
ByLayer
 10
52.2473465557508376
 20
15.0457016509065884
 30
0.0
 11
52.2305599098548683
 21
15.1750753922629649
 31
0.0
  0
LINE
  5
4A
100
AcDbEntity
100
AcDbLine
  8
Group#9
 62
256
370
-1
  6
ByLayer
 10
53.1319351489024712
 20
16.4740429466705969
 30
0.0
 11
53.1961355188680898
 21
16.3604754262374925
 31
0.0
  0
LINE
  5
4B
100
AcDbEntity
100
AcDbLine
  8
Group#9
 62
256
370
-1
  6
ByLayer
 10
52.2362483916150282
 20
16.1129676586427486
 30
0.0
 11
52.2336889433195921
 21
15.6909768949144315
 31
0.0
  0
LINE
  5
4C
100
AcDbEntity
100
AcDbLine
  8
Group#9
 62
256
370
-1
  6
ByLayer
 10
52.2374627430832277
 20
16.2434024244115065
 30
0.0
 11
52.272412652298577
 21
16.3690781647803085
 31
0.0
  0
LINE
  5
4D
100
AcDbEntity
100
AcDbLine
  8
Group#9
 62
256
370
-1
  6
ByLayer
 10
52.5454823270924436
 20
16.6369669919522032
 30
0.0
 11
52.6718538647972636
 21
16.6695520077283028
 31
0.0
  0
LINE
  5
4E
100
AcDbEntity
100
AcDbLine
  8
Group#9
 62
256
370
-1
  6
ByLayer
 10
53.1961355188680898
 20
16.3604754262374925
 30
0.0
 11
53.2287394811926546
 21
16.23417054880235
 31
0.0
  0
LINE
  5
4F
100
AcDbEntity
100
AcDbLine
  8
Group#9
 62
256
370
-1
  6
ByLayer
 10
52.4318553215108594
 20
16.5728021758943882
 30
0.0
 11
52.5454823270924436
 21
16.6369669919522032
 31
0.0
  0
LINE
  5
50
100
AcDbEntity
100
AcDbLine
  8
Group#9
 62
256
370
-1
  6
ByLayer
 10
52.2334987345956279
 20
15.6596161032693395
 30
0.0
 11
52.2315274109673524
 21
15.6748089842531186
 31
0.0
  0
LINE
  5
51
100
AcDbEntity
100
AcDbLine
  8
Group#9
 62
256
370
-1
  6
ByLayer
 10
52.2336889433195921
 20
15.6909768949144315
 30
0.0
 11
52.23359085772789
 21
15.6748049668278018
 31
0.0
  0
LINE
  5
52
100
AcDbEntity
100
AcDbLine
  8
Group#9
 62
256
370
-1
  6
ByLayer
 10
53.2287394811926546
 20
16.23417054880235
 30
0.0
 11
53.2275251297243486
 21
16.1037357830335921
 31
0.0
  0
LINE
  5
53
100
AcDbEntity
100
AcDbLine
  8
Group#9
 62
256
370
-1
  6
ByLayer
 10
52.272412652298577
 20
16.3690781647803085
 30
0.0
 11
52.3387163407053606
 21
16.4814302857319959
 31
0.0
  0
LINE
  5
54
100
AcDbEntity
100
AcDbLine
  8
Group#9
 62
256
370
-1
  6
ByLayer
 10
53.2305579585028923
 20
15.1731284472215151
 30
0.0
 11
53.2132704971786481
 21
15.0438210464087234
 31
0.0
  0
LINE
  5
55
100
AcDbEntity
100
AcDbLine
  8
Group#9
 62
256
370
-1
  6
ByLayer
 10
52.8023579231696658
 20
16.6683366082468893
 30
0.0
 11
52.9281008662996229
 21
16.6334036209741392
 31
0.0
  0
LINE
  5
56
100
AcDbEntity
100
AcDbLine
  8
Group#9
 62
256
370
-1
  6
ByLayer
 10
52.9281008662996229
 20
16.6334036209741392
 30
0.0
 11
53.0405135204129934
 21
16.5671336712631962
 31
0.0
  0
LINE
  5
57
100
AcDbEntity
100
AcDbLine
  8
Group#9
 62
256
370
-1
  6
ByLayer
 10
53.0405135204129934
 20
16.5671336712631962
 30
0.0
 11
53.1319351489024712
 21
16.4740429466705969
 31
0.0
  0
LINE
  5
58
100
AcDbEntity
100
AcDbLine
  8
Group#9
 62
256
370
-1
  6
ByLayer
 10
52.23359085772789
 20
15.6748049668278018
 30
0.0
 11
52.2334987345956279
 21
15.6596161032693395
 31
0.0
  0
LINE
  5
59
100
AcDbEntity
100
AcDbLine
  8
Group#9
 62
256
370
-1
  6
ByLayer
 10
64.7324705201800299
 20
16.1502057632253226
 30
0.0
 11
64.8618468234067649
 21
16.1329258007744727
 31
0.0
  0
LINE
  5
5A
100
AcDbEntity
100
AcDbLine
  8
Group#9
 62
256
370
-1
  6
ByLayer
 10
64.6030282833513638
 20
16.1334297072309205
 30
0.0
 11
64.7324705201800299
 21
16.1502057632253226
 31
0.0
  0
LINE
  5
5B
100
AcDbEntity
100
AcDbLine
  8
Group#9
 62
256
370
-1
  6
ByLayer
 10
64.2989749126917474
 20
15.9011820191631088
 30
0.0
 11
64.3786344449788857
 21
16.0045255319388673
 31
0.0
  0
LINE
  5
5C
100
AcDbEntity
100
AcDbLine
  8
Group#9
 62
256
370
-1
  6
ByLayer
 10
64.3786344449788857
 20
16.0045255319388673
 30
0.0
 11
64.4823413874471498
 21
16.08374089328343
 31
0.0
  0
LINE
  5
5D
100
AcDbEntity
100
AcDbLine
  8
Group#9
 62
256
370
-1
  6
ByLayer
 10
64.4823413874471498
 20
16.08374089328343
 30
0.0
 11
64.6030282833513638
 21
16.1334297072309205
 31
0.0
  0
LINE
  5
5E
100
AcDbEntity
100
AcDbLine
  8
Group#9
 62
256
370
-1
  6
ByLayer
 10
64.8618468234067649
 20
16.1329258007744727
 30
0.0
 11
64.9823404117711902
 21
16.0827674207627567
 31
0.0
  0
LINE
  5
5F
100
AcDbEntity
100
AcDbLine
  8
Group#9
 62
256
370
-1
  6
ByLayer
 10
64.2315039947435906
 20
15.6514456437559417
 30
0.0
 11
64.2487914560677353
 21
15.7807530445686357
 31
0.0
  0
LINE
  5
60
100
AcDbEntity
100
AcDbLine
  8
Group#9
 62
256
370
-1
  6
ByLayer
 10
64.2487914560677353
 20
15.7807530445686357
 30
0.0
 11
64.2989749126917474
 21
15.9011820191631088
 31
0.0
  0
LINE
  5
61
100
AcDbEntity
100
AcDbLine
  8
Group#9
 62
256
370
-1
  6
ByLayer
 10
65.0857398463511743
 20
16.0031488338974519
 30
0.0
 11
65.1649986265558425
 21
15.8994959152974804
 31
0.0
  0
LINE
  5
62
100
AcDbEntity
100
AcDbLine
  8
Group#9
 62
256
370
-1
  6
ByLayer
 10
65.2147153974955529
 20
15.7788724400707743
 30
0.0
 11
65.2315020433916146
 21
15.6494986987144955
 31
0.0
  0
LINE
  5
63
100
AcDbEntity
100
AcDbLine
  8
Group#9
 62
256
370
-1
  6
ByLayer
 10
52.2315274109673524
 20
15.6748089842531186
 30
0.0
 11
52.2336889433195921
 21
15.6909768949144315
 31
0.0
  0
LINE
  5
64
100
AcDbEntity
100
AcDbLine
  8
Group#9
 62
256
370
-1
  6
ByLayer
 10
57.2305501530948675
 20
15.1653406670558244
 30
0.0
 11
57.2156985094238593
 21
16.2941815923924089
 31
0.0
  0
LINE
  5
65
100
AcDbEntity
100
AcDbLine
  8
Group#9
 62
256
370
-1
  6
ByLayer
 10
61.2305448954495546
 20
15.1588688569861088
 30
0.0
 11
61.2177875989438789
 21
16.2184967323680098
 31
0.0
  0
LINE
  5
66
100
AcDbEntity
100
AcDbLine
  8
Group#9
 62
256
370
-1
  6
ByLayer
 10
64.9823404117711902
 20
16.0827674207627567
 30
0.0
 11
65.0857398463511743
 21
16.0031488338974519
 31
0.0
  0
LINE
  5
67
100
AcDbEntity
100
AcDbLine
  8
Group#9
 62
256
370
-1
  6
ByLayer
 10
65.1649986265558425
 20
15.8994959152974804
 30
0.0
 11
65.2147153974955529
 21
15.7788724400707743
 31
0.0
  0
LINE
  5
68
100
AcDbEntity
100
AcDbLine
  8
Group#9
 62
256
370
-1
  6
ByLayer
 10
60.2328284692220421
 20
15.6592308604342847
 30
0.0
 11
60.2286613797656116
 21
15.6592389735443369
 31
0.0
  0
LINE
  5
69
100
AcDbEntity
100
AcDbLine
  8
Group#9
 62
256
370
-1
  6
ByLayer
 10
61.0295616381642247
 20
16.5514598548289555
 30
0.0
 11
61.1209832666537949
 21
16.4583691302362531
 31
0.0
  0
LINE
  5
6A
100
AcDbEntity
100
AcDbLine
  8
Group#9
 62
256
370
-1
  6
ByLayer
 10
61.185183636619314
 20
16.3448016098031488
 30
0.0
 11
61.2177875989438789
 21
16.2184967323680098
 31
0.0
  0
LINE
  5
6B
100
AcDbEntity
100
AcDbLine
  8
Group#9
 62
256
370
-1
  6
ByLayer
 10
61.1209832666537949
 20
16.4583691302362531
 30
0.0
 11
61.185183636619314
 21
16.3448016098031488
 31
0.0
  0
LINE
  5
6C
100
AcDbEntity
100
AcDbLine
  8
Group#9
 62
256
370
-1
  6
ByLayer
 10
60.9171489840509466
 20
16.6177298045398985
 30
0.0
 11
61.0295616381642247
 21
16.5514598548289555
 31
0.0
  0
LINE
  5
6D
100
AcDbEntity
100
AcDbLine
  8
Group#9
 62
256
370
-1
  6
ByLayer
 10
60.7914060409208901
 20
16.6526627918126451
 30
0.0
 11
60.9171489840509466
 21
16.6177298045398985
 31
0.0
  0
LINE
  5
6E
100
AcDbEntity
100
AcDbLine
  8
Group#9
 62
256
370
-1
  6
ByLayer
 10
60.2473334926976136
 20
15.031442060671278
 30
0.0
 11
60.2305468468015377
 21
15.1608158020275567
 31
0.0
  0
LINE
  5
6F
100
AcDbEntity
100
AcDbLine
  8
Group#9
 62
256
370
-1
  6
ByLayer
 10
60.2265108608345585
 20
16.2277286079771628
 30
0.0
 11
60.2614607700499008
 21
16.3534043483459648
 31
0.0
  0
LINE
  5
70
100
AcDbEntity
100
AcDbLine
  8
Group#9
 62
256
370
-1
  6
ByLayer
 10
60.2614607700499008
 20
16.3534043483459648
 30
0.0
 11
60.3277644584566914
 21
16.4657564692976557
 31
0.0
  0
LINE
  5
71
100
AcDbEntity
100
AcDbLine
  8
Group#9
 62
256
370
-1
  6
ByLayer
 10
60.3277644584566914
 20
16.4657564692976557
 30
0.0
 11
60.4209034392620836
 21
16.5571283594600516
 31
0.0
  0
LINE
  5
72
100
AcDbEntity
100
AcDbLine
  8
Group#9
 62
256
370
-1
  6
ByLayer
 10
60.4209034392620836
 20
16.5571283594600516
 30
0.0
 11
60.5345304448436679
 21
16.621293175517863
 31
0.0
  0
LINE
  5
73
100
AcDbEntity
100
AcDbLine
  8
Group#9
 62
256
370
-1
  6
ByLayer
 10
60.5345304448436679
 20
16.621293175517863
 30
0.0
 11
60.6609019825484879
 21
16.6538781912939626
 31
0.0
  0
LINE
  5
74
100
AcDbEntity
100
AcDbLine
  8
Group#9
 62
256
370
-1
  6
ByLayer
 10
60.6609019825484879
 20
16.6538781912939626
 30
0.0
 11
60.7914060409208901
 21
16.6526627918126451
 31
0.0
  0
LINE
  5
75
100
AcDbEntity
100
AcDbLine
  8
Group#9
 62
256
370
-1
  6
ByLayer
 10
61.2305448954495546
 20
15.1588688569861088
 30
0.0
 11
61.213257434125417
 21
15.0295614561734183
 31
0.0
  0
LINE
  5
76
100
AcDbEntity
100
AcDbLine
  8
Group#9
 62
256
370
-1
  6
ByLayer
 10
57.165981738484156
 20
16.4148050676190209
 30
0.0
 11
57.2156985094238593
 21
16.2941815923924089
 31
0.0
  0
LINE
  5
77
100
AcDbEntity
100
AcDbLine
  8
Group#9
 62
256
370
-1
  6
ByLayer
 10
57.0867229582794877
 20
16.5184579862190937
 30
0.0
 11
57.165981738484156
 21
16.4148050676190209
 31
0.0
  0
LINE
  5
78
100
AcDbEntity
100
AcDbLine
  8
Group#9
 62
256
370
-1
  6
ByLayer
 10
56.8628299353351991
 20
16.6482349530961145
 30
0.0
 11
56.9833235236995108
 21
16.5980765730843913
 31
0.0
  0
LINE
  5
79
100
AcDbEntity
100
AcDbLine
  8
Group#9
 62
256
370
-1
  6
ByLayer
 10
56.7334536321083505
 20
16.6655149155469644
 30
0.0
 11
56.8628299353351991
 21
16.6482349530961145
 31
0.0
  0
LINE
  5
7A
100
AcDbEntity
100
AcDbLine
  8
Group#9
 62
256
370
-1
  6
ByLayer
 10
56.2999580246200679
 20
16.416491171484747
 30
0.0
 11
56.3796175569072133
 21
16.5198346842605055
 31
0.0
  0
LINE
  5
7B
100
AcDbEntity
100
AcDbLine
  8
Group#9
 62
256
370
-1
  6
ByLayer
 10
56.2497745679960488
 20
16.2960621968902757
 30
0.0
 11
56.2999580246200679
 21
16.416491171484747
 31
0.0
  0
LINE
  5
7C
100
AcDbEntity
100
AcDbLine
  8
Group#9
 62
256
370
-1
  6
ByLayer
 10
56.2324871066719112
 20
16.1667547960775764
 30
0.0
 11
56.2497745679960488
 21
16.2960621968902757
 31
0.0
  0
LINE
  5
7D
100
AcDbEntity
100
AcDbLine
  8
Group#9
 62
256
370
-1
  6
ByLayer
 10
56.4833244993754491
 20
16.5990500456050682
 30
0.0
 11
56.6040113952796773
 21
16.6487388595525587
 31
0.0
  0
LINE
  5
7E
100
AcDbEntity
100
AcDbLine
  8
Group#9
 62
256
370
-1
  6
ByLayer
 10
56.6040113952796773
 20
16.6487388595525587
 30
0.0
 11
56.7334536321083505
 21
16.6655149155469644
 31
0.0
  0
LINE
  5
7F
100
AcDbEntity
100
AcDbLine
  8
Group#9
 62
256
370
-1
  6
ByLayer
 10
50.7431403513452466
 20
21.6745325056971936
 30
0.0
 11
50.7276603335453444
 21
13.6787950338546231
 31
0.0
  0
LINE
  5
80
100
AcDbEntity
100
AcDbLine
  8
Group#9
 62
256
370
-1
  6
ByLayer
 10
50.7276603335453444
 20
13.6787950338546231
 30
0.0
 11
66.7276291119136715
 21
13.6476439131916489
 31
0.0
  0
LINE
  5
81
100
AcDbEntity
100
AcDbLine
  8
Group#9
 62
256
370
-1
  6
ByLayer
 10
56.9833235236995108
 20
16.5980765730843913
 30
0.0
 11
57.0867229582794877
 21
16.5184579862190937
 31
0.0
  0
LINE
  5
82
100
AcDbEntity
100
AcDbLine
  8
Group#9
 62
256
370
-1
  6
ByLayer
 10
56.3796175569072133
 20
16.5198346842605055
 30
0.0
 11
56.4833244993754491
 21
16.5990500456050682
 31
0.0
  0
LINE
  5
83
100
AcDbEntity
100
AcDbLine
  8
Group#9
 62
256
370
-1
  6
ByLayer
 10
53.2275251297243486
 20
16.1037357830335921
 30
0.0
 11
53.2273260904440377
 21
16.0874450068745922
 31
0.0
  0
LINE
  5
84
100
AcDbEntity
100
AcDbLine
  8
Group#9
 62
256
370
-1
  6
ByLayer
 10
53.2285404419123438
 20
16.2178797726432506
 30
0.0
 11
53.2273260904440377
 21
16.0874450068745922
 31
0.0
  0
LINE
  5
85
100
AcDbEntity
100
AcDbLine
  8
Group#9
 62
256
370
-1
  6
ByLayer
 10
53.2287394811926546
 20
16.23417054880235
 30
0.0
 11
53.2285404419123438
 21
16.2178797726432506
 31
0.0
  0
LINE
  5
86
100
AcDbEntity
100
AcDbLine
  8
Group#9
 62
256
370
-1
  6
ByLayer
 10
60.6000030275059558
 20
14.6610979238085726
 30
0.0
 11
60.4795094391416441
 21
14.7112563038201944
 31
0.0
  0
LINE
  5
87
100
AcDbEntity
100
AcDbLine
  8
Group#9
 62
256
370
-1
  6
ByLayer
 10
52.6000160905592935
 20
14.6753575140438794
 30
0.0
 11
52.4795225021948752
 21
14.7255158940556008
 31
0.0
  0
LINE
  5
88
100
AcDbEntity
100
AcDbLine
  8
Group#9
 62
256
370
-1
  6
ByLayer
 10
52.2473465557508376
 20
15.0457016509065884
 30
0.0
 11
52.2471475164705268
 21
15.0294108747475832
 31
0.0
  0
LINE
  5
89
100
AcDbEntity
100
AcDbLine
  8
Group#9
 62
256
370
-1
  6
ByLayer
 10
52.2968642874102301
 20
14.9087873995208735
 30
0.0
 11
52.2471475164705268
 21
15.0294108747475832
 31
0.0
  0
LINE
  5
8A
100
AcDbEntity
100
AcDbLine
  8
Group#9
 62
256
370
-1
  6
ByLayer
 10
52.2374627430832277
 20
16.2434024244115065
 30
0.0
 11
52.2372637038029168
 21
16.2271116482524
 31
0.0
  0
LINE
  5
8B
100
AcDbEntity
100
AcDbLine
  8
Group#9
 62
256
370
-1
  6
ByLayer
 10
53.2132704971786481
 20
15.0438210464087234
 30
0.0
 11
53.2130714578983373
 21
15.0275302702497235
 31
0.0
  0
LINE
  5
8C
100
AcDbEntity
100
AcDbLine
  8
Group#9
 62
256
370
-1
  6
ByLayer
 10
53.2303589192225814
 20
15.1568376710624104
 30
0.0
 11
53.2130714578983373
 21
15.0275302702497235
 31
0.0
  0
LINE
  5
8D
100
AcDbEntity
100
AcDbLine
  8
Group#9
 62
256
370
-1
  6
ByLayer
 10
53.2305579585028923
 20
15.1731284472215151
 30
0.0
 11
53.2303589192225814
 21
15.1568376710624104
 31
0.0
  0
LINE
  5
8E
100
AcDbEntity
100
AcDbLine
  8
Group#9
 62
256
370
-1
  6
ByLayer
 10
53.0832284689872722
 20
14.8037577828794884
 30
0.0
 11
52.979521526518937
 21
14.7245424215349257
 31
0.0
  0
LINE
  5
8F
100
AcDbEntity
100
AcDbLine
  8
Group#9
 62
256
370
-1
  6
ByLayer
 10
53.2130714578983373
 20
15.0275302702497235
 30
0.0
 11
53.1628880012743252
 21
14.9071012956552451
 31
0.0
  0
LINE
  5
90
100
AcDbEntity
100
AcDbLine
  8
Group#9
 62
256
370
-1
  6
ByLayer
 10
52.2362483916150282
 20
16.1129676586427486
 30
0.0
 11
52.2360493523347174
 21
16.0966768824837487
 31
0.0
  0
LINE
  5
91
100
AcDbEntity
100
AcDbLine
  8
Group#9
 62
256
370
-1
  6
ByLayer
 10
52.2336889433195921
 20
15.6909768949144315
 30
0.0
 11
52.2334899040392813
 21
15.6746861187553286
 31
0.0
  0
LINE
  5
92
100
AcDbEntity
100
AcDbLine
  8
Group#9
 62
256
370
-1
  6
ByLayer
 10
64.8597787155034382
 20
15.1512238590804138
 30
0.0
 11
64.7303364786747721
 21
15.1344478030860099
 31
0.0
  0
LINE
  5
93
100
AcDbEntity
100
AcDbLine
  8
Group#9
 62
256
370
-1
  6
ByLayer
 10
57.213063652490419
 20
15.0197424900839298
 30
0.0
 11
57.1628801958663999
 21
14.899313515489558
 31
0.0
  0
LINE
  5
94
100
AcDbEntity
100
AcDbLine
  8
Group#9
 62
256
370
-1
  6
ByLayer
 10
57.2132626917707299
 20
15.0360332662430327
 30
0.0
 11
57.213063652490419
 21
15.0197424900839298
 31
0.0
  0
LINE
  5
95
100
AcDbEntity
100
AcDbLine
  8
Group#9
 62
256
370
-1
  6
ByLayer
 10
64.4804665870835976
 20
15.2018861455485776
 30
0.0
 11
64.3770671525036278
 21
15.2815047324138806
 31
0.0
  0
LINE
  5
96
100
AcDbEntity
100
AcDbLine
  8
Group#9
 62
256
370
-1
  6
ByLayer
 10
56.8588268252067977
 20
14.6670658274217445
 30
0.0
 11
56.7293845883781174
 21
14.6502897714272393
 31
0.0
  0
LINE
  5
97
100
AcDbEntity
100
AcDbLine
  8
Group#9
 62
256
370
-1
  6
ByLayer
 10
53.1628880012743252
 20
14.9071012956552451
 30
0.0
 11
53.0832284689872722
 21
14.8037577828794884
 31
0.0
  0
LINE
  5
98
100
AcDbEntity
100
AcDbLine
  8
Group#9
 62
256
370
-1
  6
ByLayer
 10
52.2315274109673524
 20
15.6748089842531186
 30
0.0
 11
52.2313283716870416
 21
15.6585182080940157
 31
0.0
  0
LINE
  5
99
100
AcDbEntity
100
AcDbLine
  8
Group#9
 62
256
370
-1
  6
ByLayer
 10
52.233299695315317
 20
15.6433253271102366
 30
0.0
 11
52.2313283716870416
 21
15.6585182080940157
 31
0.0
  0
LINE
  5
9A
100
AcDbEntity
100
AcDbLine
  8
Group#9
 62
256
370
-1
  6
ByLayer
 10
52.2308603164818024
 20
15.2246051374720555
 30
0.0
 11
52.2305599098548683
 21
15.1750753922629649
 31
0.0
  0
LINE
  5
9B
100
AcDbEntity
100
AcDbLine
  8
Group#9
 62
256
370
-1
  6
ByLayer
 10
52.2308603164818024
 20
15.2246051374720555
 30
0.0
 11
52.2306612772014915
 21
15.2083143613129543
 31
0.0
  0
LINE
  5
9C
100
AcDbEntity
100
AcDbLine
  8
Group#9
 62
256
370
-1
  6
ByLayer
 10
52.2306612772014915
 20
15.2083143613129543
 30
0.0
 11
52.2303608705745575
 21
15.1587846161038655
 31
0.0
  0
LINE
  5
9D
100
AcDbEntity
100
AcDbLine
  8
Group#9
 62
256
370
-1
  6
ByLayer
 10
52.2305599098548683
 20
15.1750753922629649
 30
0.0
 11
52.2303608705745575
 21
15.1587846161038655
 31
0.0
  0
LINE
  5
9E
100
AcDbEntity
100
AcDbLine
  8
Group#9
 62
256
370
-1
  6
ByLayer
 10
60.3761100045615606
 20
14.7908748906855951
 30
0.0
 11
60.296851224356999
 21
14.8945278092855666
 31
0.0
  0
LINE
  5
9F
100
AcDbEntity
100
AcDbLine
  8
Group#9
 62
256
370
-1
  6
ByLayer
 10
57.0832206635792616
 20
14.7959700027137941
 30
0.0
 11
56.9795137211110188
 21
14.7167546413691337
 31
0.0
  0
LINE
  5
A0
100
AcDbEntity
100
AcDbLine
  8
Group#9
 62
256
370
-1
  6
ByLayer
 10
64.3770671525036278
 20
15.2815047324138806
 30
0.0
 11
64.2978083722989595
 21
15.3851576510138504
 31
0.0
  0
LINE
  5
A1
100
AcDbEntity
100
AcDbLine
  8
Group#9
 62
256
370
-1
  6
ByLayer
 10
56.479514696786957
 20
14.7177281138899101
 30
0.0
 11
56.3761152622069872
 21
14.7973467007552077
 31
0.0
  0
LINE
  5
A2
100
AcDbEntity
100
AcDbLine
  8
Group#9
 62
256
370
-1
  6
ByLayer
 10
57.1628801958663999
 20
14.899313515489558
 30
0.0
 11
57.0832206635792616
 21
14.7959700027137941
 31
0.0
  0
LINE
  5
A3
100
AcDbEntity
100
AcDbLine
  8
Group#9
 62
256
370
-1
  6
ByLayer
 10
53.2303589192225814
 20
15.1568376710624104
 30
0.0
 11
53.2273260904440377
 21
16.0874450068745922
 31
0.0
  0
LINE
  5
A4
100
AcDbEntity
100
AcDbLine
  8
Group#9
 62
256
370
-1
  6
ByLayer
 10
61.213257434125417
 20
15.0295614561734183
 30
0.0
 11
61.2130583948451061
 21
15.0132706800143154
 31
0.0
  0
LINE
  5
A5
100
AcDbEntity
100
AcDbLine
  8
Group#9
 62
256
370
-1
  6
ByLayer
 10
61.2303458561692437
 20
15.1425780808271071
 30
0.0
 11
61.2130583948451061
 21
15.0132706800143154
 31
0.0
  0
LINE
  5
A6
100
AcDbEntity
100
AcDbLine
  8
Group#9
 62
256
370
-1
  6
ByLayer
 10
61.2305448954495546
 20
15.1588688569861088
 30
0.0
 11
61.2303458561692437
 21
15.1425780808271071
 31
0.0
  0
LINE
  5
A7
100
AcDbEntity
100
AcDbLine
  8
Group#9
 62
256
370
-1
  6
ByLayer
 10
64.2315039947435906
 20
15.6514456437559417
 30
0.0
 11
64.2313049554632727
 21
15.635154867596837
 31
0.0
  0
LINE
  5
A8
100
AcDbEntity
100
AcDbLine
  8
Group#9
 62
256
370
-1
  6
ByLayer
 10
64.9804656114076664
 20
15.2009126730278048
 30
0.0
 11
64.8597787155034382
 21
15.1512238590804138
 31
0.0
  0
LINE
  5
A9
100
AcDbEntity
100
AcDbLine
  8
Group#9
 62
256
370
-1
  6
ByLayer
 10
52.3761230676148983
 20
14.8051344809209002
 30
0.0
 11
52.2968642874102301
 21
14.9087873995208735
 31
0.0
  0
LINE
  5
AA
100
AcDbEntity
100
AcDbLine
  8
Group#9
 62
256
370
-1
  6
ByLayer
 10
61.2177875989438789
 20
16.2184967323680098
 30
0.0
 11
61.2175885596635609
 21
16.2022059562090064
 31
0.0
  0
LINE
  5
AB
100
AcDbEntity
100
AcDbLine
  8
Group#9
 62
256
370
-1
  6
ByLayer
 10
52.8588346306147088
 20
14.6748536075874387
 30
0.0
 11
52.7293923937860356
 21
14.6580775515930348
 31
0.0
  0
LINE
  5
AC
100
AcDbEntity
100
AcDbLine
  8
Group#9
 62
256
370
-1
  6
ByLayer
 10
56.2497745679960488
 20
16.2960621968902757
 30
0.0
 11
56.249575528715738
 21
16.2797714207312723
 31
0.0
  0
LINE
  5
AD
100
AcDbEntity
100
AcDbLine
  8
Group#9
 62
256
370
-1
  6
ByLayer
 10
52.979521526518937
 20
14.7245424215349257
 30
0.0
 11
52.8588346306147088
 21
14.6748536075874387
 31
0.0
  0
LINE
  5
AE
100
AcDbEntity
100
AcDbLine
  8
Group#9
 62
256
370
-1
  6
ByLayer
 10
64.2480916013592633
 20
15.50578112624056
 30
0.0
 11
64.2313049554632727
 21
15.635154867596837
 31
0.0
  0
LINE
  5
AF
100
AcDbEntity
100
AcDbLine
  8
Group#9
 62
256
370
-1
  6
ByLayer
 10
64.2482906406395813
 20
15.5220719023995652
 30
0.0
 11
64.2480916013592633
 21
15.50578112624056
 31
0.0
  0
LINE
  5
B0
100
AcDbEntity
100
AcDbLine
  8
Group#9
 62
256
370
-1
  6
ByLayer
 10
56.2324871066719112
 20
16.1667547960775764
 30
0.0
 11
56.2322880673916004
 21
16.150464019918477
 31
0.0
  0
LINE
  5
B1
100
AcDbEntity
100
AcDbLine
  8
Group#9
 62
256
370
-1
  6
ByLayer
 10
56.2303530651665397
 20
15.1509968359381695
 30
0.0
 11
56.2322880673916004
 21
16.150464019918477
 31
0.0
  0
LINE
  5
B2
100
AcDbEntity
100
AcDbLine
  8
Group#9
 62
256
370
-1
  6
ByLayer
 10
56.2305521044468506
 20
15.1672876120971729
 30
0.0
 11
56.2303530651665397
 21
15.1509968359381695
 31
0.0
  0
LINE
  5
B3
100
AcDbEntity
100
AcDbLine
  8
Group#9
 62
256
370
-1
  6
ByLayer
 10
52.2313283716870416
 20
15.6585182080940157
 30
0.0
 11
52.2334899040392813
 21
15.6746861187553286
 31
0.0
  0
LINE
  5
B4
100
AcDbEntity
100
AcDbLine
  8
Group#9
 62
256
370
-1
  6
ByLayer
 10
57.2156985094238593
 20
16.2941815923924089
 30
0.0
 11
57.2154994701435484
 21
16.2778908162334091
 31
0.0
  0
LINE
  5
B5
100
AcDbEntity
100
AcDbLine
  8
Group#9
 62
256
370
-1
  6
ByLayer
 10
60.8588215675613782
 20
14.6605940173520271
 30
0.0
 11
60.729379330732705
 21
14.6438179613576267
 31
0.0
  0
LINE
  5
B6
100
AcDbEntity
100
AcDbLine
  8
Group#9
 62
256
370
-1
  6
ByLayer
 10
57.2303511138145566
 20
15.1490498908967233
 30
0.0
 11
57.213063652490419
 21
15.0197424900839298
 31
0.0
  0
LINE
  5
B7
100
AcDbEntity
100
AcDbLine
  8
Group#9
 62
256
370
-1
  6
ByLayer
 10
57.2305501530948675
 20
15.1653406670558244
 30
0.0
 11
57.2303511138145566
 21
15.1490498908967233
 31
0.0
  0
LINE
  5
B8
100
AcDbEntity
100
AcDbLine
  8
Group#9
 62
256
370
-1
  6
ByLayer
 10
60.2305468468015377
 20
15.1608158020275567
 30
0.0
 11
60.2303478075212269
 21
15.1445250258685551
 31
0.0
  0
LINE
  5
B9
100
AcDbEntity
100
AcDbLine
  8
Group#9
 62
256
370
-1
  6
ByLayer
 10
60.2471344534172957
 20
15.0151512845121733
 30
0.0
 11
60.2303478075212269
 21
15.1445250258685551
 31
0.0
  0
LINE
  5
BA
100
AcDbEntity
100
AcDbLine
  8
Group#9
 62
256
370
-1
  6
ByLayer
 10
60.2473334926976136
 20
15.031442060671278
 30
0.0
 11
60.2471344534172957
 21
15.0151512845121733
 31
0.0
  0
LINE
  5
BB
100
AcDbEntity
100
AcDbLine
  8
Group#9
 62
256
370
-1
  6
ByLayer
 10
56.2471397110626086
 20
15.0216230945817912
 30
0.0
 11
56.2303530651665397
 21
15.1509968359381695
 31
0.0
  0
LINE
  5
BC
100
AcDbEntity
100
AcDbLine
  8
Group#9
 62
256
370
-1
  6
ByLayer
 10
60.729379330732705
 20
14.6438179613576267
 30
0.0
 11
60.6000030275059558
 21
14.6610979238085726
 31
0.0
  0
LINE
  5
BD
100
AcDbEntity
100
AcDbLine
  8
Group#9
 62
256
370
-1
  6
ByLayer
 10
60.4795094391416441
 20
14.7112563038201944
 30
0.0
 11
60.3761100045615606
 21
14.7908748906855951
 31
0.0
  0
LINE
  5
BE
100
AcDbEntity
100
AcDbLine
  8
Group#9
 62
256
370
-1
  6
ByLayer
 10
56.2968564820023119
 20
14.900999619355181
 30
0.0
 11
56.2471397110626086
 21
15.0216230945817912
 31
0.0
  0
LINE
  5
BF
100
AcDbEntity
100
AcDbLine
  8
Group#9
 62
256
370
-1
  6
ByLayer
 10
60.9795084634656064
 20
14.7102828312995211
 30
0.0
 11
60.8588215675613782
 21
14.6605940173520271
 31
0.0
  0
LINE
  5
C0
100
AcDbEntity
100
AcDbLine
  8
Group#9
 62
256
370
-1
  6
ByLayer
 10
61.0832154059339416
 20
14.789498192644178
 30
0.0
 11
60.9795084634656064
 21
14.7102828312995211
 31
0.0
  0
LINE
  5
C1
100
AcDbEntity
100
AcDbLine
  8
Group#9
 62
256
370
-1
  6
ByLayer
 10
61.2130583948451061
 20
15.0132706800143154
 30
0.0
 11
61.1628749382209875
 21
14.8928417054199418
 31
0.0
  0
LINE
  5
C2
100
AcDbEntity
100
AcDbLine
  8
Group#9
 62
256
370
-1
  6
ByLayer
 10
56.7293845883781174
 20
14.6502897714272393
 30
0.0
 11
56.6000082851513682
 21
14.6675697338781905
 31
0.0
  0
LINE
  5
C3
100
AcDbEntity
100
AcDbLine
  8
Group#9
 62
256
370
-1
  6
ByLayer
 10
52.233299695315317
 20
15.6433253271102366
 30
0.0
 11
52.2306612772014915
 21
15.2083143613129543
 31
0.0
  0
LINE
  5
C4
100
AcDbEntity
100
AcDbLine
  8
Group#9
 62
256
370
-1
  6
ByLayer
 10
61.1628749382209875
 20
14.8928417054199418
 30
0.0
 11
61.0832154059339416
 21
14.789498192644178
 31
0.0
  0
LINE
  5
C5
100
AcDbEntity
100
AcDbLine
  8
Group#9
 62
256
370
-1
  6
ByLayer
 10
50.7276603335453444
 20
13.6787950338546231
 30
0.0
 11
50.7274612942650336
 21
13.662504257695522
 31
0.0
  0
LINE
  5
C6
100
AcDbEntity
100
AcDbLine
  8
Group#9
 62
256
370
-1
  6
ByLayer
 10
50.7431403513452466
 20
21.6745325056971936
 30
0.0
 11
50.7429413120649286
 21
21.6582417295380907
 31
0.0
  0
LINE
  5
C7
100
AcDbEntity
100
AcDbLine
  8
Group#9
 62
256
370
-1
  6
ByLayer
 10
66.7429100904332557
 20
21.6270906088752142
 30
0.0
 11
50.7429413120649286
 21
21.6582417295380907
 31
0.0
  0
LINE
  5
C8
100
AcDbEntity
100
AcDbLine
  8
Group#9
 62
256
370
-1
  6
ByLayer
 10
66.7431091297135737
 20
21.6433813850342212
 30
0.0
 11
66.7429100904332557
 21
21.6270906088752142
 31
0.0
  0
LINE
  5
C9
100
AcDbEntity
100
AcDbLine
  8
Group#9
 62
256
370
-1
  6
ByLayer
 10
66.7274300726333678
 20
13.6313531370326526
 30
0.0
 11
66.7429100904332557
 21
21.6270906088752142
 31
0.0
  0
LINE
  5
CA
100
AcDbEntity
100
AcDbLine
  8
Group#9
 62
256
370
-1
  6
ByLayer
 10
66.7276291119136715
 20
13.6476439131916489
 30
0.0
 11
66.7274300726333678
 21
13.6313531370326526
 31
0.0
  0
LINE
  5
CB
100
AcDbEntity
100
AcDbLine
  8
Group#9
 62
256
370
-1
  6
ByLayer
 10
56.3761152622069872
 20
14.7973467007552077
 30
0.0
 11
56.2968564820023119
 21
14.900999619355181
 31
0.0
  0
LINE
  5
CC
100
AcDbEntity
100
AcDbLine
  8
Group#9
 62
256
370
-1
  6
ByLayer
 10
60.296851224356999
 20
14.8945278092855666
 30
0.0
 11
60.2471344534172957
 21
15.0151512845121733
 31
0.0
  0
LINE
  5
CD
100
AcDbEntity
100
AcDbLine
  8
Group#9
 62
256
370
-1
  6
ByLayer
 10
65.2313030041113109
 20
15.6332079225553908
 30
0.0
 11
65.2140155427870667
 21
15.5039005217425974
 31
0.0
  0
LINE
  5
CE
100
AcDbEntity
100
AcDbLine
  8
Group#9
 62
256
370
-1
  6
ByLayer
 10
65.2140155427870667
 20
15.5039005217425974
 30
0.0
 11
65.1638320861630547
 21
15.3834715471482255
 31
0.0
  0
LINE
  5
CF
100
AcDbEntity
100
AcDbLine
  8
Group#9
 62
256
370
-1
  6
ByLayer
 10
65.1638320861630547
 20
15.3834715471482255
 30
0.0
 11
65.0841725538760016
 21
15.2801280343724599
 31
0.0
  0
LINE
  5
D0
100
AcDbEntity
100
AcDbLine
  8
Group#9
 62
256
370
-1
  6
ByLayer
 10
65.0841725538760016
 20
15.2801280343724599
 30
0.0
 11
64.9804656114076664
 21
15.2009126730278048
 31
0.0
  0
LINE
  5
D1
100
AcDbEntity
100
AcDbLine
  8
Group#9
 62
256
370
-1
  6
ByLayer
 10
64.7303364786747721
 20
15.1344478030860099
 30
0.0
 11
64.6009601754480229
 21
15.1517277655368581
 31
0.0
  0
LINE
  5
D2
100
AcDbEntity
100
AcDbLine
  8
Group#9
 62
256
370
-1
  6
ByLayer
 10
64.6009601754480229
 20
15.1517277655368581
 30
0.0
 11
64.4804665870835976
 21
15.2018861455485776
 31
0.0
  0
LINE
  5
D3
100
AcDbEntity
100
AcDbLine
  8
Group#9
 62
256
370
-1
  6
ByLayer
 10
64.2978083722989595
 20
15.3851576510138504
 30
0.0
 11
64.2480916013592633
 21
15.50578112624056
 31
0.0
  0
LINE
  5
D4
100
AcDbEntity
100
AcDbLine
  8
Group#9
 62
256
370
-1
  6
ByLayer
 10
60.2303478075212269
 20
15.1445250258685551
 30
0.0
 11
60.2284623404853079
 21
15.6429481973852376
 31
0.0
  0
LINE
  5
D5
100
AcDbEntity
100
AcDbLine
  8
Group#9
 62
256
370
-1
  6
ByLayer
 10
60.2284623404853079
 20
15.6429481973852376
 30
0.0
 11
60.2263118215542406
 21
16.2114378318181593
 31
0.0
  0
LINE
  5
D6
100
AcDbEntity
100
AcDbLine
  8
Group#9
 62
256
370
-1
  6
ByLayer
 10
56.9795137211110188
 20
14.7167546413691337
 30
0.0
 11
56.8588268252067977
 21
14.6670658274217445
 31
0.0
  0
LINE
  5
D7
100
AcDbEntity
100
AcDbLine
  8
Group#9
 62
256
370
-1
  6
ByLayer
 10
56.6000082851513682
 20
14.6675697338781905
 30
0.0
 11
56.479514696786957
 21
14.7177281138899101
 31
0.0
  0
LINE
  5
D8
100
AcDbEntity
100
AcDbLine
  8
Group#9
 62
256
370
-1
  6
ByLayer
 10
52.7293923937860356
 20
14.6580775515930348
 30
0.0
 11
52.6000160905592935
 21
14.6753575140438794
 31
0.0
  0
LINE
  5
D9
100
AcDbEntity
100
AcDbLine
  8
Group#9
 62
256
370
-1
  6
ByLayer
 10
52.4795225021948752
 20
14.7255158940556008
 30
0.0
 11
52.3761230676148983
 21
14.8051344809209002
 31
0.0
  0
LINE
  5
DA
100
AcDbEntity
100
AcDbLine
  8
Group#9
 62
256
370
-1
  6
ByLayer
 10
52.2471475164705268
 20
15.0294108747475832
 30
0.0
 11
52.2303608705745575
 21
15.1587846161038655
 31
0.0
  0
LINE
  5
DB
100
AcDbEntity
100
AcDbLine
  8
Group#9
 62
256
370
-1
  6
ByLayer
 10
60.2614607700499008
 20
16.3534043483459648
 30
0.0
 11
60.2612617307695899
 21
16.3371135721869614
 31
0.0
  0
LINE
  5
DC
100
AcDbEntity
100
AcDbLine
  8
Group#9
 62
256
370
-1
  6
ByLayer
 10
60.2265108608345585
 20
16.2277286079771628
 30
0.0
 11
60.2263118215542406
 21
16.2114378318181593
 31
0.0
  0
LINE
  5
DD
100
AcDbEntity
100
AcDbLine
  8
Group#9
 62
256
370
-1
  6
ByLayer
 10
60.2286613797656116
 20
15.6592389735443369
 30
0.0
 11
60.2284623404853079
 21
15.6429481973852376
 31
0.0
  0
LINE
  5
DE
100
AcDbEntity
100
AcDbLine
  8
Group#9
 62
256
370
-1
  6
ByLayer
 10
65.2142145820673704
 20
15.5201912979017003
 30
0.0
 11
65.2140155427870667
 21
15.5039005217425974
 31
0.0
  0
LINE
  5
DF
100
AcDbEntity
100
AcDbLine
  8
Group#9
 62
256
370
-1
  6
ByLayer
 10
65.2315020433916146
 20
15.6494986987144955
 30
0.0
 11
65.2313030041113109
 21
15.6332079225553908
 31
0.0
  0
CIRCLE
  5
E0
100
AcDbEntity
100
AcDbCircle
  8
Group#9
 62
256
370
-1
  6
ByLayer
 10
51.3066308300440568
 20
20.6646624102174883
 30
0.0
 40
0.28
  0
CIRCLE
  5
E1
100
AcDbEntity
100
AcDbCircle
  8
Group#9
 62
256
370
-1
  6
ByLayer
 10
54.6816059236891192
 20
20.6571970721684934
 30
0.0
 40
0.28
  0
CIRCLE
  5
E2
100
AcDbEntity
100
AcDbCircle
  8
Group#9
 62
256
370
-1
  6
ByLayer
 10
58.0531521620356159
 20
20.6495213835211473
 30
0.0
 40
0.28
  0
CIRCLE
  5
E3
100
AcDbEntity
100
AcDbCircle
  8
Group#9
 62
256
370
-1
  6
ByLayer
 10
61.4279965478477408
 20
20.6415308717066139
 30
0.0
 40
0.28
  0
CIRCLE
  5
E4
100
AcDbEntity
100
AcDbCircle
  8
Group#9
 62
256
370
-1
  6
ByLayer
 10
64.8057867790098925
 20
20.6368460031474434
 30
0.0
 40
0.28
  0
CIRCLE
  5
E5
100
AcDbEntity
100
AcDbCircle
  8
Group#9
 62
256
370
-1
  6
CONTINUOUS
 10
52.7366283968761209
 20
19.6689521588235294
 30
0.0
 40
0.41
  0
CIRCLE
  5
E6
100
AcDbEntity
100
AcDbCircle
  8
Group#9
 62
256
370
-1
  6
CONTINUOUS
 10
56.7393800938318194
 20
19.6614563691288531
 30
0.0
 40
0.41
  0
CIRCLE
  5
E7
100
AcDbEntity
100
AcDbCircle
  8
Group#9
 62
256
370
-1
  6
CONTINUOUS
 10
60.7396431886090369
 20
19.6516818593670486
 30
0.0
 40
0.41
  0
CIRCLE
  5
E8
100
AcDbEntity
100
AcDbCircle
  8
Group#9
 62
256
370
-1
  6
CONTINUOUS
 10
64.7444337403616998
 20
19.6440061707197025
 30
0.0
 40
0.41
  0
ENDSEC
  0
SECTION
  2
OBJECTS
  0
DICTIONARY
  5
C
100
AcDbDictionary
280
0
281
1
  3
ACAD_GROUP
350
D
  3
ACAD_LAYOUT
350
1A
  3
ACAD_MLINESTYLE
350
17
  3
ACAD_PLOTSETTINGS
350
19
  3
ACAD_PLOTSTYLENAME
350
E
  3
AcDbVariableDictionary
350
E9
  0
DICTIONARY
  5
D
100
AcDbDictionary
280
0
281
1
  0
ACDBDICTIONARYWDFLT
  5
E
100
AcDbDictionary
281
1
  3
Normal
350
F
100
AcDbDictionaryWithDefault
340
F
  0
ACDBPLACEHOLDER
  5
F
  0
DICTIONARY
  5
17
100
AcDbDictionary
280
0
281
1
  3
Standard
350
18
  0
MLINESTYLE
  5
18
100
AcDbMlineStyle
  2
STANDARD
 70
0
  3

 62
256
 51
90.0
 52
90.0
 71
2
 49
0.5
 62
256
  6
BYLAYER
 49
-0.5
 62
256
  6
BYLAYER
  0
DICTIONARY
  5
19
100
AcDbDictionary
280
0
281
1
  0
DICTIONARY
  5
1A
100
AcDbDictionary
281
1
  3
Layout1
350
1E
  3
Layout2
350
26
  3
Model
350
22
  0
LAYOUT
  5
1E
100
AcDbPlotSettings
  1

  2
C:\Program Files\AutoCAD 2002\plotters\DWF ePlot (optimized for plotting).pc3
  4

  6

 40
0.0
 41
0.0
 42
0.0
 43
0.0
 44
0.0
 45
0.0
 46
0.0
 47
0.0
 48
0.0
 49
0.0
140
0.0
141
0.0
142
1.0
143
1.0
 70
688
 72
0
 73
0
 74
5
  7

 75
16
147
1.0
148
0.0
149
0.0
100
AcDbLayout
  1
Layout1
 70
1
 71
1
 10
0.0
 20
0.0
 11
420.0
 21
297.0
 12
0.0
 22
0.0
 32
0.0
 14
100000000000000000000.0
 24
100000000000000000000.0
 34
100000000000000000000.0
 15
-100000000000000000000.0
 25
-100000000000000000000.0
 35
-100000000000000000000.0
146
0.0
 13
0.0
 23
0.0
 33
0.0
 16
1.0
 26
0.0
 36
0.0
 17
0.0
 27
1.0
 37
0.0
 76
0
330
1B
  0
LAYOUT
  5
22
100
AcDbPlotSettings
  1

  2
C:\Program Files\AutoCAD 2002\plotters\DWF ePlot (optimized for plotting).pc3
  4

  6

 40
0.0
 41
0.0
 42
0.0
 43
0.0
 44
0.0
 45
0.0
 46
0.0
 47
0.0
 48
0.0
 49
0.0
140
0.0
141
0.0
142
1.0
143
1.0
 70
1712
 72
0
 73
0
 74
0
  7

 75
0
147
1.0
148
0.0
149
0.0
100
AcDbLayout
  1
Model
 70
1
 71
0
 10
0.0
 20
0.0
 11
12.0
 21
9.0
 12
0.0
 22
0.0
 32
0.0
 14
0.0
 24
0.0
 34
0.0
 15
0.0
 25
0.0
 35
0.0
146
0.0
 13
0.0
 23
0.0
 33
0.0
 16
1.0
 26
0.0
 36
0.0
 17
0.0
 27
1.0
 37
0.0
 76
0
330
1F
  0
LAYOUT
  5
26
100
AcDbPlotSettings
  1

  2
C:\Program Files\AutoCAD 2002\plotters\DWF ePlot (optimized for plotting).pc3
  4

  6

 40
0.0
 41
0.0
 42
0.0
 43
0.0
 44
0.0
 45
0.0
 46
0.0
 47
0.0
 48
0.0
 49
0.0
140
0.0
141
0.0
142
1.0
143
1.0
 70
688
 72
0
 73
0
 74
5
  7

 75
16
147
1.0
148
0.0
149
0.0
100
AcDbLayout
  1
Layout2
 70
1
 71
2
 10
0.0
 20
0.0
 11
12.0
 21
9.0
 12
0.0
 22
0.0
 32
0.0
 14
0.0
 24
0.0
 34
0.0
 15
0.0
 25
0.0
 35
0.0
146
0.0
 13
0.0
 23
0.0
 33
0.0
 16
1.0
 26
0.0
 36
0.0
 17
0.0
 27
1.0
 37
0.0
 76
0
330
23
  0
DICTIONARY
  5
E9
100
AcDbDictionary
281
1
  3
DIMASSOC
350
EB
  3
HIDETEXT
350
EA
  0
DICTIONARYVAR
  5
EA
100
DictionaryVariables
280
0
  1
2
  0
DICTIONARYVAR
  5
EB
100
DictionaryVariables
280
0
  1
1
  0
ENDSEC
  0
EOF
