ISO-10303-21;
HEADER;
FILE_DESCRIPTION (( 'STEP AP203' ),
    '1' );
FILE_NAME ('Baseplate.STEP',
    '2012-07-01T05:58:53',
    ( '' ),
    ( '' ),
    'SwSTEP 2.0',
    'SolidWorks 2010',
    '' );
FILE_SCHEMA (( 'CONFIG_CONTROL_DESIGN' ));
ENDSEC;

DATA;
#1 =( NAMED_UNIT ( * ) SI_UNIT ( $, .STERADIAN. ) SOLID_ANGLE_UNIT ( ) );
#2 =( LENGTH_UNIT ( ) NAMED_UNIT ( * ) SI_UNIT ( .MILLI., .METRE. ) );
#3 =( NAMED_UNIT ( * ) PLANE_ANGLE_UNIT ( ) SI_UNIT ( $, .RADIAN. ) );
#4 = DIRECTION ( 'NONE',  ( 0.0000000000000000000, 0.0000000000000000000, 1.000000000000000000 ) ) ;
#5 = CARTESIAN_POINT ( 'NONE',  ( 0.0000000000000000000, 0.0000000000000000000, 0.0000000000000000000 ) ) ;
#6 = APPROVAL ( #95, 'UNSPECIFIED' ) ;
#7 = PRODUCT_DEFINITION_FORMATION_WITH_SPECIFIED_SOURCE ( 'ANY', '', #172, .NOT_KNOWN. ) ;
#8 = CC_DESIGN_DATE_AND_TIME_ASSIGNMENT ( #249, #9, ( #85 ) ) ;
#9 = DATE_TIME_ROLE ( 'creation_date' ) ;
#10 = APPROVAL_STATUS ( 'not_yet_approved' ) ;
#11 = PERSON_AND_ORGANIZATION_ROLE ( 'creator' ) ;
#12 = APPLICATION_PROTOCOL_DEFINITION ( 'international standard', 'config_control_design', 1994, #19 ) ;
#13 = APPROVAL_ROLE ( '' ) ;
#14 = DIRECTION ( 'NONE',  ( 1.000000000000000000, 0.0000000000000000000, 0.0000000000000000000 ) ) ;
#15 = CC_DESIGN_PERSON_AND_ORGANIZATION_ASSIGNMENT ( #240, #11, ( #85 ) ) ;
#16 = CC_DESIGN_APPROVAL ( #17, ( #85 ) ) ;
#17 = APPROVAL ( #10, 'UNSPECIFIED' ) ;
#18 = PERSON_AND_ORGANIZATION_ROLE ( 'design_owner' ) ;
#19 = APPLICATION_CONTEXT ( 'configuration controlled 3d designs of mechanical parts and assemblies' ) ;
#20 = APPLICATION_CONTEXT ( 'configuration controlled 3d designs of mechanical parts and assemblies' ) ;
#21 = MECHANICAL_CONTEXT ( 'NONE', #20, 'mechanical' ) ;
#22 = APPLICATION_PROTOCOL_DEFINITION ( 'international standard', 'config_control_design', 1994, #20 ) ;
#23 = CC_DESIGN_PERSON_AND_ORGANIZATION_ASSIGNMENT ( #276, #91, ( #7 ) ) ;
#24 = CC_DESIGN_APPROVAL ( #6, ( #7 ) ) ;
#25 = CC_DESIGN_PERSON_AND_ORGANIZATION_ASSIGNMENT ( #232, #89, ( #7 ) ) ;
#26 = EDGE_CURVE ( 'NONE', #167, #160, #264, .T. ) ;
#27 = EDGE_CURVE ( 'NONE', #168, #166, #235, .T. ) ;
#28 = AXIS2_PLACEMENT_3D ( 'NONE', #106, #138, #137 ) ;
#29 = PRODUCT_RELATED_PRODUCT_CATEGORY ( 'detail', '', ( #172 ) ) ;
#30 = DIRECTION ( 'NONE',  ( 1.000000000000000000, -0.0000000000000000000, 0.0000000000000000000 ) ) ;
#31 = PLANE ( 'NONE',  #81 ) ;
#32 = CARTESIAN_POINT ( 'NONE',  ( 0.0000000000000000000, 0.0000000000000000000, -304.8000000000000100 ) ) ;
#33 = CARTESIAN_POINT ( 'NONE',  ( 0.0000000000000000000, 25.39999999999999900, -304.8000000000000100 ) ) ;
#34 = DIRECTION ( 'NONE',  ( -0.0000000000000000000, 1.000000000000000000, -0.0000000000000000000 ) ) ;
#35 = PLANE ( 'NONE',  #84 ) ;
#36 = DIRECTION ( 'NONE',  ( 0.0000000000000000000, 0.0000000000000000000, 1.000000000000000000 ) ) ;
#37 = CARTESIAN_POINT ( 'NONE',  ( 300.0000000000000000, 0.0000000000000000000, -70.00000000000000000 ) ) ;
#38 = DIRECTION ( 'NONE',  ( 0.0000000000000000000, 0.0000000000000000000, -1.000000000000000000 ) ) ;
#39 = EDGE_CURVE ( 'NONE', #114, #117, #236, .T. ) ;
#40 = EDGE_CURVE ( 'NONE', #160, #117, #202, .T. ) ;
#41 = EDGE_CURVE ( 'NONE', #114, #162, #295, .T. ) ;
#42 = EDGE_CURVE ( 'NONE', #166, #114, #254, .T. ) ;
#43 = EDGE_CURVE ( 'NONE', #162, #159, #199, .T. ) ;
#44 = EDGE_CURVE ( 'NONE', #164, #163, #190, .T. ) ;
#45 = EDGE_CURVE ( 'NONE', #157, #158, #294, .T. ) ;
#46 = EDGE_CURVE ( 'NONE', #117, #159, #200, .T. ) ;
#47 = DIRECTION ( 'NONE',  ( -1.000000000000000000, 0.0000000000000000000, 0.0000000000000000000 ) ) ;
#48 = DIRECTION ( 'NONE',  ( -1.000000000000000000, 0.0000000000000000000, -0.0000000000000000000 ) ) ;
#49 = PLANE ( 'NONE',  #86 ) ;
#50 = DIRECTION ( 'NONE',  ( 0.0000000000000000000, 0.0000000000000000000, -1.000000000000000000 ) ) ;
#51 = PLANE ( 'NONE',  #87 ) ;
#52 = CARTESIAN_POINT ( 'NONE',  ( 0.0000000000000000000, 25.39999999999999900, 0.0000000000000000000 ) ) ;
#53 = CARTESIAN_POINT ( 'NONE',  ( 0.0000000000000000000, 25.39999999999999900, 0.0000000000000000000 ) ) ;
#54 = DIRECTION ( 'NONE',  ( 0.0000000000000000000, 0.0000000000000000000, 1.000000000000000000 ) ) ;
#55 = AXIS2_PLACEMENT_3D ( 'NONE', #131, #148, #146 ) ;
#56 = AXIS2_PLACEMENT_3D ( 'NONE', #136, #141, #156 ) ;
#57 = DIRECTION ( 'NONE',  ( 1.000000000000000000, 0.0000000000000000000, -0.0000000000000000000 ) ) ;
#58 = CARTESIAN_POINT ( 'NONE',  ( 0.0000000000000000000, 25.39999999999999900, 0.0000000000000000000 ) ) ;
#59 = CARTESIAN_POINT ( 'NONE',  ( 609.6000000000000200, 25.39999999999999900, 0.0000000000000000000 ) ) ;
#60 = DIRECTION ( 'NONE',  ( 0.0000000000000000000, 0.0000000000000000000, 1.000000000000000000 ) ) ;
#61 = CARTESIAN_POINT ( 'NONE',  ( 0.0000000000000000000, 0.0000000000000000000, 0.0000000000000000000 ) ) ;
#62 = PLANE ( 'NONE',  #67 ) ;
#63 = CARTESIAN_POINT ( 'NONE',  ( 609.6000000000000200, 25.39999999999999900, 0.0000000000000000000 ) ) ;
#64 = CARTESIAN_POINT ( 'NONE',  ( 0.0000000000000000000, 25.39999999999999900, -304.8000000000000100 ) ) ;
#65 = PLANE ( 'NONE',  #79 ) ;
#66 = CARTESIAN_POINT ( 'NONE',  ( 300.0000000000000000, 0.0000000000000000000, -85.00000000000002800 ) ) ;
#67 = AXIS2_PLACEMENT_3D ( 'NONE', #64, #60, #57 ) ;
#68 = APPROVAL ( #92, 'UNSPECIFIED' ) ;
#69 = CC_DESIGN_APPROVAL ( #68, ( #100 ) ) ;
#70 = CC_DESIGN_SECURITY_CLASSIFICATION ( #100, ( #7 ) ) ;
#71 = DIRECTION ( 'NONE',  ( -0.0000000000000000000, 1.000000000000000000, -0.0000000000000000000 ) ) ;
#72 = DIRECTION ( 'NONE',  ( 0.0000000000000000000, -0.0000000000000000000, -1.000000000000000000 ) ) ;
#73 = DIRECTION ( 'NONE',  ( 0.0000000000000000000, -0.0000000000000000000, -1.000000000000000000 ) ) ;
#74 = DIRECTION ( 'NONE',  ( 0.0000000000000000000, -1.000000000000000000, 0.0000000000000000000 ) ) ;
#75 = DIRECTION ( 'NONE',  ( 0.0000000000000000000, -1.000000000000000000, 0.0000000000000000000 ) ) ;
#76 = CARTESIAN_POINT ( 'NONE',  ( 300.0000000000000000, 0.0000000000000000000, -70.00000000000000000 ) ) ;
#77 = DIRECTION ( 'NONE',  ( 0.0000000000000000000, 0.0000000000000000000, 1.000000000000000000 ) ) ;
#78 = AXIS2_PLACEMENT_3D ( 'NONE', #37, #34, #36 ) ;
#79 = AXIS2_PLACEMENT_3D ( 'NONE', #59, #47, #54 ) ;
#80 = AXIS2_PLACEMENT_3D ( 'NONE', #76, #71, #77 ) ;
#81 = AXIS2_PLACEMENT_3D ( 'NONE', #33, #74, #72 ) ;
#82 = AXIS2_PLACEMENT_3D ( 'NONE', #5, #4, #14 ) ;
#83 = CC_DESIGN_PERSON_AND_ORGANIZATION_ASSIGNMENT ( #212, #18, ( #172 ) ) ;
#84 = AXIS2_PLACEMENT_3D ( 'NONE', #32, #75, #73 ) ;
#85 = PRODUCT_DEFINITION ( 'UNKNOWN', '', #7, #183 ) ;
#86 = AXIS2_PLACEMENT_3D ( 'NONE', #53, #30, #38 ) ;
#87 = AXIS2_PLACEMENT_3D ( 'NONE', #52, #50, #48 ) ;
#88 = SECURITY_CLASSIFICATION_LEVEL ( 'unclassified' ) ;
#89 = PERSON_AND_ORGANIZATION_ROLE ( 'design_supplier' ) ;
#90 = APPROVAL_ROLE ( '' ) ;
#91 = PERSON_AND_ORGANIZATION_ROLE ( 'creator' ) ;
#92 = APPROVAL_STATUS ( 'not_yet_approved' ) ;
#93 = APPROVAL_ROLE ( '' ) ;
#94 = DATE_TIME_ROLE ( 'classification_date' ) ;
#95 = APPROVAL_STATUS ( 'not_yet_approved' ) ;
#96 = PERSON_AND_ORGANIZATION_ROLE ( 'classification_officer' ) ;
#97 = CC_DESIGN_DATE_AND_TIME_ASSIGNMENT ( #191, #94, ( #100 ) ) ;
#98 = CC_DESIGN_PERSON_AND_ORGANIZATION_ASSIGNMENT ( #266, #96, ( #100 ) ) ;
#99 = AXIS2_PLACEMENT_3D ( 'NONE', #135, #132, #130 ) ;
#100 = SECURITY_CLASSIFICATION ( '', '', #88 ) ;
#101 = DIRECTION ( 'NONE',  ( -0.0000000000000000000, -1.000000000000000000, -0.0000000000000000000 ) ) ;
#102 = DIRECTION ( 'NONE',  ( 0.0000000000000000000, 0.0000000000000000000, -1.000000000000000000 ) ) ;
#103 = CARTESIAN_POINT ( 'NONE',  ( 609.6000000000000200, 25.39999999999999900, 0.0000000000000000000 ) ) ;
#104 = CARTESIAN_POINT ( 'NONE',  ( 609.6000000000000200, 0.0000000000000000000, 0.0000000000000000000 ) ) ;
#105 = DIRECTION ( 'NONE',  ( -1.000000000000000000, -0.0000000000000000000, -0.0000000000000000000 ) ) ;
#106 = CARTESIAN_POINT ( 'NONE',  ( 300.0000000000000000, 0.0000000000000000000, -70.00000000000000000 ) ) ;
#107 = DIRECTION ( 'NONE',  ( -0.0000000000000000000, -1.000000000000000000, -0.0000000000000000000 ) ) ;
#108 = DIRECTION ( 'NONE',  ( 1.000000000000000000, 0.0000000000000000000, 0.0000000000000000000 ) ) ;
#109 = CARTESIAN_POINT ( 'NONE',  ( 0.0000000000000000000, 0.0000000000000000000, -304.8000000000000100 ) ) ;
#110 = CARTESIAN_POINT ( 'NONE',  ( 609.6000000000000200, 25.39999999999999900, -304.8000000000000100 ) ) ;
#111 = DIRECTION ( 'NONE',  ( 0.0000000000000000000, 0.0000000000000000000, -1.000000000000000000 ) ) ;
#112 = DIRECTION ( 'NONE',  ( 1.000000000000000000, 0.0000000000000000000, 0.0000000000000000000 ) ) ;
#113 = CARTESIAN_POINT ( 'NONE',  ( 0.0000000000000000000, 25.39999999999999900, -304.8000000000000100 ) ) ;
#114 = VERTEX_POINT ( 'NONE', #116 ) ;
#115 = CARTESIAN_POINT ( 'NONE',  ( 0.0000000000000000000, 25.39999999999999900, -304.8000000000000100 ) ) ;
#116 = CARTESIAN_POINT ( 'NONE',  ( 609.6000000000000200, 25.39999999999999900, -304.8000000000000100 ) ) ;
#117 = VERTEX_POINT ( 'NONE', #139 ) ;
#118 = EDGE_CURVE ( 'NONE', #163, #158, #259, .T. ) ;
#119 = EDGE_CURVE ( 'NONE', #162, #168, #207, .T. ) ;
#120 = EDGE_CURVE ( 'NONE', #164, #157, #208, .T. ) ;
#121 = EDGE_CURVE ( 'NONE', #166, #160, #219, .T. ) ;
#122 = EDGE_CURVE ( 'NONE', #158, #157, #258, .T. ) ;
#123 = EDGE_CURVE ( 'NONE', #163, #164, #297, .T. ) ;
#124 = EDGE_CURVE ( 'NONE', #168, #167, #237, .T. ) ;
#125 = EDGE_CURVE ( 'NONE', #159, #167, #271, .T. ) ;
#126 = DIRECTION ( 'NONE',  ( -0.0000000000000000000, 1.000000000000000000, -0.0000000000000000000 ) ) ;
#127 = DIRECTION ( 'NONE',  ( -0.0000000000000000000, -0.0000000000000000000, 1.000000000000000000 ) ) ;
#128 = CARTESIAN_POINT ( 'NONE',  ( 300.0000000000000000, 0.0000000000000000000, -85.00000000000002800 ) ) ;
#129 = CARTESIAN_POINT ( 'NONE',  ( 300.0000000000000000, 0.0000000000000000000, -54.99999999999997900 ) ) ;
#130 = DIRECTION ( 'NONE',  ( 0.0000000000000000000, 0.0000000000000000000, 1.000000000000000000 ) ) ;
#131 = CARTESIAN_POINT ( 'NONE',  ( 300.0000000000000000, 25.39999999999999900, -70.00000000000000000 ) ) ;
#132 = DIRECTION ( 'NONE',  ( 0.0000000000000000000, 1.000000000000000000, 0.0000000000000000000 ) ) ;
#133 = CARTESIAN_POINT ( 'NONE',  ( 0.0000000000000000000, 25.39999999999999900, 0.0000000000000000000 ) ) ;
#134 = DIRECTION ( 'NONE',  ( -0.0000000000000000000, 1.000000000000000000, -0.0000000000000000000 ) ) ;
#135 = CARTESIAN_POINT ( 'NONE',  ( 300.0000000000000000, 25.39999999999999900, -70.00000000000000000 ) ) ;
#136 = CARTESIAN_POINT ( 'NONE',  ( 300.0000000000000000, 0.0000000000000000000, -70.00000000000000000 ) ) ;
#137 = DIRECTION ( 'NONE',  ( 0.0000000000000000000, 0.0000000000000000000, 1.000000000000000000 ) ) ;
#138 = DIRECTION ( 'NONE',  ( 0.0000000000000000000, 1.000000000000000000, 0.0000000000000000000 ) ) ;
#139 = CARTESIAN_POINT ( 'NONE',  ( 609.6000000000000200, 0.0000000000000000000, -304.8000000000000100 ) ) ;
#140 = DIRECTION ( 'NONE',  ( -1.000000000000000000, -0.0000000000000000000, -0.0000000000000000000 ) ) ;
#141 = DIRECTION ( 'NONE',  ( 0.0000000000000000000, 1.000000000000000000, 0.0000000000000000000 ) ) ;
#142 = CARTESIAN_POINT ( 'NONE',  ( 0.0000000000000000000, 25.39999999999999900, -304.8000000000000100 ) ) ;
#143 = CARTESIAN_POINT ( 'NONE',  ( 609.6000000000000200, 0.0000000000000000000, 0.0000000000000000000 ) ) ;
#144 = CARTESIAN_POINT ( 'NONE',  ( 300.0000000000000000, 25.39999999999999900, -54.99999999999997900 ) ) ;
#145 = CARTESIAN_POINT ( 'NONE',  ( 300.0000000000000000, 25.39999999999999900, -85.00000000000002800 ) ) ;
#146 = DIRECTION ( 'NONE',  ( 0.0000000000000000000, 0.0000000000000000000, 1.000000000000000000 ) ) ;
#147 = DIRECTION ( 'NONE',  ( -0.0000000000000000000, -0.0000000000000000000, 1.000000000000000000 ) ) ;
#148 = DIRECTION ( 'NONE',  ( 0.0000000000000000000, 1.000000000000000000, 0.0000000000000000000 ) ) ;
#149 = CARTESIAN_POINT ( 'NONE',  ( 0.0000000000000000000, 0.0000000000000000000, 0.0000000000000000000 ) ) ;
#150 = CARTESIAN_POINT ( 'NONE',  ( 0.0000000000000000000, 0.0000000000000000000, -304.8000000000000100 ) ) ;
#151 = CARTESIAN_POINT ( 'NONE',  ( 300.0000000000000000, 0.0000000000000000000, -54.99999999999997900 ) ) ;
#152 = DIRECTION ( 'NONE',  ( -0.0000000000000000000, -1.000000000000000000, -0.0000000000000000000 ) ) ;
#153 = DIRECTION ( 'NONE',  ( -0.0000000000000000000, -1.000000000000000000, -0.0000000000000000000 ) ) ;
#154 = CARTESIAN_POINT ( 'NONE',  ( 0.0000000000000000000, 25.39999999999999900, 0.0000000000000000000 ) ) ;
#155 = CARTESIAN_POINT ( 'NONE',  ( 609.6000000000000200, 25.39999999999999900, 0.0000000000000000000 ) ) ;
#156 = DIRECTION ( 'NONE',  ( 0.0000000000000000000, 0.0000000000000000000, 1.000000000000000000 ) ) ;
#157 = VERTEX_POINT ( 'NONE', #144 ) ;
#158 = VERTEX_POINT ( 'NONE', #145 ) ;
#159 = VERTEX_POINT ( 'NONE', #150 ) ;
#160 = VERTEX_POINT ( 'NONE', #143 ) ;
#161 = CARTESIAN_POINT ( 'NONE',  ( 0.0000000000000000000, 0.0000000000000000000, 0.0000000000000000000 ) ) ;
#162 = VERTEX_POINT ( 'NONE', #142 ) ;
#163 = VERTEX_POINT ( 'NONE', #66 ) ;
#164 = VERTEX_POINT ( 'NONE', #151 ) ;
#165 = CARTESIAN_POINT ( 'NONE',  ( 0.0000000000000000000, 25.39999999999999900, 0.0000000000000000000 ) ) ;
#166 = VERTEX_POINT ( 'NONE', #63 ) ;
#167 = VERTEX_POINT ( 'NONE', #61 ) ;
#168 = VERTEX_POINT ( 'NONE', #58 ) ;
#169 = MANIFOLD_SOLID_BREP ( 'Cut-Extrude1', #256 ) ;
#170 = ADVANCED_BREP_SHAPE_REPRESENTATION ( 'Baseplate', ( #169, #82 ), #213 ) ;
#171 = UNCERTAINTY_MEASURE_WITH_UNIT (LENGTH_MEASURE( 1.000000000000000100E-005 ), #2, 'distance_accuracy_value', 'NONE');
#172 = PRODUCT ( 'Baseplate', 'Baseplate', '', ( #21 ) ) ;
#173 = PERSON ( 'UNSPECIFIED', 'UNSPECIFIED', 'UNSPECIFIED', ('UNSPECIFIED'), ('UNSPECIFIED'), ('UNSPECIFIED') ) ;
#174 = ADVANCED_FACE ( 'NONE', ( #270 ), #62, .F. ) ;
#175 = ADVANCED_FACE ( 'NONE', ( #250 ), #65, .F. ) ;
#176 = ADVANCED_FACE ( 'NONE', ( #197 ), #51, .F. ) ;
#177 = ADVANCED_FACE ( 'NONE', ( #299 ), #49, .F. ) ;
#178 = ADVANCED_FACE ( 'NONE', ( #279 ), #311, .F. ) ;
#179 = ADVANCED_FACE ( 'NONE', ( #310, #308 ), #31, .F. ) ;
#180 = ADVANCED_FACE ( 'NONE', ( #300, #296 ), #35, .T. ) ;
#181 = ADVANCED_FACE ( 'NONE', ( #307 ), #289, .F. ) ;
#182 = PRODUCT_DEFINITION_SHAPE ( 'NONE', 'NONE',  #85 ) ;
#183 = DESIGN_CONTEXT ( 'detailed design', #19, 'design' ) ;
#184 = DATE_AND_TIME ( #185, #201 ) ;
#185 = CALENDAR_DATE ( 2012, 1, 7 ) ;
#186 = VECTOR ( 'NONE', #102, 1000.000000000000000 ) ;
#187 = EDGE_LOOP ( 'NONE', ( #285, #262, #214, #269 ) ) ;
#188 = CALENDAR_DATE ( 2012, 1, 7 ) ;
#189 = COORDINATED_UNIVERSAL_TIME_OFFSET ( 6, 0, .BEHIND. ) ;
#190 = CIRCLE ( 'NONE', #28, 15.00000000000002700 ) ;
#191 = DATE_AND_TIME ( #188, #192 ) ;
#192 = LOCAL_TIME ( 0, 58, 53.00000000000000000, #229 ) ;
#193 = PERSON_AND_ORGANIZATION ( #173, #216 ) ;
#194 = APPROVAL_DATE_TIME ( #184, #68 ) ;
#195 = APPROVAL_PERSON_ORGANIZATION ( #193, #68, #90 ) ;
#196 = VECTOR ( 'NONE', #140, 1000.000000000000000 ) ;
#197 = FACE_OUTER_BOUND ( 'NONE', #187, .T. ) ;
#198 = VECTOR ( 'NONE', #107, 1000.000000000000000 ) ;
#199 = LINE ( 'NONE', #113, #198 ) ;
#200 = LINE ( 'NONE', #109, #196 ) ;
#201 = LOCAL_TIME ( 0, 58, 53.00000000000000000, #189 ) ;
#202 = LINE ( 'NONE', #104, #253 ) ;
#203 = LOCAL_TIME ( 0, 58, 53.00000000000000000, #209 ) ;
#204 = ORIENTED_EDGE ( 'NONE', *, *, #42, .F. ) ;
#205 = ORIENTED_EDGE ( 'NONE', *, *, #39, .F. ) ;
#206 = ORIENTED_EDGE ( 'NONE', *, *, #26, .F. ) ;
#207 = LINE ( 'NONE', #133, #277 ) ;
#208 = LINE ( 'NONE', #129, #217 ) ;
#209 = COORDINATED_UNIVERSAL_TIME_OFFSET ( 6, 0, .BEHIND. ) ;
#210 = APPROVAL_PERSON_ORGANIZATION ( #211, #17, #13 ) ;
#211 = PERSON_AND_ORGANIZATION ( #173, #216 ) ;
#212 = PERSON_AND_ORGANIZATION ( #173, #216 ) ;
#213 =( GEOMETRIC_REPRESENTATION_CONTEXT ( 3 ) GLOBAL_UNCERTAINTY_ASSIGNED_CONTEXT ( ( #171 ) ) GLOBAL_UNIT_ASSIGNED_CONTEXT ( ( #2, #3, #1 ) ) REPRESENTATION_CONTEXT ( 'NONE', 'WORKASPACE' ) );
#214 = ORIENTED_EDGE ( 'NONE', *, *, #27, .F. ) ;
#215 = SHAPE_DEFINITION_REPRESENTATION ( #182, #170 ) ;
#216 = ORGANIZATION ( 'UNSPECIFIED', 'UNSPECIFIED', '' ) ;
#217 = VECTOR ( 'NONE', #126, 1000.000000000000000 ) ;
#218 = ORIENTED_EDGE ( 'NONE', *, *, #40, .F. ) ;
#219 = LINE ( 'NONE', #155, #286 ) ;
#220 = ORIENTED_EDGE ( 'NONE', *, *, #118, .F. ) ;
#221 = ORIENTED_EDGE ( 'NONE', *, *, #123, .T. ) ;
#222 = ORIENTED_EDGE ( 'NONE', *, *, #42, .T. ) ;
#223 = ORIENTED_EDGE ( 'NONE', *, *, #39, .T. ) ;
#224 = ORIENTED_EDGE ( 'NONE', *, *, #46, .T. ) ;
#225 = ORIENTED_EDGE ( 'NONE', *, *, #43, .F. ) ;
#226 = ORIENTED_EDGE ( 'NONE', *, *, #122, .F. ) ;
#227 = ORIENTED_EDGE ( 'NONE', *, *, #40, .T. ) ;
#228 = ORIENTED_EDGE ( 'NONE', *, *, #119, .T. ) ;
#229 = COORDINATED_UNIVERSAL_TIME_OFFSET ( 6, 0, .BEHIND. ) ;
#230 = EDGE_LOOP ( 'NONE', ( #306, #288, #218, #206 ) ) ;
#231 = ORIENTED_EDGE ( 'NONE', *, *, #27, .T. ) ;
#232 = PERSON_AND_ORGANIZATION ( #173, #216 ) ;
#233 = EDGE_LOOP ( 'NONE', ( #220, #305, #247, #309 ) ) ;
#234 = APPROVAL_DATE_TIME ( #239, #6 ) ;
#235 = LINE ( 'NONE', #165, #282 ) ;
#236 = LINE ( 'NONE', #110, #246 ) ;
#237 = LINE ( 'NONE', #154, #260 ) ;
#238 = CALENDAR_DATE ( 2012, 1, 7 ) ;
#239 = DATE_AND_TIME ( #238, #244 ) ;
#240 = PERSON_AND_ORGANIZATION ( #173, #216 ) ;
#241 = ORIENTED_EDGE ( 'NONE', *, *, #121, .T. ) ;
#242 = COORDINATED_UNIVERSAL_TIME_OFFSET ( 6, 0, .BEHIND. ) ;
#243 = APPROVAL_DATE_TIME ( #267, #17 ) ;
#244 = LOCAL_TIME ( 0, 58, 53.00000000000000000, #242 ) ;
#245 = ORIENTED_EDGE ( 'NONE', *, *, #123, .F. ) ;
#246 = VECTOR ( 'NONE', #101, 1000.000000000000000 ) ;
#247 = ORIENTED_EDGE ( 'NONE', *, *, #120, .T. ) ;
#248 = ORIENTED_EDGE ( 'NONE', *, *, #45, .F. ) ;
#249 = DATE_AND_TIME ( #283, #284 ) ;
#250 = FACE_OUTER_BOUND ( 'NONE', #304, .T. ) ;
#251 = PERSON_AND_ORGANIZATION ( #173, #216 ) ;
#252 = ORIENTED_EDGE ( 'NONE', *, *, #120, .F. ) ;
#253 = VECTOR ( 'NONE', #111, 1000.000000000000000 ) ;
#254 = LINE ( 'NONE', #103, #186 ) ;
#255 = ORIENTED_EDGE ( 'NONE', *, *, #124, .F. ) ;
#256 = CLOSED_SHELL ( 'NONE', ( #181, #177, #176, #175, #174, #179, #180, #178 ) ) ;
#257 = ORIENTED_EDGE ( 'NONE', *, *, #41, .F. ) ;
#258 = CIRCLE ( 'NONE', #55, 15.00000000000002700 ) ;
#259 = LINE ( 'NONE', #128, #263 ) ;
#260 = VECTOR ( 'NONE', #152, 1000.000000000000000 ) ;
#261 = ORIENTED_EDGE ( 'NONE', *, *, #43, .T. ) ;
#262 = ORIENTED_EDGE ( 'NONE', *, *, #121, .F. ) ;
#263 = VECTOR ( 'NONE', #134, 1000.000000000000000 ) ;
#264 = LINE ( 'NONE', #161, #265 ) ;
#265 = VECTOR ( 'NONE', #112, 1000.000000000000000 ) ;
#266 = PERSON_AND_ORGANIZATION ( #173, #216 ) ;
#267 = DATE_AND_TIME ( #268, #203 ) ;
#268 = CALENDAR_DATE ( 2012, 1, 7 ) ;
#269 = ORIENTED_EDGE ( 'NONE', *, *, #124, .T. ) ;
#270 = FACE_OUTER_BOUND ( 'NONE', #303, .T. ) ;
#271 = LINE ( 'NONE', #149, #292 ) ;
#272 = APPROVAL_PERSON_ORGANIZATION ( #251, #6, #93 ) ;
#273 = ORIENTED_EDGE ( 'NONE', *, *, #125, .T. ) ;
#274 = ORIENTED_EDGE ( 'NONE', *, *, #118, .T. ) ;
#275 = ORIENTED_EDGE ( 'NONE', *, *, #122, .T. ) ;
#276 = PERSON_AND_ORGANIZATION ( #173, #216 ) ;
#277 = VECTOR ( 'NONE', #127, 1000.000000000000000 ) ;
#278 = VECTOR ( 'NONE', #105, 1000.000000000000000 ) ;
#279 = FACE_OUTER_BOUND ( 'NONE', #233, .T. ) ;
#280 = COORDINATED_UNIVERSAL_TIME_OFFSET ( 6, 0, .BEHIND. ) ;
#281 = ORIENTED_EDGE ( 'NONE', *, *, #119, .F. ) ;
#282 = VECTOR ( 'NONE', #108, 1000.000000000000000 ) ;
#283 = CALENDAR_DATE ( 2012, 1, 7 ) ;
#284 = LOCAL_TIME ( 0, 58, 53.00000000000000000, #280 ) ;
#285 = ORIENTED_EDGE ( 'NONE', *, *, #26, .T. ) ;
#286 = VECTOR ( 'NONE', #153, 1000.000000000000000 ) ;
#287 = EDGE_LOOP ( 'NONE', ( #248, #226 ) ) ;
#288 = ORIENTED_EDGE ( 'NONE', *, *, #46, .F. ) ;
#289 = CYLINDRICAL_SURFACE ( 'NONE', #80, 15.00000000000002700 ) ;
#290 = EDGE_LOOP ( 'NONE', ( #228, #231, #222, #293 ) ) ;
#291 = ORIENTED_EDGE ( 'NONE', *, *, #44, .T. ) ;
#292 = VECTOR ( 'NONE', #147, 1000.000000000000000 ) ;
#293 = ORIENTED_EDGE ( 'NONE', *, *, #41, .T. ) ;
#294 = CIRCLE ( 'NONE', #99, 15.00000000000002700 ) ;
#295 = LINE ( 'NONE', #115, #278 ) ;
#296 = FACE_OUTER_BOUND ( 'NONE', #230, .T. ) ;
#297 = CIRCLE ( 'NONE', #56, 15.00000000000002700 ) ;
#298 = EDGE_LOOP ( 'NONE', ( #245, #274, #275, #252 ) ) ;
#299 = FACE_OUTER_BOUND ( 'NONE', #301, .T. ) ;
#300 = FACE_BOUND ( 'NONE', #302, .T. ) ;
#301 = EDGE_LOOP ( 'NONE', ( #273, #255, #281, #261 ) ) ;
#302 = EDGE_LOOP ( 'NONE', ( #291, #221 ) ) ;
#303 = EDGE_LOOP ( 'NONE', ( #224, #225, #257, #223 ) ) ;
#304 = EDGE_LOOP ( 'NONE', ( #227, #205, #204, #241 ) ) ;
#305 = ORIENTED_EDGE ( 'NONE', *, *, #44, .F. ) ;
#306 = ORIENTED_EDGE ( 'NONE', *, *, #125, .F. ) ;
#307 = FACE_OUTER_BOUND ( 'NONE', #298, .T. ) ;
#308 = FACE_OUTER_BOUND ( 'NONE', #290, .T. ) ;
#309 = ORIENTED_EDGE ( 'NONE', *, *, #45, .T. ) ;
#310 = FACE_BOUND ( 'NONE', #287, .T. ) ;
#311 = CYLINDRICAL_SURFACE ( 'NONE', #78, 15.00000000000002700 ) ;
ENDSEC;
END-ISO-10303-21;
