ISO-10303-21;
HEADER;
FILE_DESCRIPTION (( 'STEP AP203' ),
    '1' );
FILE_NAME ('MountDisc.STEP',
    '2012-06-26T20:29:57',
    ( '' ),
    ( '' ),
    'SwSTEP 2.0',
    'SolidWorks 2010',
    '' );
FILE_SCHEMA (( 'CONFIG_CONTROL_DESIGN' ));
ENDSEC;

DATA;
#1 = AXIS2_PLACEMENT_3D ( 'NONE', #358, #360, #361 ) ;
#2 = ADVANCED_FACE ( 'NONE', ( #29 ), #79, .T. ) ;
#3 = ADVANCED_FACE ( 'NONE', ( #89, #36, #37, #28 ), #372, .F. ) ;
#4 = ADVANCED_FACE ( 'NONE', ( #77 ), #27, .F. ) ;
#5 = ADVANCED_FACE ( 'NONE', ( #76 ), #74, .F. ) ;
#6 = ADVANCED_FACE ( 'NONE', ( #90 ), #73, .F. ) ;
#7 = ADVANCED_FACE ( 'NONE', ( #80 ), #72, .F. ) ;
#8 = ADVANCED_FACE ( 'NONE', ( #78, #44, #42, #23 ), #175, .T. ) ;
#9 = ADVANCED_FACE ( 'NONE', ( #70 ), #46, .T. ) ;
#10 = ADVANCED_FACE ( 'NONE', ( #69 ), #68, .F. ) ;
#11 = ADVANCED_FACE ( 'NONE', ( #49 ), #54, .F. ) ;
#12 = AXIS2_PLACEMENT_3D ( 'NONE', #356, #357, #368 ) ;
#13 = EDGE_CURVE ( 'NONE', #381, #366, #38, .T. ) ;
#14 = EDGE_CURVE ( 'NONE', #353, #379, #71, .T. ) ;
#15 = DIRECTION ( 'NONE',  ( -0.0000000000000000000, -1.000000000000000000, -0.0000000000000000000 ) ) ;
#16 = CARTESIAN_POINT ( 'NONE',  ( 0.0000000000000000000, 12.69999999999999900, 0.0000000000000000000 ) ) ;
#17 = ORIENTED_EDGE ( 'NONE', *, *, #182, .T. ) ;
#18 = VECTOR ( 'NONE', #310, 1000.000000000000000 ) ;
#19 = CIRCLE ( 'NONE', #204, 4.000000000000006200 ) ;
#20 = VECTOR ( 'NONE', #15, 1000.000000000000000 ) ;
#21 = VECTOR ( 'NONE', #335, 1000.000000000000000 ) ;
#22 = CIRCLE ( 'NONE', #215, 50.79999999999999700 ) ;
#23 = FACE_BOUND ( 'NONE', #83, .T. ) ;
#24 = CIRCLE ( 'NONE', #209, 16.00000000000000000 ) ;
#25 = ORIENTED_EDGE ( 'NONE', *, *, #224, .F. ) ;
#26 = EDGE_LOOP ( 'NONE', ( #153, #113 ) ) ;
#27 = CYLINDRICAL_SURFACE ( 'NONE', #1, 4.000000000000006200 ) ;
#28 = FACE_BOUND ( 'NONE', #62, .T. ) ;
#29 = FACE_OUTER_BOUND ( 'NONE', #86, .T. ) ;
#30 = ORIENTED_EDGE ( 'NONE', *, *, #222, .F. ) ;
#31 = ORIENTED_EDGE ( 'NONE', *, *, #199, .F. ) ;
#32 = EDGE_LOOP ( 'NONE', ( #63, #112, #126, #104 ) ) ;
#33 = ORIENTED_EDGE ( 'NONE', *, *, #192, .T. ) ;
#34 = VECTOR ( 'NONE', #282, 1000.000000000000000 ) ;
#35 = ORIENTED_EDGE ( 'NONE', *, *, #180, .F. ) ;
#36 = FACE_BOUND ( 'NONE', #26, .T. ) ;
#37 = FACE_OUTER_BOUND ( 'NONE', #84, .T. ) ;
#38 = LINE ( 'NONE', #332, #20 ) ;
#39 = EDGE_LOOP ( 'NONE', ( #123, #48 ) ) ;
#40 = CLOSED_SHELL ( 'NONE', ( #4, #6, #5, #2, #8, #3, #9, #7, #11, #10 ) ) ;
#41 = ORIENTED_EDGE ( 'NONE', *, *, #176, .F. ) ;
#42 = FACE_OUTER_BOUND ( 'NONE', #39, .T. ) ;
#43 = EDGE_LOOP ( 'NONE', ( #59, #91, #93, #31 ) ) ;
#44 = FACE_BOUND ( 'NONE', #85, .T. ) ;
#45 = EDGE_LOOP ( 'NONE', ( #124, #116 ) ) ;
#46 = CYLINDRICAL_SURFACE ( 'NONE', #219, 50.79999999999999700 ) ;
#47 = LINE ( 'NONE', #336, #50 ) ;
#48 = ORIENTED_EDGE ( 'NONE', *, *, #180, .T. ) ;
#49 = FACE_OUTER_BOUND ( 'NONE', #75, .T. ) ;
#50 = VECTOR ( 'NONE', #351, 1000.000000000000000 ) ;
#51 = ORIENTED_EDGE ( 'NONE', *, *, #183, .F. ) ;
#52 = SHAPE_DEFINITION_REPRESENTATION ( #280, #237 ) ;
#53 = EDGE_LOOP ( 'NONE', ( #66, #97, #60, #98 ) ) ;
#54 = CYLINDRICAL_SURFACE ( 'NONE', #195, 4.000000000000006200 ) ;
#55 = EDGE_LOOP ( 'NONE', ( #100, #17, #103, #102 ) ) ;
#56 = ORIENTED_EDGE ( 'NONE', *, *, #225, .T. ) ;
#57 = EDGE_LOOP ( 'NONE', ( #25, #95, #33, #96 ) ) ;
#58 = ORIENTED_EDGE ( 'NONE', *, *, #221, .F. ) ;
#59 = ORIENTED_EDGE ( 'NONE', *, *, #235, .F. ) ;
#60 = ORIENTED_EDGE ( 'NONE', *, *, #226, .F. ) ;
#61 = ORIENTED_EDGE ( 'NONE', *, *, #222, .T. ) ;
#62 = EDGE_LOOP ( 'NONE', ( #127, #82 ) ) ;
#63 = ORIENTED_EDGE ( 'NONE', *, *, #193, .F. ) ;
#64 = LINE ( 'NONE', #281, #34 ) ;
#65 = CIRCLE ( 'NONE', #208, 50.79999999999999700 ) ;
#66 = ORIENTED_EDGE ( 'NONE', *, *, #191, .T. ) ;
#67 = ORIENTED_EDGE ( 'NONE', *, *, #178, .F. ) ;
#68 = CYLINDRICAL_SURFACE ( 'NONE', #220, 4.000000000000006200 ) ;
#69 = FACE_OUTER_BOUND ( 'NONE', #32, .T. ) ;
#70 = FACE_OUTER_BOUND ( 'NONE', #87, .T. ) ;
#71 = LINE ( 'NONE', #397, #21 ) ;
#72 = CYLINDRICAL_SURFACE ( 'NONE', #196, 16.00000000000000000 ) ;
#73 = CYLINDRICAL_SURFACE ( 'NONE', #12, 4.000000000000006200 ) ;
#74 = CYLINDRICAL_SURFACE ( 'NONE', #213, 16.00000000000000000 ) ;
#75 = EDGE_LOOP ( 'NONE', ( #107, #67, #56, #61 ) ) ;
#76 = FACE_OUTER_BOUND ( 'NONE', #53, .T. ) ;
#77 = FACE_OUTER_BOUND ( 'NONE', #43, .T. ) ;
#78 = FACE_BOUND ( 'NONE', #88, .T. ) ;
#79 = CYLINDRICAL_SURFACE ( 'NONE', #197, 50.79999999999999700 ) ;
#80 = FACE_OUTER_BOUND ( 'NONE', #55, .T. ) ;
#81 = CIRCLE ( 'NONE', #210, 50.79999999999999700 ) ;
#82 = ORIENTED_EDGE ( 'NONE', *, *, #179, .T. ) ;
#83 = EDGE_LOOP ( 'NONE', ( #110, #106 ) ) ;
#84 = EDGE_LOOP ( 'NONE', ( #41, #130 ) ) ;
#85 = EDGE_LOOP ( 'NONE', ( #30, #118 ) ) ;
#86 = EDGE_LOOP ( 'NONE', ( #35, #101, #120, #99 ) ) ;
#87 = EDGE_LOOP ( 'NONE', ( #114, #51, #152, #108 ) ) ;
#88 = EDGE_LOOP ( 'NONE', ( #58, #92 ) ) ;
#89 = FACE_BOUND ( 'NONE', #45, .T. ) ;
#90 = FACE_OUTER_BOUND ( 'NONE', #57, .T. ) ;
#91 = ORIENTED_EDGE ( 'NONE', *, *, #193, .T. ) ;
#92 = ORIENTED_EDGE ( 'NONE', *, *, #194, .F. ) ;
#93 = ORIENTED_EDGE ( 'NONE', *, *, #194, .T. ) ;
#94 = CIRCLE ( 'NONE', #216, 4.000000000000006200 ) ;
#95 = ORIENTED_EDGE ( 'NONE', *, *, #223, .T. ) ;
#96 = ORIENTED_EDGE ( 'NONE', *, *, #225, .F. ) ;
#97 = ORIENTED_EDGE ( 'NONE', *, *, #228, .T. ) ;
#98 = ORIENTED_EDGE ( 'NONE', *, *, #13, .F. ) ;
#99 = ORIENTED_EDGE ( 'NONE', *, *, #181, .F. ) ;
#100 = ORIENTED_EDGE ( 'NONE', *, *, #228, .F. ) ;
#101 = ORIENTED_EDGE ( 'NONE', *, *, #14, .T. ) ;
#102 = ORIENTED_EDGE ( 'NONE', *, *, #179, .F. ) ;
#103 = ORIENTED_EDGE ( 'NONE', *, *, #13, .T. ) ;
#104 = ORIENTED_EDGE ( 'NONE', *, *, #221, .T. ) ;
#105 = CIRCLE ( 'NONE', #207, 16.00000000000000000 ) ;
#106 = ORIENTED_EDGE ( 'NONE', *, *, #182, .F. ) ;
#107 = ORIENTED_EDGE ( 'NONE', *, *, #223, .F. ) ;
#108 = ORIENTED_EDGE ( 'NONE', *, *, #176, .T. ) ;
#109 = CIRCLE ( 'NONE', #211, 4.000000000000006200 ) ;
#110 = ORIENTED_EDGE ( 'NONE', *, *, #191, .F. ) ;
#111 = ORGANIZATION ( 'UNSPECIFIED', 'UNSPECIFIED', '' ) ;
#112 = ORIENTED_EDGE ( 'NONE', *, *, #177, .F. ) ;
#113 = ORIENTED_EDGE ( 'NONE', *, *, #224, .T. ) ;
#114 = ORIENTED_EDGE ( 'NONE', *, *, #14, .F. ) ;
#115 = LINE ( 'NONE', #298, #18 ) ;
#116 = ORIENTED_EDGE ( 'NONE', *, *, #235, .T. ) ;
#117 = CIRCLE ( 'NONE', #206, 16.00000000000000000 ) ;
#118 = ORIENTED_EDGE ( 'NONE', *, *, #192, .F. ) ;
#119 = LINE ( 'NONE', #294, #135 ) ;
#120 = ORIENTED_EDGE ( 'NONE', *, *, #227, .T. ) ;
#121 = VECTOR ( 'NONE', #290, 1000.000000000000000 ) ;
#122 = LINE ( 'NONE', #309, #121 ) ;
#123 = ORIENTED_EDGE ( 'NONE', *, *, #183, .T. ) ;
#124 = ORIENTED_EDGE ( 'NONE', *, *, #177, .T. ) ;
#125 = CIRCLE ( 'NONE', #218, 4.000000000000006200 ) ;
#126 = ORIENTED_EDGE ( 'NONE', *, *, #199, .T. ) ;
#127 = ORIENTED_EDGE ( 'NONE', *, *, #226, .T. ) ;
#128 =( GEOMETRIC_REPRESENTATION_CONTEXT ( 3 ) GLOBAL_UNCERTAINTY_ASSIGNED_CONTEXT ( ( #236 ) ) GLOBAL_UNIT_ASSIGNED_CONTEXT ( ( #260, #261, #262 ) ) REPRESENTATION_CONTEXT ( 'NONE', 'WORKASPACE' ) );
#129 = CIRCLE ( 'NONE', #200, 4.000000000000006200 ) ;
#130 = ORIENTED_EDGE ( 'NONE', *, *, #227, .F. ) ;
#131 = CIRCLE ( 'NONE', #214, 4.000000000000006200 ) ;
#132 = PERSON_AND_ORGANIZATION ( #334, #111 ) ;
#133 = CIRCLE ( 'NONE', #201, 4.000000000000006200 ) ;
#134 = LINE ( 'NONE', #242, #136 ) ;
#135 = VECTOR ( 'NONE', #295, 1000.000000000000000 ) ;
#136 = VECTOR ( 'NONE', #243, 1000.000000000000000 ) ;
#137 = CIRCLE ( 'NONE', #203, 16.00000000000000000 ) ;
#138 = CIRCLE ( 'NONE', #202, 50.79999999999999700 ) ;
#139 = PERSON_AND_ORGANIZATION ( #334, #111 ) ;
#140 = DATE_AND_TIME ( #142, #141 ) ;
#141 = LOCAL_TIME ( 15, 29, 57.00000000000000000, #150 ) ;
#142 = CALENDAR_DATE ( 2012, 26, 6 ) ;
#143 = APPROVAL_PERSON_ORGANIZATION ( #132, #188, #273 ) ;
#144 = COORDINATED_UNIVERSAL_TIME_OFFSET ( 6, 0, .BEHIND. ) ;
#145 = CALENDAR_DATE ( 2012, 26, 6 ) ;
#146 = DATE_AND_TIME ( #145, #149 ) ;
#147 = APPROVAL_DATE_TIME ( #146, #188 ) ;
#148 = PERSON_AND_ORGANIZATION ( #334, #111 ) ;
#149 = LOCAL_TIME ( 15, 29, 57.00000000000000000, #144 ) ;
#150 = COORDINATED_UNIVERSAL_TIME_OFFSET ( 6, 0, .BEHIND. ) ;
#151 = CIRCLE ( 'NONE', #212, 4.000000000000006200 ) ;
#152 = ORIENTED_EDGE ( 'NONE', *, *, #181, .T. ) ;
#153 = ORIENTED_EDGE ( 'NONE', *, *, #178, .T. ) ;
#154 = PERSON_AND_ORGANIZATION ( #334, #111 ) ;
#155 = APPROVAL_PERSON_ORGANIZATION ( #154, #386, #277 ) ;
#156 = COORDINATED_UNIVERSAL_TIME_OFFSET ( 6, 0, .BEHIND. ) ;
#157 = LOCAL_TIME ( 15, 29, 57.00000000000000000, #156 ) ;
#158 = CALENDAR_DATE ( 2012, 26, 6 ) ;
#159 = DATE_AND_TIME ( #158, #157 ) ;
#160 = APPROVAL_DATE_TIME ( #159, #386 ) ;
#161 = PERSON_AND_ORGANIZATION ( #334, #111 ) ;
#162 = PERSON_AND_ORGANIZATION ( #334, #111 ) ;
#163 = PERSON_AND_ORGANIZATION ( #334, #111 ) ;
#164 = COORDINATED_UNIVERSAL_TIME_OFFSET ( 6, 0, .BEHIND. ) ;
#165 = LOCAL_TIME ( 15, 29, 57.00000000000000000, #164 ) ;
#166 = CALENDAR_DATE ( 2012, 26, 6 ) ;
#167 = DATE_AND_TIME ( #166, #165 ) ;
#168 = PERSON_AND_ORGANIZATION ( #334, #111 ) ;
#169 = APPROVAL_PERSON_ORGANIZATION ( #168, #231, #396 ) ;
#170 = COORDINATED_UNIVERSAL_TIME_OFFSET ( 6, 0, .BEHIND. ) ;
#171 = LOCAL_TIME ( 15, 29, 57.00000000000000000, #170 ) ;
#172 = CALENDAR_DATE ( 2012, 26, 6 ) ;
#173 = DATE_AND_TIME ( #172, #171 ) ;
#174 = APPROVAL_DATE_TIME ( #173, #231 ) ;
#175 = PLANE ( 'NONE',  #217 ) ;
#176 = EDGE_CURVE ( 'NONE', #355, #379, #22, .T. ) ;
#177 = EDGE_CURVE ( 'NONE', #378, #377, #131, .T. ) ;
#178 = EDGE_CURVE ( 'NONE', #352, #380, #125, .T. ) ;
#179 = EDGE_CURVE ( 'NONE', #367, #366, #117, .T. ) ;
#180 = EDGE_CURVE ( 'NONE', #353, #205, #65, .T. ) ;
#181 = EDGE_CURVE ( 'NONE', #205, #355, #47, .T. ) ;
#182 = EDGE_CURVE ( 'NONE', #374, #381, #24, .T. ) ;
#183 = EDGE_CURVE ( 'NONE', #205, #353, #81, .T. ) ;
#184 = MANIFOLD_SOLID_BREP ( 'Cut-Extrude1', #40 ) ;
#185 = CC_DESIGN_PERSON_AND_ORGANIZATION_ASSIGNMENT ( #139, #269, ( #333 ) ) ;
#186 = AXIS2_PLACEMENT_3D ( 'NONE', #263, #264, #265 ) ;
#187 = PRODUCT_DEFINITION ( 'UNKNOWN', '', #385, #279 ) ;
#188 = APPROVAL ( #272, 'UNSPECIFIED' ) ;
#189 = CC_DESIGN_APPROVAL ( #188, ( #187 ) ) ;
#190 = CARTESIAN_POINT ( 'NONE',  ( 0.0000000000000000000, 12.69999999999999900, 0.0000000000000000000 ) ) ;
#191 = EDGE_CURVE ( 'NONE', #381, #374, #105, .T. ) ;
#192 = EDGE_CURVE ( 'NONE', #376, #354, #109, .T. ) ;
#193 = EDGE_CURVE ( 'NONE', #377, #382, #115, .T. ) ;
#194 = EDGE_CURVE ( 'NONE', #382, #371, #151, .T. ) ;
#195 = AXIS2_PLACEMENT_3D ( 'NONE', #329, #328, #324 ) ;
#196 = AXIS2_PLACEMENT_3D ( 'NONE', #362, #316, #317 ) ;
#197 = AXIS2_PLACEMENT_3D ( 'NONE', #370, #373, #375 ) ;
#198 = AXIS2_PLACEMENT_3D ( 'NONE', #359, #363, #365 ) ;
#199 = EDGE_CURVE ( 'NONE', #378, #371, #64, .T. ) ;
#200 = AXIS2_PLACEMENT_3D ( 'NONE', #312, #287, #288 ) ;
#201 = AXIS2_PLACEMENT_3D ( 'NONE', #289, #292, #293 ) ;
#202 = AXIS2_PLACEMENT_3D ( 'NONE', #291, #240, #241 ) ;
#203 = AXIS2_PLACEMENT_3D ( 'NONE', #286, #297, #238 ) ;
#204 = AXIS2_PLACEMENT_3D ( 'NONE', #296, #246, #247 ) ;
#205 = VERTEX_POINT ( 'NONE', #315 ) ;
#206 = AXIS2_PLACEMENT_3D ( 'NONE', #344, #345, #346 ) ;
#207 = AXIS2_PLACEMENT_3D ( 'NONE', #301, #304, #305 ) ;
#208 = AXIS2_PLACEMENT_3D ( 'NONE', #347, #348, #349 ) ;
#209 = AXIS2_PLACEMENT_3D ( 'NONE', #350, #299, #300 ) ;
#210 = AXIS2_PLACEMENT_3D ( 'NONE', #190, #302, #303 ) ;
#211 = AXIS2_PLACEMENT_3D ( 'NONE', #306, #307, #308 ) ;
#212 = AXIS2_PLACEMENT_3D ( 'NONE', #311, #313, #314 ) ;
#213 = AXIS2_PLACEMENT_3D ( 'NONE', #16, #369, #364 ) ;
#214 = AXIS2_PLACEMENT_3D ( 'NONE', #338, #339, #340 ) ;
#215 = AXIS2_PLACEMENT_3D ( 'NONE', #330, #331, #337 ) ;
#216 = AXIS2_PLACEMENT_3D ( 'NONE', #283, #284, #285 ) ;
#217 = AXIS2_PLACEMENT_3D ( 'NONE', #320, #321, #322 ) ;
#218 = AXIS2_PLACEMENT_3D ( 'NONE', #341, #342, #343 ) ;
#219 = AXIS2_PLACEMENT_3D ( 'NONE', #319, #318, #325 ) ;
#220 = AXIS2_PLACEMENT_3D ( 'NONE', #327, #326, #323 ) ;
#221 = EDGE_CURVE ( 'NONE', #371, #382, #94, .T. ) ;
#222 = EDGE_CURVE ( 'NONE', #354, #376, #129, .T. ) ;
#223 = EDGE_CURVE ( 'NONE', #380, #376, #122, .T. ) ;
#224 = EDGE_CURVE ( 'NONE', #380, #352, #133, .T. ) ;
#225 = EDGE_CURVE ( 'NONE', #352, #354, #119, .T. ) ;
#226 = EDGE_CURVE ( 'NONE', #366, #367, #137, .T. ) ;
#227 = EDGE_CURVE ( 'NONE', #379, #355, #138, .T. ) ;
#228 = EDGE_CURVE ( 'NONE', #374, #367, #134, .T. ) ;
#229 = CC_DESIGN_PERSON_AND_ORGANIZATION_ASSIGNMENT ( #163, #393, ( #390 ) ) ;
#230 = CC_DESIGN_DATE_AND_TIME_ASSIGNMENT ( #167, #394, ( #390 ) ) ;
#231 = APPROVAL ( #395, 'UNSPECIFIED' ) ;
#232 = CC_DESIGN_APPROVAL ( #231, ( #390 ) ) ;
#233 = CC_DESIGN_SECURITY_CLASSIFICATION ( #390, ( #385 ) ) ;
#234 = PRODUCT_RELATED_PRODUCT_CATEGORY ( 'detail', '', ( #333 ) ) ;
#235 = EDGE_CURVE ( 'NONE', #377, #378, #19, .T. ) ;
#236 = UNCERTAINTY_MEASURE_WITH_UNIT (LENGTH_MEASURE( 1.000000000000000100E-005 ), #260, 'distance_accuracy_value', 'NONE');
#237 = ADVANCED_BREP_SHAPE_REPRESENTATION ( 'MountDisc', ( #184, #186 ), #128 ) ;
#238 = DIRECTION ( 'NONE',  ( 0.0000000000000000000, 0.0000000000000000000, 1.000000000000000000 ) ) ;
#239 = CARTESIAN_POINT ( 'NONE',  ( 45.00000000000000000, 12.69999999999999900, 4.000000000000006200 ) ) ;
#240 = DIRECTION ( 'NONE',  ( 0.0000000000000000000, 1.000000000000000000, 0.0000000000000000000 ) ) ;
#241 = DIRECTION ( 'NONE',  ( 0.0000000000000000000, 0.0000000000000000000, 1.000000000000000000 ) ) ;
#242 = CARTESIAN_POINT ( 'NONE',  ( 1.959434878635765100E-015, 12.69999999999999900, 16.00000000000000000 ) ) ;
#243 = DIRECTION ( 'NONE',  ( -0.0000000000000000000, -1.000000000000000000, -0.0000000000000000000 ) ) ;
#244 = CARTESIAN_POINT ( 'NONE',  ( -45.00000000000000000, 0.0000000000000000000, 4.000000000000011500 ) ) ;
#245 = CARTESIAN_POINT ( 'NONE',  ( 6.221205739668553700E-015, 12.69999999999999900, 50.79999999999999700 ) ) ;
#246 = DIRECTION ( 'NONE',  ( 0.0000000000000000000, 1.000000000000000000, -0.0000000000000000000 ) ) ;
#247 = DIRECTION ( 'NONE',  ( 0.0000000000000000000, 0.0000000000000000000, 1.000000000000000000 ) ) ;
#248 = CARTESIAN_POINT ( 'NONE',  ( -45.00000000000000000, 12.69999999999999900, 4.000000000000011500 ) ) ;
#249 = CARTESIAN_POINT ( 'NONE',  ( 0.0000000000000000000, 0.0000000000000000000, -50.79999999999999700 ) ) ;
#250 = CARTESIAN_POINT ( 'NONE',  ( 0.0000000000000000000, 0.0000000000000000000, -16.00000000000000000 ) ) ;
#251 = CARTESIAN_POINT ( 'NONE',  ( 1.959434878635765100E-015, 0.0000000000000000000, 16.00000000000000000 ) ) ;
#252 = CARTESIAN_POINT ( 'NONE',  ( 1.959434878635765100E-015, 12.69999999999999900, 16.00000000000000000 ) ) ;
#253 = CARTESIAN_POINT ( 'NONE',  ( -45.00000000000000000, 12.69999999999999900, -4.000000000000000900 ) ) ;
#254 = CARTESIAN_POINT ( 'NONE',  ( 45.00000000000000000, 0.0000000000000000000, -4.000000000000006200 ) ) ;
#255 = CARTESIAN_POINT ( 'NONE',  ( 45.00000000000000000, 0.0000000000000000000, 4.000000000000006200 ) ) ;
#256 = CARTESIAN_POINT ( 'NONE',  ( 6.221205739668553700E-015, 0.0000000000000000000, 50.79999999999999700 ) ) ;
#257 = CARTESIAN_POINT ( 'NONE',  ( -45.00000000000000000, 0.0000000000000000000, -4.000000000000000900 ) ) ;
#258 = CARTESIAN_POINT ( 'NONE',  ( 0.0000000000000000000, 12.69999999999999900, -16.00000000000000000 ) ) ;
#259 = CARTESIAN_POINT ( 'NONE',  ( 45.00000000000000000, 12.69999999999999900, -4.000000000000006200 ) ) ;
#260 =( LENGTH_UNIT ( ) NAMED_UNIT ( * ) SI_UNIT ( .MILLI., .METRE. ) );
#261 =( NAMED_UNIT ( * ) PLANE_ANGLE_UNIT ( ) SI_UNIT ( $, .RADIAN. ) );
#262 =( NAMED_UNIT ( * ) SI_UNIT ( $, .STERADIAN. ) SOLID_ANGLE_UNIT ( ) );
#263 = CARTESIAN_POINT ( 'NONE',  ( 0.0000000000000000000, 0.0000000000000000000, 0.0000000000000000000 ) ) ;
#264 = DIRECTION ( 'NONE',  ( 0.0000000000000000000, 0.0000000000000000000, 1.000000000000000000 ) ) ;
#265 = DIRECTION ( 'NONE',  ( 1.000000000000000000, 0.0000000000000000000, 0.0000000000000000000 ) ) ;
#266 = APPLICATION_CONTEXT ( 'configuration controlled 3d designs of mechanical parts and assemblies' ) ;
#267 = APPLICATION_PROTOCOL_DEFINITION ( 'international standard', 'config_control_design', 1994, #266 ) ;
#268 = MECHANICAL_CONTEXT ( 'NONE', #266, 'mechanical' ) ;
#269 = PERSON_AND_ORGANIZATION_ROLE ( 'design_owner' ) ;
#270 = APPLICATION_CONTEXT ( 'configuration controlled 3d designs of mechanical parts and assemblies' ) ;
#271 = APPLICATION_PROTOCOL_DEFINITION ( 'international standard', 'config_control_design', 1994, #270 ) ;
#272 = APPROVAL_STATUS ( 'not_yet_approved' ) ;
#273 = APPROVAL_ROLE ( '' ) ;
#274 = PERSON_AND_ORGANIZATION_ROLE ( 'creator' ) ;
#275 = DATE_TIME_ROLE ( 'creation_date' ) ;
#276 = APPROVAL_STATUS ( 'not_yet_approved' ) ;
#277 = APPROVAL_ROLE ( '' ) ;
#278 = PERSON_AND_ORGANIZATION_ROLE ( 'creator' ) ;
#279 = DESIGN_CONTEXT ( 'detailed design', #270, 'design' ) ;
#280 = PRODUCT_DEFINITION_SHAPE ( 'NONE', 'NONE',  #187 ) ;
#281 = CARTESIAN_POINT ( 'NONE',  ( 45.00000000000000000, 0.0000000000000000000, 4.000000000000006200 ) ) ;
#282 = DIRECTION ( 'NONE',  ( -0.0000000000000000000, 1.000000000000000000, -0.0000000000000000000 ) ) ;
#283 = CARTESIAN_POINT ( 'NONE',  ( 45.00000000000000000, 12.69999999999999900, 0.0000000000000000000 ) ) ;
#284 = DIRECTION ( 'NONE',  ( 0.0000000000000000000, 1.000000000000000000, -0.0000000000000000000 ) ) ;
#285 = DIRECTION ( 'NONE',  ( 0.0000000000000000000, 0.0000000000000000000, 1.000000000000000000 ) ) ;
#286 = CARTESIAN_POINT ( 'NONE',  ( 0.0000000000000000000, 0.0000000000000000000, 0.0000000000000000000 ) ) ;
#287 = DIRECTION ( 'NONE',  ( 0.0000000000000000000, 1.000000000000000000, -0.0000000000000000000 ) ) ;
#288 = DIRECTION ( 'NONE',  ( 0.0000000000000000000, 0.0000000000000000000, 1.000000000000000000 ) ) ;
#289 = CARTESIAN_POINT ( 'NONE',  ( -45.00000000000000000, 0.0000000000000000000, 5.510910596163089600E-015 ) ) ;
#290 = DIRECTION ( 'NONE',  ( -0.0000000000000000000, 1.000000000000000000, -0.0000000000000000000 ) ) ;
#291 = CARTESIAN_POINT ( 'NONE',  ( 0.0000000000000000000, 0.0000000000000000000, 0.0000000000000000000 ) ) ;
#292 = DIRECTION ( 'NONE',  ( 0.0000000000000000000, 1.000000000000000000, -0.0000000000000000000 ) ) ;
#293 = DIRECTION ( 'NONE',  ( 0.0000000000000000000, 0.0000000000000000000, 1.000000000000000000 ) ) ;
#294 = CARTESIAN_POINT ( 'NONE',  ( -45.00000000000000000, 0.0000000000000000000, 4.000000000000011500 ) ) ;
#295 = DIRECTION ( 'NONE',  ( -0.0000000000000000000, 1.000000000000000000, -0.0000000000000000000 ) ) ;
#296 = CARTESIAN_POINT ( 'NONE',  ( 45.00000000000000000, 0.0000000000000000000, 0.0000000000000000000 ) ) ;
#297 = DIRECTION ( 'NONE',  ( 0.0000000000000000000, 1.000000000000000000, 0.0000000000000000000 ) ) ;
#298 = CARTESIAN_POINT ( 'NONE',  ( 45.00000000000000000, 0.0000000000000000000, -4.000000000000006200 ) ) ;
#299 = DIRECTION ( 'NONE',  ( 0.0000000000000000000, 1.000000000000000000, 0.0000000000000000000 ) ) ;
#300 = DIRECTION ( 'NONE',  ( 0.0000000000000000000, 0.0000000000000000000, 1.000000000000000000 ) ) ;
#301 = CARTESIAN_POINT ( 'NONE',  ( 0.0000000000000000000, 12.69999999999999900, 0.0000000000000000000 ) ) ;
#302 = DIRECTION ( 'NONE',  ( 0.0000000000000000000, 1.000000000000000000, 0.0000000000000000000 ) ) ;
#303 = DIRECTION ( 'NONE',  ( 0.0000000000000000000, 0.0000000000000000000, 1.000000000000000000 ) ) ;
#304 = DIRECTION ( 'NONE',  ( 0.0000000000000000000, 1.000000000000000000, 0.0000000000000000000 ) ) ;
#305 = DIRECTION ( 'NONE',  ( 0.0000000000000000000, 0.0000000000000000000, 1.000000000000000000 ) ) ;
#306 = CARTESIAN_POINT ( 'NONE',  ( -45.00000000000000000, 12.69999999999999900, 5.510910596163089600E-015 ) ) ;
#307 = DIRECTION ( 'NONE',  ( 0.0000000000000000000, 1.000000000000000000, -0.0000000000000000000 ) ) ;
#308 = DIRECTION ( 'NONE',  ( 0.0000000000000000000, 0.0000000000000000000, 1.000000000000000000 ) ) ;
#309 = CARTESIAN_POINT ( 'NONE',  ( -45.00000000000000000, 0.0000000000000000000, -4.000000000000000900 ) ) ;
#310 = DIRECTION ( 'NONE',  ( -0.0000000000000000000, 1.000000000000000000, -0.0000000000000000000 ) ) ;
#311 = CARTESIAN_POINT ( 'NONE',  ( 45.00000000000000000, 12.69999999999999900, 0.0000000000000000000 ) ) ;
#312 = CARTESIAN_POINT ( 'NONE',  ( -45.00000000000000000, 12.69999999999999900, 5.510910596163089600E-015 ) ) ;
#313 = DIRECTION ( 'NONE',  ( 0.0000000000000000000, 1.000000000000000000, -0.0000000000000000000 ) ) ;
#314 = DIRECTION ( 'NONE',  ( 0.0000000000000000000, 0.0000000000000000000, 1.000000000000000000 ) ) ;
#315 = CARTESIAN_POINT ( 'NONE',  ( 0.0000000000000000000, 12.69999999999999900, -50.79999999999999700 ) ) ;
#316 = DIRECTION ( 'NONE',  ( -0.0000000000000000000, -1.000000000000000000, -0.0000000000000000000 ) ) ;
#317 = DIRECTION ( 'NONE',  ( 0.0000000000000000000, 0.0000000000000000000, -1.000000000000000000 ) ) ;
#318 = DIRECTION ( 'NONE',  ( -0.0000000000000000000, -1.000000000000000000, -0.0000000000000000000 ) ) ;
#319 = CARTESIAN_POINT ( 'NONE',  ( 0.0000000000000000000, 12.69999999999999900, 0.0000000000000000000 ) ) ;
#320 = CARTESIAN_POINT ( 'NONE',  ( 0.0000000000000000000, 12.69999999999999900, 0.0000000000000000000 ) ) ;
#321 = DIRECTION ( 'NONE',  ( 0.0000000000000000000, 1.000000000000000000, 0.0000000000000000000 ) ) ;
#322 = DIRECTION ( 'NONE',  ( 0.0000000000000000000, -0.0000000000000000000, 1.000000000000000000 ) ) ;
#323 = DIRECTION ( 'NONE',  ( 0.0000000000000000000, 0.0000000000000000000, 1.000000000000000000 ) ) ;
#324 = DIRECTION ( 'NONE',  ( 0.0000000000000000000, 0.0000000000000000000, 1.000000000000000000 ) ) ;
#325 = DIRECTION ( 'NONE',  ( 0.0000000000000000000, 0.0000000000000000000, -1.000000000000000000 ) ) ;
#326 = DIRECTION ( 'NONE',  ( -0.0000000000000000000, 1.000000000000000000, -0.0000000000000000000 ) ) ;
#327 = CARTESIAN_POINT ( 'NONE',  ( 45.00000000000000000, 0.0000000000000000000, 0.0000000000000000000 ) ) ;
#328 = DIRECTION ( 'NONE',  ( -0.0000000000000000000, 1.000000000000000000, -0.0000000000000000000 ) ) ;
#329 = CARTESIAN_POINT ( 'NONE',  ( -45.00000000000000000, 0.0000000000000000000, 5.510910596163089600E-015 ) ) ;
#330 = CARTESIAN_POINT ( 'NONE',  ( 0.0000000000000000000, 0.0000000000000000000, 0.0000000000000000000 ) ) ;
#331 = DIRECTION ( 'NONE',  ( 0.0000000000000000000, 1.000000000000000000, 0.0000000000000000000 ) ) ;
#332 = CARTESIAN_POINT ( 'NONE',  ( 0.0000000000000000000, 12.69999999999999900, -16.00000000000000000 ) ) ;
#333 = PRODUCT ( 'MountDisc', 'MountDisc', '', ( #268 ) ) ;
#334 = PERSON ( 'UNSPECIFIED', 'UNSPECIFIED', 'UNSPECIFIED', ('UNSPECIFIED'), ('UNSPECIFIED'), ('UNSPECIFIED') ) ;
#335 = DIRECTION ( 'NONE',  ( -0.0000000000000000000, -1.000000000000000000, -0.0000000000000000000 ) ) ;
#336 = CARTESIAN_POINT ( 'NONE',  ( 0.0000000000000000000, 12.69999999999999900, -50.79999999999999700 ) ) ;
#337 = DIRECTION ( 'NONE',  ( 0.0000000000000000000, 0.0000000000000000000, 1.000000000000000000 ) ) ;
#338 = CARTESIAN_POINT ( 'NONE',  ( 45.00000000000000000, 0.0000000000000000000, 0.0000000000000000000 ) ) ;
#339 = DIRECTION ( 'NONE',  ( 0.0000000000000000000, 1.000000000000000000, -0.0000000000000000000 ) ) ;
#340 = DIRECTION ( 'NONE',  ( 0.0000000000000000000, 0.0000000000000000000, 1.000000000000000000 ) ) ;
#341 = CARTESIAN_POINT ( 'NONE',  ( -45.00000000000000000, 0.0000000000000000000, 5.510910596163089600E-015 ) ) ;
#342 = DIRECTION ( 'NONE',  ( 0.0000000000000000000, 1.000000000000000000, -0.0000000000000000000 ) ) ;
#343 = DIRECTION ( 'NONE',  ( 0.0000000000000000000, 0.0000000000000000000, 1.000000000000000000 ) ) ;
#344 = CARTESIAN_POINT ( 'NONE',  ( 0.0000000000000000000, 0.0000000000000000000, 0.0000000000000000000 ) ) ;
#345 = DIRECTION ( 'NONE',  ( 0.0000000000000000000, 1.000000000000000000, 0.0000000000000000000 ) ) ;
#346 = DIRECTION ( 'NONE',  ( 0.0000000000000000000, 0.0000000000000000000, 1.000000000000000000 ) ) ;
#347 = CARTESIAN_POINT ( 'NONE',  ( 0.0000000000000000000, 12.69999999999999900, 0.0000000000000000000 ) ) ;
#348 = DIRECTION ( 'NONE',  ( 0.0000000000000000000, 1.000000000000000000, 0.0000000000000000000 ) ) ;
#349 = DIRECTION ( 'NONE',  ( 0.0000000000000000000, 0.0000000000000000000, 1.000000000000000000 ) ) ;
#350 = CARTESIAN_POINT ( 'NONE',  ( 0.0000000000000000000, 12.69999999999999900, 0.0000000000000000000 ) ) ;
#351 = DIRECTION ( 'NONE',  ( -0.0000000000000000000, -1.000000000000000000, -0.0000000000000000000 ) ) ;
#352 = VERTEX_POINT ( 'NONE', #244 ) ;
#353 = VERTEX_POINT ( 'NONE', #245 ) ;
#354 = VERTEX_POINT ( 'NONE', #248 ) ;
#355 = VERTEX_POINT ( 'NONE', #249 ) ;
#356 = CARTESIAN_POINT ( 'NONE',  ( -45.00000000000000000, 0.0000000000000000000, 5.510910596163089600E-015 ) ) ;
#357 = DIRECTION ( 'NONE',  ( -0.0000000000000000000, 1.000000000000000000, -0.0000000000000000000 ) ) ;
#358 = CARTESIAN_POINT ( 'NONE',  ( 45.00000000000000000, 0.0000000000000000000, 0.0000000000000000000 ) ) ;
#359 = CARTESIAN_POINT ( 'NONE',  ( 0.0000000000000000000, 0.0000000000000000000, 0.0000000000000000000 ) ) ;
#360 = DIRECTION ( 'NONE',  ( -0.0000000000000000000, 1.000000000000000000, -0.0000000000000000000 ) ) ;
#361 = DIRECTION ( 'NONE',  ( 0.0000000000000000000, 0.0000000000000000000, 1.000000000000000000 ) ) ;
#362 = CARTESIAN_POINT ( 'NONE',  ( 0.0000000000000000000, 12.69999999999999900, 0.0000000000000000000 ) ) ;
#363 = DIRECTION ( 'NONE',  ( 0.0000000000000000000, 1.000000000000000000, 0.0000000000000000000 ) ) ;
#364 = DIRECTION ( 'NONE',  ( 0.0000000000000000000, 0.0000000000000000000, -1.000000000000000000 ) ) ;
#365 = DIRECTION ( 'NONE',  ( 0.0000000000000000000, -0.0000000000000000000, 1.000000000000000000 ) ) ;
#366 = VERTEX_POINT ( 'NONE', #250 ) ;
#367 = VERTEX_POINT ( 'NONE', #251 ) ;
#368 = DIRECTION ( 'NONE',  ( 0.0000000000000000000, 0.0000000000000000000, 1.000000000000000000 ) ) ;
#369 = DIRECTION ( 'NONE',  ( -0.0000000000000000000, -1.000000000000000000, -0.0000000000000000000 ) ) ;
#370 = CARTESIAN_POINT ( 'NONE',  ( 0.0000000000000000000, 12.69999999999999900, 0.0000000000000000000 ) ) ;
#371 = VERTEX_POINT ( 'NONE', #239 ) ;
#372 = PLANE ( 'NONE',  #198 ) ;
#373 = DIRECTION ( 'NONE',  ( -0.0000000000000000000, -1.000000000000000000, -0.0000000000000000000 ) ) ;
#374 = VERTEX_POINT ( 'NONE', #252 ) ;
#375 = DIRECTION ( 'NONE',  ( 0.0000000000000000000, 0.0000000000000000000, -1.000000000000000000 ) ) ;
#376 = VERTEX_POINT ( 'NONE', #253 ) ;
#377 = VERTEX_POINT ( 'NONE', #254 ) ;
#378 = VERTEX_POINT ( 'NONE', #255 ) ;
#379 = VERTEX_POINT ( 'NONE', #256 ) ;
#380 = VERTEX_POINT ( 'NONE', #257 ) ;
#381 = VERTEX_POINT ( 'NONE', #258 ) ;
#382 = VERTEX_POINT ( 'NONE', #259 ) ;
#383 = CC_DESIGN_PERSON_AND_ORGANIZATION_ASSIGNMENT ( #148, #274, ( #187 ) ) ;
#384 = CC_DESIGN_DATE_AND_TIME_ASSIGNMENT ( #140, #275, ( #187 ) ) ;
#385 = PRODUCT_DEFINITION_FORMATION_WITH_SPECIFIED_SOURCE ( 'ANY', '', #333, .NOT_KNOWN. ) ;
#386 = APPROVAL ( #276, 'UNSPECIFIED' ) ;
#387 = CC_DESIGN_APPROVAL ( #386, ( #385 ) ) ;
#388 = CC_DESIGN_PERSON_AND_ORGANIZATION_ASSIGNMENT ( #161, #278, ( #385 ) ) ;
#389 = CC_DESIGN_PERSON_AND_ORGANIZATION_ASSIGNMENT ( #162, #391, ( #385 ) ) ;
#390 = SECURITY_CLASSIFICATION ( '', '', #392 ) ;
#391 = PERSON_AND_ORGANIZATION_ROLE ( 'design_supplier' ) ;
#392 = SECURITY_CLASSIFICATION_LEVEL ( 'unclassified' ) ;
#393 = PERSON_AND_ORGANIZATION_ROLE ( 'classification_officer' ) ;
#394 = DATE_TIME_ROLE ( 'classification_date' ) ;
#395 = APPROVAL_STATUS ( 'not_yet_approved' ) ;
#396 = APPROVAL_ROLE ( '' ) ;
#397 = CARTESIAN_POINT ( 'NONE',  ( 6.221205739668553700E-015, 12.69999999999999900, 50.79999999999999700 ) ) ;
ENDSEC;
END-ISO-10303-21;
