 0
SECTION
 2
ENTITIES
  0
POLYLINE
 8
Layer0
 66
     1
70
    8
 10
0.0
 20
 0.0
 30
0.0
  0
VERTEX
  8
MY3DLAYER
10
175.320145051445
20
-100.85560116308
30
2.0
 70
     32
  0
VERTEX
  8
MY3DLAYER
10
174.165561907441
20
-102.360283211402
30
2.0
 70
     32
  0
VERTEX
  8
MY3DLAYER
10
174.958915247732
20
-102.96904464041
30
2.0
 70
     32
  0
VERTEX
  8
MY3DLAYER
10
176.1936433543
20
-101.359915643371
30
2.0
 70
     32
  0
VERTEX
  8
MY3DLAYER
10
177.392448424356
20
-98.4657441846008
30
2.0
 70
     32
  0
VERTEX
  8
MY3DLAYER
10
177.801338508887
20
-95.3599156433705
30
2.0
 70
     32
  0
VERTEX
  8
MY3DLAYER
10
177.392448424356
20
-92.2540871021403
30
2.0
 70
     32
  0
VERTEX
  8
MY3DLAYER
10
176.1936433543
20
-89.3599156433705
30
2.0
 70
     32
  0
VERTEX
  8
MY3DLAYER
10
174.286619883126
20
-86.874634269132
30
2.0
 70
     32
  0
VERTEX
  8
MY3DLAYER
10
171.801338508887
20
-84.9676107979573
30
2.0
 70
     32
  0
VERTEX
  8
MY3DLAYER
10
168.907167050117
20
-83.7688057279017
30
2.0
 70
     32
  0
VERTEX
  8
MY3DLAYER
10
165.801338508887
20
-83.3599156433705
30
2.0
 70
     32
  0
VERTEX
  8
MY3DLAYER
10
162.695509967657
20
-83.7688057279017
30
2.0
 70
     32
  0
VERTEX
  8
MY3DLAYER
10
159.801338508887
20
-84.9676107979573
30
2.0
 70
     32
  0
VERTEX
  8
MY3DLAYER
10
157.316057134649
20
-86.874634269132
30
2.0
 70
     32
  0
VERTEX
  8
MY3DLAYER
10
155.409033663474
20
-89.3599156433705
30
2.0
 70
     32
  0
VERTEX
  8
MY3DLAYER
10
154.210228593418
20
-92.2540871021403
30
2.0
 70
     32
  0
VERTEX
  8
MY3DLAYER
10
153.801338508887
20
-95.3599156433705
30
2.0
 70
     32
  0
VERTEX
  8
MY3DLAYER
10
154.210228593418
20
-98.4657441846008
30
2.0
 70
     32
  0
VERTEX
  8
MY3DLAYER
10
155.409033663474
20
-101.359915643371
30
2.0
 70
     32
  0
VERTEX
  8
MY3DLAYER
10
156.499646665309
20
-102.781230179313
30
2.0
 70
     32
  0
VERTEX
  8
MY3DLAYER
10
157.2930000056
20
-102.172468750304
30
2.0
 70
     32
  0
VERTEX
  8
MY3DLAYER
10
156.282531966329
20
-100.85560116308
30
2.0
 70
     32
  0
VERTEX
  8
MY3DLAYER
10
155.184489355586
20
-98.2046918001607
30
2.0
 70
     32
  0
VERTEX
  8
MY3DLAYER
10
154.809967469467
20
-95.3599156433705
30
2.0
 70
     32
  0
VERTEX
  8
MY3DLAYER
10
155.184489355586
20
-92.5151394865804
30
2.0
 70
     32
  0
VERTEX
  8
MY3DLAYER
10
156.282531966329
20
-89.8642301236606
30
2.0
 70
     32
  0
VERTEX
  8
MY3DLAYER
10
158.029265512376
20
-87.5878426468593
30
2.0
 70
     32
  0
VERTEX
  8
MY3DLAYER
10
160.305652989177
20
-85.8411091008124
30
2.0
 70
     32
  0
VERTEX
  8
MY3DLAYER
10
162.956562352097
20
-84.7430664900692
30
2.0
 70
     32
  0
VERTEX
  8
MY3DLAYER
10
165.801338508887
20
-84.3685446039507
30
2.0
 70
     32
  0
VERTEX
  8
MY3DLAYER
10
168.646114665677
20
-84.7430664900692
30
2.0
 70
     32
  0
VERTEX
  8
MY3DLAYER
10
171.297024028597
20
-85.8411091008124
30
2.0
 70
     32
  0
VERTEX
  8
MY3DLAYER
10
173.573411505398
20
-87.5878426468593
30
2.0
 70
     32
  0
VERTEX
  8
MY3DLAYER
10
175.320145051445
20
-89.8642301236606
30
2.0
 70
     32
  0
VERTEX
  8
MY3DLAYER
10
176.418187662188
20
-92.5151394865804
30
2.0
 70
     32
  0
VERTEX
  8
MY3DLAYER
10
176.792709548307
20
-95.3599156433705
30
2.0
 70
     32
  0
VERTEX
  8
MY3DLAYER
10
176.418187662188
20
-98.2046918001607
30
2.0
 70
     32
  0
VERTEX
  8
MY3DLAYER
10
175.320145051445
20
-100.85560116308
30
2.0
 70
     32
  0
SEQEND
  0
POLYLINE
 8
Layer0
 66
     1
70
    8
 10
0.0
 20
 0.0
 30
0.0
  0
VERTEX
  8
MY3DLAYER
10
175.320145051445
20
-100.85560116308
30
0.0
 70
     32
  0
VERTEX
  8
MY3DLAYER
10
174.165561907441
20
-102.360283211402
30
0.0
 70
     32
  0
VERTEX
  8
MY3DLAYER
10
174.165561907441
20
-102.360283211402
30
2.0
 70
     32
  0
VERTEX
  8
MY3DLAYER
10
175.320145051445
20
-100.85560116308
30
2.0
 70
     32
  0
VERTEX
  8
MY3DLAYER
10
175.320145051445
20
-100.85560116308
30
0.0
 70
     32
  0
SEQEND
  0
POLYLINE
 8
Layer0
 66
     1
70
    8
 10
0.0
 20
 0.0
 30
0.0
  0
VERTEX
  8
MY3DLAYER
10
174.165561907441
20
-102.360283211402
30
0.0
 70
     32
  0
VERTEX
  8
MY3DLAYER
10
174.958915247732
20
-102.96904464041
30
0.0
 70
     32
  0
VERTEX
  8
MY3DLAYER
10
174.958915247732
20
-102.96904464041
30
2.0
 70
     32
  0
VERTEX
  8
MY3DLAYER
10
174.165561907441
20
-102.360283211402
30
2.0
 70
     32
  0
VERTEX
  8
MY3DLAYER
10
174.165561907441
20
-102.360283211402
30
0.0
 70
     32
  0
SEQEND
  0
POLYLINE
 8
Layer0
 66
     1
70
    8
 10
0.0
 20
 0.0
 30
0.0
  0
VERTEX
  8
MY3DLAYER
10
156.499646665309
20
-102.781230179313
30
0.0
 70
     32
  0
VERTEX
  8
MY3DLAYER
10
157.2930000056
20
-102.172468750304
30
0.0
 70
     32
  0
VERTEX
  8
MY3DLAYER
10
157.2930000056
20
-102.172468750304
30
2.0
 70
     32
  0
VERTEX
  8
MY3DLAYER
10
156.499646665309
20
-102.781230179313
30
2.0
 70
     32
  0
VERTEX
  8
MY3DLAYER
10
156.499646665309
20
-102.781230179313
30
0.0
 70
     32
  0
SEQEND
  0
POLYLINE
 8
Layer0
 66
     1
70
    8
 10
0.0
 20
 0.0
 30
0.0
  0
VERTEX
  8
MY3DLAYER
10
157.2930000056
20
-102.172468750304
30
0.0
 70
     32
  0
VERTEX
  8
MY3DLAYER
10
156.282531966329
20
-100.85560116308
30
0.0
 70
     32
  0
VERTEX
  8
MY3DLAYER
10
156.282531966329
20
-100.85560116308
30
2.0
 70
     32
  0
VERTEX
  8
MY3DLAYER
10
157.2930000056
20
-102.172468750304
30
2.0
 70
     32
  0
VERTEX
  8
MY3DLAYER
10
157.2930000056
20
-102.172468750304
30
0.0
 70
     32
  0
SEQEND
  0
POLYLINE
 8
Layer0
 66
     1
70
    8
 10
0.0
 20
 0.0
 30
0.0
  0
VERTEX
  8
MY3DLAYER
10
156.282531966329
20
-100.85560116308
30
0.0
 70
     32
  0
VERTEX
  8
MY3DLAYER
10
155.184489355586
20
-98.2046918001607
30
0.0
 70
     32
  0
VERTEX
  8
MY3DLAYER
10
155.184489355586
20
-98.2046918001607
30
2.0
 70
     32
  0
VERTEX
  8
MY3DLAYER
10
156.282531966329
20
-100.85560116308
30
2.0
 70
     32
  0
VERTEX
  8
MY3DLAYER
10
156.282531966329
20
-100.85560116308
30
0.0
 70
     32
  0
SEQEND
  0
POLYLINE
 8
Layer0
 66
     1
70
    8
 10
0.0
 20
 0.0
 30
0.0
  0
VERTEX
  8
MY3DLAYER
10
155.184489355586
20
-98.2046918001607
30
0.0
 70
     32
  0
VERTEX
  8
MY3DLAYER
10
154.809967469467
20
-95.3599156433705
30
0.0
 70
     32
  0
VERTEX
  8
MY3DLAYER
10
154.809967469467
20
-95.3599156433705
30
2.0
 70
     32
  0
VERTEX
  8
MY3DLAYER
10
155.184489355586
20
-98.2046918001607
30
2.0
 70
     32
  0
VERTEX
  8
MY3DLAYER
10
155.184489355586
20
-98.2046918001607
30
0.0
 70
     32
  0
SEQEND
  0
POLYLINE
 8
Layer0
 66
     1
70
    8
 10
0.0
 20
 0.0
 30
0.0
  0
VERTEX
  8
MY3DLAYER
10
154.809967469467
20
-95.3599156433705
30
0.0
 70
     32
  0
VERTEX
  8
MY3DLAYER
10
155.184489355586
20
-92.5151394865804
30
0.0
 70
     32
  0
VERTEX
  8
MY3DLAYER
10
155.184489355586
20
-92.5151394865804
30
2.0
 70
     32
  0
VERTEX
  8
MY3DLAYER
10
154.809967469467
20
-95.3599156433705
30
2.0
 70
     32
  0
VERTEX
  8
MY3DLAYER
10
154.809967469467
20
-95.3599156433705
30
0.0
 70
     32
  0
SEQEND
  0
POLYLINE
 8
Layer0
 66
     1
70
    8
 10
0.0
 20
 0.0
 30
0.0
  0
VERTEX
  8
MY3DLAYER
10
155.184489355586
20
-92.5151394865804
30
0.0
 70
     32
  0
VERTEX
  8
MY3DLAYER
10
156.282531966329
20
-89.8642301236606
30
0.0
 70
     32
  0
VERTEX
  8
MY3DLAYER
10
156.282531966329
20
-89.8642301236606
30
2.0
 70
     32
  0
VERTEX
  8
MY3DLAYER
10
155.184489355586
20
-92.5151394865804
30
2.0
 70
     32
  0
VERTEX
  8
MY3DLAYER
10
155.184489355586
20
-92.5151394865804
30
0.0
 70
     32
  0
SEQEND
  0
POLYLINE
 8
Layer0
 66
     1
70
    8
 10
0.0
 20
 0.0
 30
0.0
  0
VERTEX
  8
MY3DLAYER
10
156.282531966329
20
-89.8642301236606
30
0.0
 70
     32
  0
VERTEX
  8
MY3DLAYER
10
158.029265512376
20
-87.5878426468593
30
0.0
 70
     32
  0
VERTEX
  8
MY3DLAYER
10
158.029265512376
20
-87.5878426468593
30
2.0
 70
     32
  0
VERTEX
  8
MY3DLAYER
10
156.282531966329
20
-89.8642301236606
30
2.0
 70
     32
  0
VERTEX
  8
MY3DLAYER
10
156.282531966329
20
-89.8642301236606
30
0.0
 70
     32
  0
SEQEND
  0
POLYLINE
 8
Layer0
 66
     1
70
    8
 10
0.0
 20
 0.0
 30
0.0
  0
VERTEX
  8
MY3DLAYER
10
158.029265512376
20
-87.5878426468593
30
0.0
 70
     32
  0
VERTEX
  8
MY3DLAYER
10
160.305652989177
20
-85.8411091008124
30
0.0
 70
     32
  0
VERTEX
  8
MY3DLAYER
10
160.305652989177
20
-85.8411091008124
30
2.0
 70
     32
  0
VERTEX
  8
MY3DLAYER
10
158.029265512376
20
-87.5878426468593
30
2.0
 70
     32
  0
VERTEX
  8
MY3DLAYER
10
158.029265512376
20
-87.5878426468593
30
0.0
 70
     32
  0
SEQEND
  0
POLYLINE
 8
Layer0
 66
     1
70
    8
 10
0.0
 20
 0.0
 30
0.0
  0
VERTEX
  8
MY3DLAYER
10
160.305652989177
20
-85.8411091008124
30
0.0
 70
     32
  0
VERTEX
  8
MY3DLAYER
10
162.956562352097
20
-84.7430664900692
30
0.0
 70
     32
  0
VERTEX
  8
MY3DLAYER
10
162.956562352097
20
-84.7430664900692
30
2.0
 70
     32
  0
VERTEX
  8
MY3DLAYER
10
160.305652989177
20
-85.8411091008124
30
2.0
 70
     32
  0
VERTEX
  8
MY3DLAYER
10
160.305652989177
20
-85.8411091008124
30
0.0
 70
     32
  0
SEQEND
  0
POLYLINE
 8
Layer0
 66
     1
70
    8
 10
0.0
 20
 0.0
 30
0.0
  0
VERTEX
  8
MY3DLAYER
10
162.956562352097
20
-84.7430664900692
30
0.0
 70
     32
  0
VERTEX
  8
MY3DLAYER
10
165.801338508887
20
-84.3685446039507
30
0.0
 70
     32
  0
VERTEX
  8
MY3DLAYER
10
165.801338508887
20
-84.3685446039507
30
2.0
 70
     32
  0
VERTEX
  8
MY3DLAYER
10
162.956562352097
20
-84.7430664900692
30
2.0
 70
     32
  0
VERTEX
  8
MY3DLAYER
10
162.956562352097
20
-84.7430664900692
30
0.0
 70
     32
  0
SEQEND
  0
POLYLINE
 8
Layer0
 66
     1
70
    8
 10
0.0
 20
 0.0
 30
0.0
  0
VERTEX
  8
MY3DLAYER
10
165.801338508887
20
-84.3685446039507
30
0.0
 70
     32
  0
VERTEX
  8
MY3DLAYER
10
168.646114665677
20
-84.7430664900692
30
0.0
 70
     32
  0
VERTEX
  8
MY3DLAYER
10
168.646114665677
20
-84.7430664900692
30
2.0
 70
     32
  0
VERTEX
  8
MY3DLAYER
10
165.801338508887
20
-84.3685446039507
30
2.0
 70
     32
  0
VERTEX
  8
MY3DLAYER
10
165.801338508887
20
-84.3685446039507
30
0.0
 70
     32
  0
SEQEND
  0
POLYLINE
 8
Layer0
 66
     1
70
    8
 10
0.0
 20
 0.0
 30
0.0
  0
VERTEX
  8
MY3DLAYER
10
168.646114665677
20
-84.7430664900692
30
0.0
 70
     32
  0
VERTEX
  8
MY3DLAYER
10
171.297024028597
20
-85.8411091008124
30
0.0
 70
     32
  0
VERTEX
  8
MY3DLAYER
10
171.297024028597
20
-85.8411091008124
30
2.0
 70
     32
  0
VERTEX
  8
MY3DLAYER
10
168.646114665677
20
-84.7430664900692
30
2.0
 70
     32
  0
VERTEX
  8
MY3DLAYER
10
168.646114665677
20
-84.7430664900692
30
0.0
 70
     32
  0
SEQEND
  0
POLYLINE
 8
Layer0
 66
     1
70
    8
 10
0.0
 20
 0.0
 30
0.0
  0
VERTEX
  8
MY3DLAYER
10
171.297024028597
20
-85.8411091008124
30
0.0
 70
     32
  0
VERTEX
  8
MY3DLAYER
10
173.573411505398
20
-87.5878426468593
30
0.0
 70
     32
  0
VERTEX
  8
MY3DLAYER
10
173.573411505398
20
-87.5878426468593
30
2.0
 70
     32
  0
VERTEX
  8
MY3DLAYER
10
171.297024028597
20
-85.8411091008124
30
2.0
 70
     32
  0
VERTEX
  8
MY3DLAYER
10
171.297024028597
20
-85.8411091008124
30
0.0
 70
     32
  0
SEQEND
  0
POLYLINE
 8
Layer0
 66
     1
70
    8
 10
0.0
 20
 0.0
 30
0.0
  0
VERTEX
  8
MY3DLAYER
10
173.573411505398
20
-87.5878426468593
30
0.0
 70
     32
  0
VERTEX
  8
MY3DLAYER
10
175.320145051445
20
-89.8642301236606
30
0.0
 70
     32
  0
VERTEX
  8
MY3DLAYER
10
175.320145051445
20
-89.8642301236606
30
2.0
 70
     32
  0
VERTEX
  8
MY3DLAYER
10
173.573411505398
20
-87.5878426468593
30
2.0
 70
     32
  0
VERTEX
  8
MY3DLAYER
10
173.573411505398
20
-87.5878426468593
30
0.0
 70
     32
  0
SEQEND
  0
POLYLINE
 8
Layer0
 66
     1
70
    8
 10
0.0
 20
 0.0
 30
0.0
  0
VERTEX
  8
MY3DLAYER
10
175.320145051445
20
-89.8642301236606
30
0.0
 70
     32
  0
VERTEX
  8
MY3DLAYER
10
176.418187662188
20
-92.5151394865804
30
0.0
 70
     32
  0
VERTEX
  8
MY3DLAYER
10
176.418187662188
20
-92.5151394865804
30
2.0
 70
     32
  0
VERTEX
  8
MY3DLAYER
10
175.320145051445
20
-89.8642301236606
30
2.0
 70
     32
  0
VERTEX
  8
MY3DLAYER
10
175.320145051445
20
-89.8642301236606
30
0.0
 70
     32
  0
SEQEND
  0
POLYLINE
 8
Layer0
 66
     1
70
    8
 10
0.0
 20
 0.0
 30
0.0
  0
VERTEX
  8
MY3DLAYER
10
176.418187662188
20
-92.5151394865804
30
0.0
 70
     32
  0
VERTEX
  8
MY3DLAYER
10
176.792709548307
20
-95.3599156433705
30
0.0
 70
     32
  0
VERTEX
  8
MY3DLAYER
10
176.792709548307
20
-95.3599156433705
30
2.0
 70
     32
  0
VERTEX
  8
MY3DLAYER
10
176.418187662188
20
-92.5151394865804
30
2.0
 70
     32
  0
VERTEX
  8
MY3DLAYER
10
176.418187662188
20
-92.5151394865804
30
0.0
 70
     32
  0
SEQEND
  0
POLYLINE
 8
Layer0
 66
     1
70
    8
 10
0.0
 20
 0.0
 30
0.0
  0
VERTEX
  8
MY3DLAYER
10
176.792709548307
20
-95.3599156433705
30
0.0
 70
     32
  0
VERTEX
  8
MY3DLAYER
10
176.418187662188
20
-98.2046918001607
30
0.0
 70
     32
  0
VERTEX
  8
MY3DLAYER
10
176.418187662188
20
-98.2046918001607
30
2.0
 70
     32
  0
VERTEX
  8
MY3DLAYER
10
176.792709548307
20
-95.3599156433705
30
2.0
 70
     32
  0
VERTEX
  8
MY3DLAYER
10
176.792709548307
20
-95.3599156433705
30
0.0
 70
     32
  0
SEQEND
  0
POLYLINE
 8
Layer0
 66
     1
70
    8
 10
0.0
 20
 0.0
 30
0.0
  0
VERTEX
  8
MY3DLAYER
10
176.418187662188
20
-98.2046918001607
30
0.0
 70
     32
  0
VERTEX
  8
MY3DLAYER
10
175.320145051445
20
-100.85560116308
30
0.0
 70
     32
  0
VERTEX
  8
MY3DLAYER
10
175.320145051445
20
-100.85560116308
30
2.0
 70
     32
  0
VERTEX
  8
MY3DLAYER
10
176.418187662188
20
-98.2046918001607
30
2.0
 70
     32
  0
VERTEX
  8
MY3DLAYER
10
176.418187662188
20
-98.2046918001607
30
0.0
 70
     32
  0
SEQEND
  0
POLYLINE
 8
Layer0
 66
     1
70
    8
 10
0.0
 20
 0.0
 30
0.0
  0
VERTEX
  8
MY3DLAYER
10
154.210228593418
20
-98.4657441846008
30
2.0
 70
     32
  0
VERTEX
  8
MY3DLAYER
10
154.210228593418
20
-98.4657441846008
30
1.0
 70
     32
  0
VERTEX
  8
MY3DLAYER
10
155.409033663474
20
-101.359915643371
30
1.0
 70
     32
  0
VERTEX
  8
MY3DLAYER
10
155.409033663474
20
-101.359915643371
30
2.0
 70
     32
  0
VERTEX
  8
MY3DLAYER
10
154.210228593418
20
-98.4657441846008
30
2.0
 70
     32
  0
SEQEND
  0
POLYLINE
 8
Layer0
 66
     1
70
    8
 10
0.0
 20
 0.0
 30
0.0
  0
VERTEX
  8
MY3DLAYER
10
153.801338508887
20
-95.3599156433705
30
2.0
 70
     32
  0
VERTEX
  8
MY3DLAYER
10
153.801338508887
20
-95.3599156433705
30
1.0
 70
     32
  0
VERTEX
  8
MY3DLAYER
10
154.210228593418
20
-98.4657441846008
30
1.0
 70
     32
  0
VERTEX
  8
MY3DLAYER
10
154.210228593418
20
-98.4657441846008
30
2.0
 70
     32
  0
VERTEX
  8
MY3DLAYER
10
153.801338508887
20
-95.3599156433705
30
2.0
 70
     32
  0
SEQEND
  0
POLYLINE
 8
Layer0
 66
     1
70
    8
 10
0.0
 20
 0.0
 30
0.0
  0
VERTEX
  8
MY3DLAYER
10
154.210228593418
20
-92.2540871021403
30
2.0
 70
     32
  0
VERTEX
  8
MY3DLAYER
10
154.210228593418
20
-92.2540871021403
30
1.0
 70
     32
  0
VERTEX
  8
MY3DLAYER
10
153.801338508887
20
-95.3599156433705
30
1.0
 70
     32
  0
VERTEX
  8
MY3DLAYER
10
153.801338508887
20
-95.3599156433705
30
2.0
 70
     32
  0
VERTEX
  8
MY3DLAYER
10
154.210228593418
20
-92.2540871021403
30
2.0
 70
     32
  0
SEQEND
  0
POLYLINE
 8
Layer0
 66
     1
70
    8
 10
0.0
 20
 0.0
 30
0.0
  0
VERTEX
  8
MY3DLAYER
10
155.409033663474
20
-89.3599156433705
30
2.0
 70
     32
  0
VERTEX
  8
MY3DLAYER
10
155.409033663474
20
-89.3599156433705
30
1.0
 70
     32
  0
VERTEX
  8
MY3DLAYER
10
154.210228593418
20
-92.2540871021403
30
1.0
 70
     32
  0
VERTEX
  8
MY3DLAYER
10
154.210228593418
20
-92.2540871021403
30
2.0
 70
     32
  0
VERTEX
  8
MY3DLAYER
10
155.409033663474
20
-89.3599156433705
30
2.0
 70
     32
  0
SEQEND
  0
POLYLINE
 8
Layer0
 66
     1
70
    8
 10
0.0
 20
 0.0
 30
0.0
  0
VERTEX
  8
MY3DLAYER
10
157.316057134649
20
-86.874634269132
30
2.0
 70
     32
  0
VERTEX
  8
MY3DLAYER
10
157.316057134649
20
-86.874634269132
30
1.0
 70
     32
  0
VERTEX
  8
MY3DLAYER
10
155.409033663474
20
-89.3599156433705
30
1.0
 70
     32
  0
VERTEX
  8
MY3DLAYER
10
155.409033663474
20
-89.3599156433705
30
2.0
 70
     32
  0
VERTEX
  8
MY3DLAYER
10
157.316057134649
20
-86.874634269132
30
2.0
 70
     32
  0
SEQEND
  0
POLYLINE
 8
Layer0
 66
     1
70
    8
 10
0.0
 20
 0.0
 30
0.0
  0
VERTEX
  8
MY3DLAYER
10
174.165561907441
20
-102.360283211402
30
0.0
 70
     32
  0
VERTEX
  8
MY3DLAYER
10
175.320145051445
20
-100.85560116308
30
0.0
 70
     32
  0
VERTEX
  8
MY3DLAYER
10
176.418187662188
20
-98.2046918001607
30
0.0
 70
     32
  0
VERTEX
  8
MY3DLAYER
10
176.792709548307
20
-95.3599156433705
30
0.0
 70
     32
  0
VERTEX
  8
MY3DLAYER
10
176.418187662188
20
-92.5151394865804
30
0.0
 70
     32
  0
VERTEX
  8
MY3DLAYER
10
175.320145051445
20
-89.8642301236606
30
0.0
 70
     32
  0
VERTEX
  8
MY3DLAYER
10
173.573411505398
20
-87.5878426468593
30
0.0
 70
     32
  0
VERTEX
  8
MY3DLAYER
10
171.297024028597
20
-85.8411091008124
30
0.0
 70
     32
  0
VERTEX
  8
MY3DLAYER
10
168.646114665677
20
-84.7430664900692
30
0.0
 70
     32
  0
VERTEX
  8
MY3DLAYER
10
165.801338508887
20
-84.3685446039507
30
0.0
 70
     32
  0
VERTEX
  8
MY3DLAYER
10
162.956562352097
20
-84.7430664900692
30
0.0
 70
     32
  0
VERTEX
  8
MY3DLAYER
10
160.305652989177
20
-85.8411091008124
30
0.0
 70
     32
  0
VERTEX
  8
MY3DLAYER
10
158.029265512376
20
-87.5878426468593
30
0.0
 70
     32
  0
VERTEX
  8
MY3DLAYER
10
156.282531966329
20
-89.8642301236606
30
0.0
 70
     32
  0
VERTEX
  8
MY3DLAYER
10
155.184489355586
20
-92.5151394865804
30
0.0
 70
     32
  0
VERTEX
  8
MY3DLAYER
10
154.809967469467
20
-95.3599156433705
30
0.0
 70
     32
  0
VERTEX
  8
MY3DLAYER
10
155.184489355586
20
-98.2046918001607
30
0.0
 70
     32
  0
VERTEX
  8
MY3DLAYER
10
156.282531966329
20
-100.85560116308
30
0.0
 70
     32
  0
VERTEX
  8
MY3DLAYER
10
157.2930000056
20
-102.172468750304
30
0.0
 70
     32
  0
VERTEX
  8
MY3DLAYER
10
156.499646665309
20
-102.781230179313
30
0.0
 70
     32
  0
VERTEX
  8
MY3DLAYER
10
156.362545399061
20
-102.60255633049
30
0.0
 70
     32
  0
VERTEX
  8
MY3DLAYER
10
155.409033663474
20
-101.359915643371
30
0.0
 70
     32
  0
VERTEX
  8
MY3DLAYER
10
154.210228593418
20
-98.4657441846008
30
0.0
 70
     32
  0
VERTEX
  8
MY3DLAYER
10
153.801338508887
20
-95.3599156433705
30
0.0
 70
     32
  0
VERTEX
  8
MY3DLAYER
10
154.210228593418
20
-92.2540871021403
30
0.0
 70
     32
  0
VERTEX
  8
MY3DLAYER
10
155.409033663474
20
-89.3599156433705
30
0.0
 70
     32
  0
VERTEX
  8
MY3DLAYER
10
157.316057134649
20
-86.874634269132
30
0.0
 70
     32
  0
VERTEX
  8
MY3DLAYER
10
159.801338508887
20
-84.9676107979573
30
0.0
 70
     32
  0
VERTEX
  8
MY3DLAYER
10
162.695509967657
20
-83.7688057279017
30
0.0
 70
     32
  0
VERTEX
  8
MY3DLAYER
10
165.801338508887
20
-83.3599156433705
30
0.0
 70
     32
  0
VERTEX
  8
MY3DLAYER
10
168.907167050117
20
-83.7688057279017
30
0.0
 70
     32
  0
VERTEX
  8
MY3DLAYER
10
171.801338508887
20
-84.9676107979573
30
0.0
 70
     32
  0
VERTEX
  8
MY3DLAYER
10
174.286619883126
20
-86.874634269132
30
0.0
 70
     32
  0
VERTEX
  8
MY3DLAYER
10
176.1936433543
20
-89.3599156433705
30
0.0
 70
     32
  0
VERTEX
  8
MY3DLAYER
10
177.392448424356
20
-92.2540871021403
30
0.0
 70
     32
  0
VERTEX
  8
MY3DLAYER
10
177.801338508887
20
-95.3599156433705
30
0.0
 70
     32
  0
VERTEX
  8
MY3DLAYER
10
177.392448424356
20
-98.4657441846008
30
0.0
 70
     32
  0
VERTEX
  8
MY3DLAYER
10
176.1936433543
20
-101.359915643371
30
0.0
 70
     32
  0
VERTEX
  8
MY3DLAYER
10
175.240131618713
20
-102.60255633049
30
0.0
 70
     32
  0
VERTEX
  8
MY3DLAYER
10
174.958915247732
20
-102.96904464041
30
0.0
 70
     32
  0
VERTEX
  8
MY3DLAYER
10
174.165561907441
20
-102.360283211402
30
0.0
 70
     32
  0
SEQEND
  0
POLYLINE
 8
Layer0
 66
     1
70
    8
 10
0.0
 20
 0.0
 30
0.0
  0
VERTEX
  8
MY3DLAYER
10
176.1936433543
20
-89.3599156433705
30
2.0
 70
     32
  0
VERTEX
  8
MY3DLAYER
10
176.1936433543
20
-89.3599156433706
30
1.0
 70
     32
  0
VERTEX
  8
MY3DLAYER
10
174.286619883126
20
-86.874634269132
30
1.0
 70
     32
  0
VERTEX
  8
MY3DLAYER
10
174.286619883126
20
-86.874634269132
30
2.0
 70
     32
  0
VERTEX
  8
MY3DLAYER
10
176.1936433543
20
-89.3599156433705
30
2.0
 70
     32
  0
SEQEND
  0
POLYLINE
 8
Layer0
 66
     1
70
    8
 10
0.0
 20
 0.0
 30
0.0
  0
VERTEX
  8
MY3DLAYER
10
176.1936433543
20
-101.359915643371
30
2.0
 70
     32
  0
VERTEX
  8
MY3DLAYER
10
176.1936433543
20
-101.359915643371
30
1.0
 70
     32
  0
VERTEX
  8
MY3DLAYER
10
177.392448424356
20
-98.4657441846008
30
1.0
 70
     32
  0
VERTEX
  8
MY3DLAYER
10
177.392448424356
20
-98.4657441846008
30
2.0
 70
     32
  0
VERTEX
  8
MY3DLAYER
10
176.1936433543
20
-101.359915643371
30
2.0
 70
     32
  0
SEQEND
  0
POLYLINE
 8
Layer0
 66
     1
70
    8
 10
0.0
 20
 0.0
 30
0.0
  0
VERTEX
  8
MY3DLAYER
10
176.1936433543
20
-101.359915643371
30
0.0
 70
     32
  0
VERTEX
  8
MY3DLAYER
10
177.392448424356
20
-98.4657441846008
30
0.0
 70
     32
  0
VERTEX
  8
MY3DLAYER
10
177.392448424356
20
-98.4657441846008
30
1.0
 70
     32
  0
VERTEX
  8
MY3DLAYER
10
176.1936433543
20
-101.359915643371
30
1.0
 70
     32
  0
VERTEX
  8
MY3DLAYER
10
176.1936433543
20
-101.359915643371
30
0.0
 70
     32
  0
SEQEND
  0
POLYLINE
 8
Layer0
 66
     1
70
    8
 10
0.0
 20
 0.0
 30
0.0
  0
VERTEX
  8
MY3DLAYER
10
171.801338508887
20
-84.9676107979573
30
0.0
 70
     32
  0
VERTEX
  8
MY3DLAYER
10
171.801338508887
20
-84.9676107979573
30
2.0
 70
     32
  0
VERTEX
  8
MY3DLAYER
10
174.286619883126
20
-86.874634269132
30
2.0
 70
     32
  0
VERTEX
  8
MY3DLAYER
10
174.286619883126
20
-86.874634269132
30
1.0
 70
     32
  0
VERTEX
  8
MY3DLAYER
10
174.286619883126
20
-86.874634269132
30
0.0
 70
     32
  0
VERTEX
  8
MY3DLAYER
10
171.801338508887
20
-84.9676107979573
30
0.0
 70
     32
  0
SEQEND
  0
POLYLINE
 8
Layer0
 66
     1
70
    8
 10
0.0
 20
 0.0
 30
0.0
  0
VERTEX
  8
MY3DLAYER
10
162.695509967657
20
-83.7688057279017
30
0.0
 70
     32
  0
VERTEX
  8
MY3DLAYER
10
162.695509967657
20
-83.7688057279017
30
2.0
 70
     32
  0
VERTEX
  8
MY3DLAYER
10
165.801338508887
20
-83.3599156433705
30
2.0
 70
     32
  0
VERTEX
  8
MY3DLAYER
10
165.801338508887
20
-83.3599156433705
30
0.0
 70
     32
  0
VERTEX
  8
MY3DLAYER
10
162.695509967657
20
-83.7688057279017
30
0.0
 70
     32
  0
SEQEND
  0
POLYLINE
 8
Layer0
 66
     1
70
    8
 10
0.0
 20
 0.0
 30
0.0
  0
VERTEX
  8
MY3DLAYER
10
159.801338508887
20
-84.9676107979573
30
0.0
 70
     32
  0
VERTEX
  8
MY3DLAYER
10
159.801338508887
20
-84.9676107979573
30
2.0
 70
     32
  0
VERTEX
  8
MY3DLAYER
10
162.695509967657
20
-83.7688057279017
30
2.0
 70
     32
  0
VERTEX
  8
MY3DLAYER
10
162.695509967657
20
-83.7688057279017
30
0.0
 70
     32
  0
VERTEX
  8
MY3DLAYER
10
159.801338508887
20
-84.9676107979573
30
0.0
 70
     32
  0
SEQEND
  0
POLYLINE
 8
Layer0
 66
     1
70
    8
 10
0.0
 20
 0.0
 30
0.0
  0
VERTEX
  8
MY3DLAYER
10
177.392448424356
20
-98.4657441846008
30
0.0
 70
     32
  0
VERTEX
  8
MY3DLAYER
10
177.801338508887
20
-95.3599156433705
30
0.0
 70
     32
  0
VERTEX
  8
MY3DLAYER
10
177.801338508887
20
-95.3599156433705
30
1.0
 70
     32
  0
VERTEX
  8
MY3DLAYER
10
177.392448424356
20
-98.4657441846008
30
1.0
 70
     32
  0
VERTEX
  8
MY3DLAYER
10
177.392448424356
20
-98.4657441846008
30
0.0
 70
     32
  0
SEQEND
  0
POLYLINE
 8
Layer0
 66
     1
70
    8
 10
0.0
 20
 0.0
 30
0.0
  0
VERTEX
  8
MY3DLAYER
10
155.409033663474
20
-101.359915643371
30
2.0
 70
     32
  0
VERTEX
  8
MY3DLAYER
10
155.409033663474
20
-101.359915643371
30
1.0
 70
     32
  0
VERTEX
  8
MY3DLAYER
10
156.362545399061
20
-102.60255633049
30
1.0
 70
     32
  0
VERTEX
  8
MY3DLAYER
10
156.362545399061
20
-102.60255633049
30
0.0
 70
     32
  0
VERTEX
  8
MY3DLAYER
10
156.499646665309
20
-102.781230179313
30
0.0
 70
     32
  0
VERTEX
  8
MY3DLAYER
10
156.499646665309
20
-102.781230179313
30
2.0
 70
     32
  0
VERTEX
  8
MY3DLAYER
10
155.409033663474
20
-101.359915643371
30
2.0
 70
     32
  0
SEQEND
  0
POLYLINE
 8
Layer0
 66
     1
70
    8
 10
0.0
 20
 0.0
 30
0.0
  0
VERTEX
  8
MY3DLAYER
10
175.240131618713
20
-102.60255633049
30
0.0
 70
     32
  0
VERTEX
  8
MY3DLAYER
10
176.1936433543
20
-101.359915643371
30
0.0
 70
     32
  0
VERTEX
  8
MY3DLAYER
10
176.1936433543
20
-101.359915643371
30
1.0
 70
     32
  0
VERTEX
  8
MY3DLAYER
10
175.240131618713
20
-102.60255633049
30
1.0
 70
     32
  0
VERTEX
  8
MY3DLAYER
10
175.240131618713
20
-102.60255633049
30
0.0
 70
     32
  0
SEQEND
  0
POLYLINE
 8
Layer0
 66
     1
70
    8
 10
0.0
 20
 0.0
 30
0.0
  0
VERTEX
  8
MY3DLAYER
10
176.1936433543
20
-89.3599156433705
30
0.0
 70
     32
  0
VERTEX
  8
MY3DLAYER
10
174.286619883126
20
-86.874634269132
30
0.0
 70
     32
  0
VERTEX
  8
MY3DLAYER
10
174.286619883126
20
-86.874634269132
30
1.0
 70
     32
  0
VERTEX
  8
MY3DLAYER
10
176.1936433543
20
-89.3599156433706
30
1.0
 70
     32
  0
VERTEX
  8
MY3DLAYER
10
176.1936433543
20
-89.3599156433705
30
0.0
 70
     32
  0
SEQEND
  0
POLYLINE
 8
Layer0
 66
     1
70
    8
 10
0.0
 20
 0.0
 30
0.0
  0
VERTEX
  8
MY3DLAYER
10
168.907167050117
20
-83.7688057279017
30
0.0
 70
     32
  0
VERTEX
  8
MY3DLAYER
10
168.907167050117
20
-83.7688057279017
30
2.0
 70
     32
  0
VERTEX
  8
MY3DLAYER
10
171.801338508887
20
-84.9676107979573
30
2.0
 70
     32
  0
VERTEX
  8
MY3DLAYER
10
171.801338508887
20
-84.9676107979573
30
0.0
 70
     32
  0
VERTEX
  8
MY3DLAYER
10
168.907167050117
20
-83.7688057279017
30
0.0
 70
     32
  0
SEQEND
  0
POLYLINE
 8
Layer0
 66
     1
70
    8
 10
0.0
 20
 0.0
 30
0.0
  0
VERTEX
  8
MY3DLAYER
10
177.801338508887
20
-95.3599156433705
30
0.0
 70
     32
  0
VERTEX
  8
MY3DLAYER
10
177.392448424356
20
-92.2540871021403
30
0.0
 70
     32
  0
VERTEX
  8
MY3DLAYER
10
177.392448424356
20
-92.2540871021403
30
1.0
 70
     32
  0
VERTEX
  8
MY3DLAYER
10
177.801338508887
20
-95.3599156433705
30
1.0
 70
     32
  0
VERTEX
  8
MY3DLAYER
10
177.801338508887
20
-95.3599156433705
30
0.0
 70
     32
  0
SEQEND
  0
POLYLINE
 8
Layer0
 66
     1
70
    8
 10
0.0
 20
 0.0
 30
0.0
  0
VERTEX
  8
MY3DLAYER
10
177.392448424356
20
-92.2540871021403
30
0.0
 70
     32
  0
VERTEX
  8
MY3DLAYER
10
176.1936433543
20
-89.3599156433705
30
0.0
 70
     32
  0
VERTEX
  8
MY3DLAYER
10
176.1936433543
20
-89.3599156433706
30
1.0
 70
     32
  0
VERTEX
  8
MY3DLAYER
10
177.392448424356
20
-92.2540871021403
30
1.0
 70
     32
  0
VERTEX
  8
MY3DLAYER
10
177.392448424356
20
-92.2540871021403
30
0.0
 70
     32
  0
SEQEND
  0
POLYLINE
 8
Layer0
 66
     1
70
    8
 10
0.0
 20
 0.0
 30
0.0
  0
VERTEX
  8
MY3DLAYER
10
174.958915247732
20
-102.96904464041
30
0.0
 70
     32
  0
VERTEX
  8
MY3DLAYER
10
175.240131618713
20
-102.60255633049
30
0.0
 70
     32
  0
VERTEX
  8
MY3DLAYER
10
175.240131618713
20
-102.60255633049
30
1.0
 70
     32
  0
VERTEX
  8
MY3DLAYER
10
176.1936433543
20
-101.359915643371
30
1.0
 70
     32
  0
VERTEX
  8
MY3DLAYER
10
176.1936433543
20
-101.359915643371
30
2.0
 70
     32
  0
VERTEX
  8
MY3DLAYER
10
174.958915247732
20
-102.96904464041
30
2.0
 70
     32
  0
VERTEX
  8
MY3DLAYER
10
174.958915247732
20
-102.96904464041
30
0.0
 70
     32
  0
SEQEND
  0
POLYLINE
 8
Layer0
 66
     1
70
    8
 10
0.0
 20
 0.0
 30
0.0
  0
VERTEX
  8
MY3DLAYER
10
177.801338508887
20
-95.3599156433705
30
2.0
 70
     32
  0
VERTEX
  8
MY3DLAYER
10
177.801338508887
20
-95.3599156433705
30
1.0
 70
     32
  0
VERTEX
  8
MY3DLAYER
10
177.392448424356
20
-92.2540871021403
30
1.0
 70
     32
  0
VERTEX
  8
MY3DLAYER
10
177.392448424356
20
-92.2540871021403
30
2.0
 70
     32
  0
VERTEX
  8
MY3DLAYER
10
177.801338508887
20
-95.3599156433705
30
2.0
 70
     32
  0
SEQEND
  0
POLYLINE
 8
Layer0
 66
     1
70
    8
 10
0.0
 20
 0.0
 30
0.0
  0
VERTEX
  8
MY3DLAYER
10
157.316057134649
20
-86.874634269132
30
0.0
 70
     32
  0
VERTEX
  8
MY3DLAYER
10
157.316057134649
20
-86.874634269132
30
1.0
 70
     32
  0
VERTEX
  8
MY3DLAYER
10
157.316057134649
20
-86.874634269132
30
2.0
 70
     32
  0
VERTEX
  8
MY3DLAYER
10
159.801338508887
20
-84.9676107979573
30
2.0
 70
     32
  0
VERTEX
  8
MY3DLAYER
10
159.801338508887
20
-84.9676107979573
30
0.0
 70
     32
  0
VERTEX
  8
MY3DLAYER
10
157.316057134649
20
-86.874634269132
30
0.0
 70
     32
  0
SEQEND
  0
POLYLINE
 8
Layer0
 66
     1
70
    8
 10
0.0
 20
 0.0
 30
0.0
  0
VERTEX
  8
MY3DLAYER
10
165.801338508887
20
-83.3599156433705
30
0.0
 70
     32
  0
VERTEX
  8
MY3DLAYER
10
165.801338508887
20
-83.3599156433705
30
2.0
 70
     32
  0
VERTEX
  8
MY3DLAYER
10
168.907167050117
20
-83.7688057279017
30
2.0
 70
     32
  0
VERTEX
  8
MY3DLAYER
10
168.907167050117
20
-83.7688057279017
30
0.0
 70
     32
  0
VERTEX
  8
MY3DLAYER
10
165.801338508887
20
-83.3599156433705
30
0.0
 70
     32
  0
SEQEND
  0
POLYLINE
 8
Layer0
 66
     1
70
    8
 10
0.0
 20
 0.0
 30
0.0
  0
VERTEX
  8
MY3DLAYER
10
177.392448424356
20
-92.2540871021403
30
2.0
 70
     32
  0
VERTEX
  8
MY3DLAYER
10
177.392448424356
20
-92.2540871021403
30
1.0
 70
     32
  0
VERTEX
  8
MY3DLAYER
10
176.1936433543
20
-89.3599156433706
30
1.0
 70
     32
  0
VERTEX
  8
MY3DLAYER
10
176.1936433543
20
-89.3599156433705
30
2.0
 70
     32
  0
VERTEX
  8
MY3DLAYER
10
177.392448424356
20
-92.2540871021403
30
2.0
 70
     32
  0
SEQEND
  0
POLYLINE
 8
Layer0
 66
     1
70
    8
 10
0.0
 20
 0.0
 30
0.0
  0
VERTEX
  8
MY3DLAYER
10
177.392448424356
20
-98.4657441846008
30
2.0
 70
     32
  0
VERTEX
  8
MY3DLAYER
10
177.392448424356
20
-98.4657441846008
30
1.0
 70
     32
  0
VERTEX
  8
MY3DLAYER
10
177.801338508887
20
-95.3599156433705
30
1.0
 70
     32
  0
VERTEX
  8
MY3DLAYER
10
177.801338508887
20
-95.3599156433705
30
2.0
 70
     32
  0
VERTEX
  8
MY3DLAYER
10
177.392448424356
20
-98.4657441846008
30
2.0
 70
     32
  0
SEQEND
  0
POLYLINE
 8
Layer0
 66
     1
70
    8
 10
0.0
 20
 0.0
 30
0.0
  0
VERTEX
  8
MY3DLAYER
10
177.801338508887
20
-95.3599156433705
30
0.0
 70
     32
  0
VERTEX
  8
MY3DLAYER
10
181.835854351208
20
-95.3599156433706
30
0.0
 70
     32
  0
VERTEX
  8
MY3DLAYER
10
181.835854351208
20
-95.3599156433706
30
1.0
 70
     32
  0
VERTEX
  8
MY3DLAYER
10
177.801338508887
20
-95.3599156433705
30
1.0
 70
     32
  0
VERTEX
  8
MY3DLAYER
10
177.801338508887
20
-95.3599156433705
30
0.0
 70
     32
  0
SEQEND
  0
POLYLINE
 8
Layer0
 66
     1
70
    8
 10
0.0
 20
 0.0
 30
0.0
  0
VERTEX
  8
MY3DLAYER
10
177.392448424356
20
-98.4657441846008
30
0.0
 70
     32
  0
VERTEX
  8
MY3DLAYER
10
177.801338508887
20
-95.3599156433705
30
0.0
 70
     32
  0
VERTEX
  8
MY3DLAYER
10
181.835854351208
20
-95.3599156433706
30
0.0
 70
     32
  0
VERTEX
  8
MY3DLAYER
10
181.289491473026
20
-99.5099537223612
30
0.0
 70
     32
  0
VERTEX
  8
MY3DLAYER
10
179.687636565721
20
-103.377173564531
30
0.0
 70
     32
  0
VERTEX
  8
MY3DLAYER
10
178.413544979878
20
-105.037602046525
30
0.0
 70
     32
  0
VERTEX
  8
MY3DLAYER
10
175.240131618713
20
-102.60255633049
30
0.0
 70
     32
  0
VERTEX
  8
MY3DLAYER
10
176.1936433543
20
-101.359915643371
30
0.0
 70
     32
  0
VERTEX
  8
MY3DLAYER
10
177.392448424356
20
-98.4657441846008
30
0.0
 70
     32
  0
SEQEND
  0
POLYLINE
 8
Layer0
 66
     1
70
    8
 10
0.0
 20
 0.0
 30
0.0
  0
VERTEX
  8
MY3DLAYER
10
175.240131618713
20
-102.60255633049
30
0.0
 70
     32
  0
VERTEX
  8
MY3DLAYER
10
178.413544979878
20
-105.037602046525
30
0.0
 70
     32
  0
VERTEX
  8
MY3DLAYER
10
178.413544979878
20
-105.037602046525
30
1.0
 70
     32
  0
VERTEX
  8
MY3DLAYER
10
175.240131618713
20
-102.60255633049
30
1.0
 70
     32
  0
VERTEX
  8
MY3DLAYER
10
175.240131618713
20
-102.60255633049
30
0.0
 70
     32
  0
SEQEND
  0
POLYLINE
 8
Layer0
 66
     1
70
    8
 10
0.0
 20
 0.0
 30
0.0
  0
VERTEX
  8
MY3DLAYER
10
179.687636565721
20
-103.377173564531
30
0.0
 70
     32
  0
VERTEX
  8
MY3DLAYER
10
181.289491473026
20
-99.5099537223612
30
0.0
 70
     32
  0
VERTEX
  8
MY3DLAYER
10
181.289491473026
20
-99.5099537223612
30
1.0
 70
     32
  0
VERTEX
  8
MY3DLAYER
10
179.687636565721
20
-103.377173564531
30
1.0
 70
     32
  0
VERTEX
  8
MY3DLAYER
10
179.687636565721
20
-103.377173564531
30
0.0
 70
     32
  0
SEQEND
  0
POLYLINE
 8
Layer0
 66
     1
70
    8
 10
0.0
 20
 0.0
 30
0.0
  0
VERTEX
  8
MY3DLAYER
10
178.413544979878
20
-105.037602046525
30
0.0
 70
     32
  0
VERTEX
  8
MY3DLAYER
10
179.687636565721
20
-103.377173564531
30
0.0
 70
     32
  0
VERTEX
  8
MY3DLAYER
10
179.687636565721
20
-103.377173564531
30
1.0
 70
     32
  0
VERTEX
  8
MY3DLAYER
10
178.413544979878
20
-105.037602046525
30
1.0
 70
     32
  0
VERTEX
  8
MY3DLAYER
10
178.413544979878
20
-105.037602046525
30
0.0
 70
     32
  0
SEQEND
  0
POLYLINE
 8
Layer0
 66
     1
70
    8
 10
0.0
 20
 0.0
 30
0.0
  0
VERTEX
  8
MY3DLAYER
10
181.289491473026
20
-99.5099537223612
30
1.0
 70
     32
  0
VERTEX
  8
MY3DLAYER
10
181.835854351208
20
-95.3599156433706
30
1.0
 70
     32
  0
VERTEX
  8
MY3DLAYER
10
177.801338508887
20
-95.3599156433705
30
1.0
 70
     32
  0
VERTEX
  8
MY3DLAYER
10
177.392448424356
20
-98.4657441846008
30
1.0
 70
     32
  0
VERTEX
  8
MY3DLAYER
10
176.1936433543
20
-101.359915643371
30
1.0
 70
     32
  0
VERTEX
  8
MY3DLAYER
10
175.240131618713
20
-102.60255633049
30
1.0
 70
     32
  0
VERTEX
  8
MY3DLAYER
10
178.413544979878
20
-105.037602046525
30
1.0
 70
     32
  0
VERTEX
  8
MY3DLAYER
10
179.687636565721
20
-103.377173564531
30
1.0
 70
     32
  0
VERTEX
  8
MY3DLAYER
10
181.289491473026
20
-99.5099537223612
30
1.0
 70
     32
  0
SEQEND
  0
POLYLINE
 8
Layer0
 66
     1
70
    8
 10
0.0
 20
 0.0
 30
0.0
  0
VERTEX
  8
MY3DLAYER
10
181.289491473026
20
-99.5099537223612
30
0.0
 70
     32
  0
VERTEX
  8
MY3DLAYER
10
181.835854351208
20
-95.3599156433706
30
0.0
 70
     32
  0
VERTEX
  8
MY3DLAYER
10
181.835854351208
20
-95.3599156433706
30
1.0
 70
     32
  0
VERTEX
  8
MY3DLAYER
10
181.289491473026
20
-99.5099537223612
30
1.0
 70
     32
  0
VERTEX
  8
MY3DLAYER
10
181.289491473026
20
-99.5099537223612
30
0.0
 70
     32
  0
SEQEND
  0
POLYLINE
 8
Layer0
 66
     1
70
    8
 10
0.0
 20
 0.0
 30
0.0
  0
VERTEX
  8
MY3DLAYER
10
179.687636565721
20
-87.3426577222102
30
1.0
 70
     32
  0
VERTEX
  8
MY3DLAYER
10
177.139453394035
20
-84.0218007582225
30
1.0
 70
     32
  0
VERTEX
  8
MY3DLAYER
10
174.286619883126
20
-86.874634269132
30
1.0
 70
     32
  0
VERTEX
  8
MY3DLAYER
10
176.1936433543
20
-89.3599156433706
30
1.0
 70
     32
  0
VERTEX
  8
MY3DLAYER
10
177.392448424356
20
-92.2540871021403
30
1.0
 70
     32
  0
VERTEX
  8
MY3DLAYER
10
177.801338508887
20
-95.3599156433705
30
1.0
 70
     32
  0
VERTEX
  8
MY3DLAYER
10
181.835854351208
20
-95.3599156433706
30
1.0
 70
     32
  0
VERTEX
  8
MY3DLAYER
10
181.289491473026
20
-91.2098775643799
30
1.0
 70
     32
  0
VERTEX
  8
MY3DLAYER
10
179.687636565721
20
-87.3426577222102
30
1.0
 70
     32
  0
SEQEND
  0
POLYLINE
 8
Layer0
 66
     1
70
    8
 10
0.0
 20
 0.0
 30
0.0
  0
VERTEX
  8
MY3DLAYER
10
179.687636565721
20
-87.3426577222102
30
0.0
 70
     32
  0
VERTEX
  8
MY3DLAYER
10
177.139453394035
20
-84.0218007582225
30
0.0
 70
     32
  0
VERTEX
  8
MY3DLAYER
10
177.139453394035
20
-84.0218007582225
30
1.0
 70
     32
  0
VERTEX
  8
MY3DLAYER
10
179.687636565721
20
-87.3426577222102
30
1.0
 70
     32
  0
VERTEX
  8
MY3DLAYER
10
179.687636565721
20
-87.3426577222102
30
0.0
 70
     32
  0
SEQEND
  0
POLYLINE
 8
Layer0
 66
     1
70
    8
 10
0.0
 20
 0.0
 30
0.0
  0
VERTEX
  8
MY3DLAYER
10
181.289491473026
20
-91.2098775643799
30
0.0
 70
     32
  0
VERTEX
  8
MY3DLAYER
10
179.687636565721
20
-87.3426577222102
30
0.0
 70
     32
  0
VERTEX
  8
MY3DLAYER
10
179.687636565721
20
-87.3426577222102
30
1.0
 70
     32
  0
VERTEX
  8
MY3DLAYER
10
181.289491473026
20
-91.2098775643799
30
1.0
 70
     32
  0
VERTEX
  8
MY3DLAYER
10
181.289491473026
20
-91.2098775643799
30
0.0
 70
     32
  0
SEQEND
  0
POLYLINE
 8
Layer0
 66
     1
70
    8
 10
0.0
 20
 0.0
 30
0.0
  0
VERTEX
  8
MY3DLAYER
10
177.139453394035
20
-84.0218007582225
30
0.0
 70
     32
  0
VERTEX
  8
MY3DLAYER
10
174.286619883126
20
-86.874634269132
30
0.0
 70
     32
  0
VERTEX
  8
MY3DLAYER
10
174.286619883126
20
-86.874634269132
30
1.0
 70
     32
  0
VERTEX
  8
MY3DLAYER
10
177.139453394035
20
-84.0218007582225
30
1.0
 70
     32
  0
VERTEX
  8
MY3DLAYER
10
177.139453394035
20
-84.0218007582225
30
0.0
 70
     32
  0
SEQEND
  0
POLYLINE
 8
Layer0
 66
     1
70
    8
 10
0.0
 20
 0.0
 30
0.0
  0
VERTEX
  8
MY3DLAYER
10
181.289491473026
20
-91.2098775643799
30
0.0
 70
     32
  0
VERTEX
  8
MY3DLAYER
10
181.835854351208
20
-95.3599156433706
30
0.0
 70
     32
  0
VERTEX
  8
MY3DLAYER
10
177.801338508887
20
-95.3599156433705
30
0.0
 70
     32
  0
VERTEX
  8
MY3DLAYER
10
177.392448424356
20
-92.2540871021403
30
0.0
 70
     32
  0
VERTEX
  8
MY3DLAYER
10
176.1936433543
20
-89.3599156433705
30
0.0
 70
     32
  0
VERTEX
  8
MY3DLAYER
10
174.286619883126
20
-86.874634269132
30
0.0
 70
     32
  0
VERTEX
  8
MY3DLAYER
10
177.139453394035
20
-84.0218007582225
30
0.0
 70
     32
  0
VERTEX
  8
MY3DLAYER
10
179.687636565721
20
-87.3426577222102
30
0.0
 70
     32
  0
VERTEX
  8
MY3DLAYER
10
181.289491473026
20
-91.2098775643799
30
0.0
 70
     32
  0
SEQEND
  0
POLYLINE
 8
Layer0
 66
     1
70
    8
 10
0.0
 20
 0.0
 30
0.0
  0
VERTEX
  8
MY3DLAYER
10
181.835854351208
20
-95.3599156433706
30
0.0
 70
     32
  0
VERTEX
  8
MY3DLAYER
10
181.289491473026
20
-91.2098775643799
30
0.0
 70
     32
  0
VERTEX
  8
MY3DLAYER
10
181.289491473026
20
-91.2098775643799
30
1.0
 70
     32
  0
VERTEX
  8
MY3DLAYER
10
181.835854351208
20
-95.3599156433706
30
1.0
 70
     32
  0
VERTEX
  8
MY3DLAYER
10
181.835854351208
20
-95.3599156433706
30
0.0
 70
     32
  0
SEQEND
  0
POLYLINE
 8
Layer0
 66
     1
70
    8
 10
0.0
 20
 0.0
 30
0.0
  0
VERTEX
  8
MY3DLAYER
10
153.189132037896
20
-105.037602046525
30
0.0
 70
     32
  0
VERTEX
  8
MY3DLAYER
10
156.362545399061
20
-102.60255633049
30
0.0
 70
     32
  0
VERTEX
  8
MY3DLAYER
10
156.362545399061
20
-102.60255633049
30
1.0
 70
     32
  0
VERTEX
  8
MY3DLAYER
10
153.189132037896
20
-105.037602046525
30
1.0
 70
     32
  0
VERTEX
  8
MY3DLAYER
10
153.189132037896
20
-105.037602046525
30
0.0
 70
     32
  0
SEQEND
  0
POLYLINE
 8
Layer0
 66
     1
70
    8
 10
0.0
 20
 0.0
 30
0.0
  0
VERTEX
  8
MY3DLAYER
10
150.313185544748
20
-99.5099537223612
30
0.0
 70
     32
  0
VERTEX
  8
MY3DLAYER
10
149.766822666566
20
-95.3599156433705
30
0.0
 70
     32
  0
VERTEX
  8
MY3DLAYER
10
153.801338508887
20
-95.3599156433705
30
0.0
 70
     32
  0
VERTEX
  8
MY3DLAYER
10
154.210228593418
20
-98.4657441846008
30
0.0
 70
     32
  0
VERTEX
  8
MY3DLAYER
10
155.409033663474
20
-101.359915643371
30
0.0
 70
     32
  0
VERTEX
  8
MY3DLAYER
10
156.362545399061
20
-102.60255633049
30
0.0
 70
     32
  0
VERTEX
  8
MY3DLAYER
10
153.189132037896
20
-105.037602046525
30
0.0
 70
     32
  0
VERTEX
  8
MY3DLAYER
10
151.915040452053
20
-103.377173564531
30
0.0
 70
     32
  0
VERTEX
  8
MY3DLAYER
10
150.313185544748
20
-99.5099537223612
30
0.0
 70
     32
  0
SEQEND
  0
POLYLINE
 8
Layer0
 66
     1
70
    8
 10
0.0
 20
 0.0
 30
0.0
  0
VERTEX
  8
MY3DLAYER
10
150.313185544748
20
-99.5099537223612
30
0.0
 70
     32
  0
VERTEX
  8
MY3DLAYER
10
151.915040452053
20
-103.377173564531
30
0.0
 70
     32
  0
VERTEX
  8
MY3DLAYER
10
151.915040452053
20
-103.377173564531
30
1.0
 70
     32
  0
VERTEX
  8
MY3DLAYER
10
150.313185544748
20
-99.5099537223612
30
1.0
 70
     32
  0
VERTEX
  8
MY3DLAYER
10
150.313185544748
20
-99.5099537223612
30
0.0
 70
     32
  0
SEQEND
  0
POLYLINE
 8
Layer0
 66
     1
70
    8
 10
0.0
 20
 0.0
 30
0.0
  0
VERTEX
  8
MY3DLAYER
10
149.766822666566
20
-95.3599156433705
30
0.0
 70
     32
  0
VERTEX
  8
MY3DLAYER
10
150.313185544748
20
-99.5099537223612
30
0.0
 70
     32
  0
VERTEX
  8
MY3DLAYER
10
150.313185544748
20
-99.5099537223612
30
1.0
 70
     32
  0
VERTEX
  8
MY3DLAYER
10
149.766822666566
20
-95.3599156433705
30
1.0
 70
     32
  0
VERTEX
  8
MY3DLAYER
10
149.766822666566
20
-95.3599156433705
30
0.0
 70
     32
  0
SEQEND
  0
POLYLINE
 8
Layer0
 66
     1
70
    8
 10
0.0
 20
 0.0
 30
0.0
  0
VERTEX
  8
MY3DLAYER
10
154.210228593418
20
-98.4657441846008
30
1.0
 70
     32
  0
VERTEX
  8
MY3DLAYER
10
153.801338508887
20
-95.3599156433705
30
1.0
 70
     32
  0
VERTEX
  8
MY3DLAYER
10
149.766822666566
20
-95.3599156433705
30
1.0
 70
     32
  0
VERTEX
  8
MY3DLAYER
10
150.313185544748
20
-99.5099537223612
30
1.0
 70
     32
  0
VERTEX
  8
MY3DLAYER
10
151.915040452053
20
-103.377173564531
30
1.0
 70
     32
  0
VERTEX
  8
MY3DLAYER
10
153.189132037896
20
-105.037602046525
30
1.0
 70
     32
  0
VERTEX
  8
MY3DLAYER
10
156.362545399061
20
-102.60255633049
30
1.0
 70
     32
  0
VERTEX
  8
MY3DLAYER
10
155.409033663474
20
-101.359915643371
30
1.0
 70
     32
  0
VERTEX
  8
MY3DLAYER
10
154.210228593418
20
-98.4657441846008
30
1.0
 70
     32
  0
SEQEND
  0
POLYLINE
 8
Layer0
 66
     1
70
    8
 10
0.0
 20
 0.0
 30
0.0
  0
VERTEX
  8
MY3DLAYER
10
151.915040452053
20
-103.377173564531
30
0.0
 70
     32
  0
VERTEX
  8
MY3DLAYER
10
153.189132037896
20
-105.037602046525
30
0.0
 70
     32
  0
VERTEX
  8
MY3DLAYER
10
153.189132037896
20
-105.037602046525
30
1.0
 70
     32
  0
VERTEX
  8
MY3DLAYER
10
151.915040452053
20
-103.377173564531
30
1.0
 70
     32
  0
VERTEX
  8
MY3DLAYER
10
151.915040452053
20
-103.377173564531
30
0.0
 70
     32
  0
SEQEND
  0
POLYLINE
 8
Layer0
 66
     1
70
    8
 10
0.0
 20
 0.0
 30
0.0
  0
VERTEX
  8
MY3DLAYER
10
154.463223623739
20
-84.0218007582225
30
0.0
 70
     32
  0
VERTEX
  8
MY3DLAYER
10
151.915040452053
20
-87.3426577222102
30
0.0
 70
     32
  0
VERTEX
  8
MY3DLAYER
10
151.915040452053
20
-87.3426577222102
30
1.0
 70
     32
  0
VERTEX
  8
MY3DLAYER
10
154.463223623739
20
-84.0218007582225
30
1.0
 70
     32
  0
VERTEX
  8
MY3DLAYER
10
154.463223623739
20
-84.0218007582225
30
0.0
 70
     32
  0
SEQEND
  0
POLYLINE
 8
Layer0
 66
     1
70
    8
 10
0.0
 20
 0.0
 30
0.0
  0
VERTEX
  8
MY3DLAYER
10
154.210228593418
20
-98.4657441846008
30
0.0
 70
     32
  0
VERTEX
  8
MY3DLAYER
10
155.409033663474
20
-101.359915643371
30
0.0
 70
     32
  0
VERTEX
  8
MY3DLAYER
10
155.409033663474
20
-101.359915643371
30
1.0
 70
     32
  0
VERTEX
  8
MY3DLAYER
10
154.210228593418
20
-98.4657441846008
30
1.0
 70
     32
  0
VERTEX
  8
MY3DLAYER
10
154.210228593418
20
-98.4657441846008
30
0.0
 70
     32
  0
SEQEND
  0
POLYLINE
 8
Layer0
 66
     1
70
    8
 10
0.0
 20
 0.0
 30
0.0
  0
VERTEX
  8
MY3DLAYER
10
153.801338508887
20
-95.3599156433705
30
0.0
 70
     32
  0
VERTEX
  8
MY3DLAYER
10
154.210228593418
20
-98.4657441846008
30
0.0
 70
     32
  0
VERTEX
  8
MY3DLAYER
10
154.210228593418
20
-98.4657441846008
30
1.0
 70
     32
  0
VERTEX
  8
MY3DLAYER
10
153.801338508887
20
-95.3599156433705
30
1.0
 70
     32
  0
VERTEX
  8
MY3DLAYER
10
153.801338508887
20
-95.3599156433705
30
0.0
 70
     32
  0
SEQEND
  0
POLYLINE
 8
Layer0
 66
     1
70
    8
 10
0.0
 20
 0.0
 30
0.0
  0
VERTEX
  8
MY3DLAYER
10
155.409033663474
20
-101.359915643371
30
0.0
 70
     32
  0
VERTEX
  8
MY3DLAYER
10
156.362545399061
20
-102.60255633049
30
0.0
 70
     32
  0
VERTEX
  8
MY3DLAYER
10
156.362545399061
20
-102.60255633049
30
1.0
 70
     32
  0
VERTEX
  8
MY3DLAYER
10
155.409033663474
20
-101.359915643371
30
1.0
 70
     32
  0
VERTEX
  8
MY3DLAYER
10
155.409033663474
20
-101.359915643371
30
0.0
 70
     32
  0
SEQEND
  0
POLYLINE
 8
Layer0
 66
     1
70
    8
 10
0.0
 20
 0.0
 30
0.0
  0
VERTEX
  8
MY3DLAYER
10
155.409033663474
20
-89.3599156433705
30
0.0
 70
     32
  0
VERTEX
  8
MY3DLAYER
10
154.210228593418
20
-92.2540871021403
30
0.0
 70
     32
  0
VERTEX
  8
MY3DLAYER
10
154.210228593418
20
-92.2540871021403
30
1.0
 70
     32
  0
VERTEX
  8
MY3DLAYER
10
155.409033663474
20
-89.3599156433705
30
1.0
 70
     32
  0
VERTEX
  8
MY3DLAYER
10
155.409033663474
20
-89.3599156433705
30
0.0
 70
     32
  0
SEQEND
  0
POLYLINE
 8
Layer0
 66
     1
70
    8
 10
0.0
 20
 0.0
 30
0.0
  0
VERTEX
  8
MY3DLAYER
10
155.409033663474
20
-89.3599156433705
30
1.0
 70
     32
  0
VERTEX
  8
MY3DLAYER
10
157.316057134649
20
-86.874634269132
30
1.0
 70
     32
  0
VERTEX
  8
MY3DLAYER
10
154.463223623739
20
-84.0218007582225
30
1.0
 70
     32
  0
VERTEX
  8
MY3DLAYER
10
151.915040452053
20
-87.3426577222102
30
1.0
 70
     32
  0
VERTEX
  8
MY3DLAYER
10
150.313185544748
20
-91.2098775643799
30
1.0
 70
     32
  0
VERTEX
  8
MY3DLAYER
10
149.766822666566
20
-95.3599156433705
30
1.0
 70
     32
  0
VERTEX
  8
MY3DLAYER
10
153.801338508887
20
-95.3599156433705
30
1.0
 70
     32
  0
VERTEX
  8
MY3DLAYER
10
154.210228593418
20
-92.2540871021403
30
1.0
 70
     32
  0
VERTEX
  8
MY3DLAYER
10
155.409033663474
20
-89.3599156433705
30
1.0
 70
     32
  0
SEQEND
  0
POLYLINE
 8
Layer0
 66
     1
70
    8
 10
0.0
 20
 0.0
 30
0.0
  0
VERTEX
  8
MY3DLAYER
10
157.316057134649
20
-86.874634269132
30
0.0
 70
     32
  0
VERTEX
  8
MY3DLAYER
10
154.463223623739
20
-84.0218007582225
30
0.0
 70
     32
  0
VERTEX
  8
MY3DLAYER
10
154.463223623739
20
-84.0218007582225
30
1.0
 70
     32
  0
VERTEX
  8
MY3DLAYER
10
157.316057134649
20
-86.874634269132
30
1.0
 70
     32
  0
VERTEX
  8
MY3DLAYER
10
157.316057134649
20
-86.874634269132
30
0.0
 70
     32
  0
SEQEND
  0
POLYLINE
 8
Layer0
 66
     1
70
    8
 10
0.0
 20
 0.0
 30
0.0
  0
VERTEX
  8
MY3DLAYER
10
154.210228593418
20
-92.2540871021403
30
0.0
 70
     32
  0
VERTEX
  8
MY3DLAYER
10
153.801338508887
20
-95.3599156433705
30
0.0
 70
     32
  0
VERTEX
  8
MY3DLAYER
10
153.801338508887
20
-95.3599156433705
30
1.0
 70
     32
  0
VERTEX
  8
MY3DLAYER
10
154.210228593418
20
-92.2540871021403
30
1.0
 70
     32
  0
VERTEX
  8
MY3DLAYER
10
154.210228593418
20
-92.2540871021403
30
0.0
 70
     32
  0
SEQEND
  0
POLYLINE
 8
Layer0
 66
     1
70
    8
 10
0.0
 20
 0.0
 30
0.0
  0
VERTEX
  8
MY3DLAYER
10
153.801338508887
20
-95.3599156433705
30
0.0
 70
     32
  0
VERTEX
  8
MY3DLAYER
10
149.766822666566
20
-95.3599156433705
30
0.0
 70
     32
  0
VERTEX
  8
MY3DLAYER
10
149.766822666566
20
-95.3599156433705
30
1.0
 70
     32
  0
VERTEX
  8
MY3DLAYER
10
153.801338508887
20
-95.3599156433705
30
1.0
 70
     32
  0
VERTEX
  8
MY3DLAYER
10
153.801338508887
20
-95.3599156433705
30
0.0
 70
     32
  0
SEQEND
  0
POLYLINE
 8
Layer0
 66
     1
70
    8
 10
0.0
 20
 0.0
 30
0.0
  0
VERTEX
  8
MY3DLAYER
10
150.313185544748
20
-91.2098775643799
30
0.0
 70
     32
  0
VERTEX
  8
MY3DLAYER
10
149.766822666566
20
-95.3599156433705
30
0.0
 70
     32
  0
VERTEX
  8
MY3DLAYER
10
149.766822666566
20
-95.3599156433705
30
1.0
 70
     32
  0
VERTEX
  8
MY3DLAYER
10
150.313185544748
20
-91.2098775643799
30
1.0
 70
     32
  0
VERTEX
  8
MY3DLAYER
10
150.313185544748
20
-91.2098775643799
30
0.0
 70
     32
  0
SEQEND
  0
POLYLINE
 8
Layer0
 66
     1
70
    8
 10
0.0
 20
 0.0
 30
0.0
  0
VERTEX
  8
MY3DLAYER
10
151.915040452053
20
-87.3426577222102
30
0.0
 70
     32
  0
VERTEX
  8
MY3DLAYER
10
150.313185544748
20
-91.2098775643799
30
0.0
 70
     32
  0
VERTEX
  8
MY3DLAYER
10
150.313185544748
20
-91.2098775643799
30
1.0
 70
     32
  0
VERTEX
  8
MY3DLAYER
10
151.915040452053
20
-87.3426577222102
30
1.0
 70
     32
  0
VERTEX
  8
MY3DLAYER
10
151.915040452053
20
-87.3426577222102
30
0.0
 70
     32
  0
SEQEND
  0
POLYLINE
 8
Layer0
 66
     1
70
    8
 10
0.0
 20
 0.0
 30
0.0
  0
VERTEX
  8
MY3DLAYER
10
157.316057134649
20
-86.874634269132
30
0.0
 70
     32
  0
VERTEX
  8
MY3DLAYER
10
155.409033663474
20
-89.3599156433705
30
0.0
 70
     32
  0
VERTEX
  8
MY3DLAYER
10
155.409033663474
20
-89.3599156433705
30
1.0
 70
     32
  0
VERTEX
  8
MY3DLAYER
10
157.316057134649
20
-86.874634269132
30
1.0
 70
     32
  0
VERTEX
  8
MY3DLAYER
10
157.316057134649
20
-86.874634269132
30
0.0
 70
     32
  0
SEQEND
  0
POLYLINE
 8
Layer0
 66
     1
70
    8
 10
0.0
 20
 0.0
 30
0.0
  0
VERTEX
  8
MY3DLAYER
10
151.915040452053
20
-87.3426577222102
30
0.0
 70
     32
  0
VERTEX
  8
MY3DLAYER
10
154.463223623739
20
-84.0218007582225
30
0.0
 70
     32
  0
VERTEX
  8
MY3DLAYER
10
157.316057134649
20
-86.874634269132
30
0.0
 70
     32
  0
VERTEX
  8
MY3DLAYER
10
155.409033663474
20
-89.3599156433705
30
0.0
 70
     32
  0
VERTEX
  8
MY3DLAYER
10
154.210228593418
20
-92.2540871021403
30
0.0
 70
     32
  0
VERTEX
  8
MY3DLAYER
10
153.801338508887
20
-95.3599156433705
30
0.0
 70
     32
  0
VERTEX
  8
MY3DLAYER
10
149.766822666566
20
-95.3599156433705
30
0.0
 70
     32
  0
VERTEX
  8
MY3DLAYER
10
150.313185544748
20
-91.2098775643799
30
0.0
 70
     32
  0
VERTEX
  8
MY3DLAYER
10
151.915040452053
20
-87.3426577222102
30
0.0
 70
     32
  0
SEQEND
  0
POLYLINE
 8
Layer0
 66
     1
70
    8
 10
0.0
 20
 0.0
 30
0.0
  0
VERTEX
  8
MY3DLAYER
10
159.012844092632
20
-103.62510547422
30
2.0
 70
     32
  0
VERTEX
  8
MY3DLAYER
10
157.491338340673
20
-102.020278393052
30
2.0
 70
     32
  0
VERTEX
  8
MY3DLAYER
10
156.500906542043
20
-100.729522543008
30
2.0
 70
     32
  0
VERTEX
  8
MY3DLAYER
10
155.428054546128
20
-98.1394287040507
30
2.0
 70
     32
  0
VERTEX
  8
MY3DLAYER
10
155.062124709612
20
-95.3599156433705
30
2.0
 70
     32
  0
VERTEX
  8
MY3DLAYER
10
155.428054546128
20
-92.5804025826904
30
2.0
 70
     32
  0
VERTEX
  8
MY3DLAYER
10
156.500906542043
20
-89.9903087437332
30
2.0
 70
     32
  0
VERTEX
  8
MY3DLAYER
10
158.207567606808
20
-87.7661447412912
30
2.0
 70
     32
  0
VERTEX
  8
MY3DLAYER
10
160.43173160925
20
-86.0594836765262
30
2.0
 70
     32
  0
VERTEX
  8
MY3DLAYER
10
163.021825448207
20
-84.986631680611
30
2.0
 70
     32
  0
VERTEX
  8
MY3DLAYER
10
165.801338508887
20
-84.6207018440957
30
2.0
 70
     32
  0
VERTEX
  8
MY3DLAYER
10
168.580851569567
20
-84.986631680611
30
2.0
 70
     32
  0
VERTEX
  8
MY3DLAYER
10
171.170945408524
20
-86.0594836765262
30
2.0
 70
     32
  0
VERTEX
  8
MY3DLAYER
10
173.395109410966
20
-87.7661447412912
30
2.0
 70
     32
  0
VERTEX
  8
MY3DLAYER
10
175.101770475731
20
-89.9903087437331
30
2.0
 70
     32
  0
VERTEX
  8
MY3DLAYER
10
176.174622471647
20
-92.5804025826904
30
2.0
 70
     32
  0
VERTEX
  8
MY3DLAYER
10
176.544848332963
20
-95.3925471914256
30
2.0
 70
     32
  0
VERTEX
  8
MY3DLAYER
10
176.347762284292
20
-97.5951835216243
30
2.0
 70
     32
  0
VERTEX
  8
MY3DLAYER
10
175.698995952782
20
-99.7093150125187
30
2.0
 70
     32
  0
VERTEX
  8
MY3DLAYER
10
174.626653087073
20
-101.643360123692
30
2.0
 70
     32
  0
VERTEX
  8
MY3DLAYER
10
173.177186243176
20
-103.313538432178
30
2.0
 70
     32
  0
VERTEX
  8
MY3DLAYER
10
171.413384517662
20
-104.647499895926
30
2.0
 70
     32
  0
VERTEX
  8
MY3DLAYER
10
169.411653602281
20
-105.58745896743
30
2.0
 70
     32
  0
VERTEX
  8
MY3DLAYER
10
167.258705984654
20
-106.092697791594
30
2.0
 70
     32
  0
VERTEX
  8
MY3DLAYER
10
165.047804671411
20
-106.141330052457
30
2.0
 70
     32
  0
VERTEX
  8
MY3DLAYER
10
162.874723151029
20
-105.731249061109
30
2.0
 70
     32
  0
VERTEX
  8
MY3DLAYER
10
160.833596605705
20
-104.880219014833
30
2.0
 70
     32
  0
VERTEX
  8
MY3DLAYER
10
159.012844092632
20
-103.62510547422
30
2.0
 70
     32
  0
SEQEND
  0
LINE
 8
Layer0
10
163.32828654466
20
-105.921138953258
30
0.379529078502533
11
163.349117349441
21
-105.928609214361
31
0.379166567985978
 0
ENDSEC
 0
EOF
