ISO-10303-21;
HEADER;
FILE_DESCRIPTION (( 'STEP AP203' ),
    '1' );
FILE_NAME ('Blade.STEP',
    '2012-05-22T01:03:50',
    ( '' ),
    ( '' ),
    'SwSTEP 2.0',
    'SolidWorks 2010',
    '' );
FILE_SCHEMA (( 'CONFIG_CONTROL_DESIGN' ));
ENDSEC;

DATA;
#1 = COORDINATED_UNIVERSAL_TIME_OFFSET ( 6, 0, .BEHIND. ) ;
#2 = CALENDAR_DATE ( 2012, 21, 5 ) ;
#3 = DATE_AND_TIME ( #2, #57 ) ;
#4 = APPROVAL_PERSON_ORGANIZATION ( #55, #183, #123 ) ;
#5 = LOCAL_TIME ( 20, 3, 50.00000000000000000, #1 ) ;
#6 = COORDINATED_UNIVERSAL_TIME_OFFSET ( 6, 0, .BEHIND. ) ;
#7 = PERSON_AND_ORGANIZATION ( #207, #46 ) ;
#8 = PERSON_AND_ORGANIZATION ( #207, #46 ) ;
#9 = APPROVAL_DATE_TIME ( #13, #189 ) ;
#10 = PERSON_AND_ORGANIZATION ( #207, #46 ) ;
#11 = CIRCLE ( 'NONE', #165, 127.0000000000000000 ) ;
#12 = LOCAL_TIME ( 20, 3, 50.00000000000000000, #15 ) ;
#13 = DATE_AND_TIME ( #14, #12 ) ;
#14 = CALENDAR_DATE ( 2012, 21, 5 ) ;
#15 = COORDINATED_UNIVERSAL_TIME_OFFSET ( 6, 0, .BEHIND. ) ;
#16 = APPROVAL_PERSON_ORGANIZATION ( #17, #189, #116 ) ;
#17 = PERSON_AND_ORGANIZATION ( #207, #46 ) ;
#18 = DATE_AND_TIME ( #19, #20 ) ;
#19 = CALENDAR_DATE ( 2012, 21, 5 ) ;
#20 = LOCAL_TIME ( 20, 3, 50.00000000000000000, #25 ) ;
#21 = PERSON_AND_ORGANIZATION ( #207, #46 ) ;
#22 = CYLINDRICAL_SURFACE ( 'NONE', #198, 15.89999999999999700 ) ;
#23 = VECTOR ( 'NONE', #82, 1000.000000000000000 ) ;
#24 = CALENDAR_DATE ( 2012, 21, 5 ) ;
#25 = COORDINATED_UNIVERSAL_TIME_OFFSET ( 6, 0, .BEHIND. ) ;
#26 = VECTOR ( 'NONE', #140, 1000.000000000000000 ) ;
#27 = LINE ( 'NONE', #160, #28 ) ;
#28 = VECTOR ( 'NONE', #124, 1000.000000000000000 ) ;
#29 = CIRCLE ( 'NONE', #205, 127.0000000000000000 ) ;
#30 = APPROVAL_DATE_TIME ( #31, #183 ) ;
#31 = DATE_AND_TIME ( #24, #5 ) ;
#32 = CIRCLE ( 'NONE', #166, 127.0000000000000000 ) ;
#33 = CIRCLE ( 'NONE', #170, 15.89999999999999700 ) ;
#34 = CIRCLE ( 'NONE', #184, 127.0000000000000000 ) ;
#35 = FACE_OUTER_BOUND ( 'NONE', #247, .T. ) ;
#36 = CIRCLE ( 'NONE', #186, 15.89999999999999700 ) ;
#37 = LINE ( 'NONE', #126, #23 ) ;
#38 = VECTOR ( 'NONE', #141, 1000.000000000000000 ) ;
#39 = CIRCLE ( 'NONE', #167, 15.89999999999999700 ) ;
#40 = COORDINATED_UNIVERSAL_TIME_OFFSET ( 6, 0, .BEHIND. ) ;
#41 = CALENDAR_DATE ( 2012, 21, 5 ) ;
#42 = CIRCLE ( 'NONE', #187, 15.89999999999999700 ) ;
#43 = FACE_BOUND ( 'NONE', #249, .T. ) ;
#44 =( GEOMETRIC_REPRESENTATION_CONTEXT ( 3 ) GLOBAL_UNCERTAINTY_ASSIGNED_CONTEXT ( ( #67 ) ) GLOBAL_UNIT_ASSIGNED_CONTEXT ( ( #100, #101, #102 ) ) REPRESENTATION_CONTEXT ( 'NONE', 'WORKASPACE' ) );
#45 = SHAPE_DEFINITION_REPRESENTATION ( #64, #68 ) ;
#46 = ORGANIZATION ( 'UNSPECIFIED', 'UNSPECIFIED', '' ) ;
#47 = PERSON_AND_ORGANIZATION ( #207, #46 ) ;
#48 = PERSON_AND_ORGANIZATION ( #207, #46 ) ;
#49 = APPROVAL_PERSON_ORGANIZATION ( #48, #192, #112 ) ;
#50 = LOCAL_TIME ( 20, 3, 50.00000000000000000, #40 ) ;
#51 = DATE_AND_TIME ( #41, #50 ) ;
#52 = APPROVAL_DATE_TIME ( #51, #192 ) ;
#53 = FACE_OUTER_BOUND ( 'NONE', #236, .T. ) ;
#54 = LINE ( 'NONE', #138, #26 ) ;
#55 = PERSON_AND_ORGANIZATION ( #207, #46 ) ;
#56 = LINE ( 'NONE', #137, #38 ) ;
#57 = LOCAL_TIME ( 20, 3, 50.00000000000000000, #6 ) ;
#58 = ADVANCED_FACE ( 'NONE', ( #233, #235 ), #134, .T. ) ;
#59 = ADVANCED_FACE ( 'NONE', ( #234 ), #213, .F. ) ;
#60 = ADVANCED_FACE ( 'NONE', ( #238 ), #241, .T. ) ;
#61 = ADVANCED_FACE ( 'NONE', ( #228, #43 ), #144, .F. ) ;
#62 = ADVANCED_FACE ( 'NONE', ( #35 ), #231, .T. ) ;
#63 = ADVANCED_FACE ( 'NONE', ( #53 ), #22, .F. ) ;
#64 = PRODUCT_DEFINITION_SHAPE ( 'NONE', 'NONE',  #190 ) ;
#65 = DESIGN_CONTEXT ( 'detailed design', #109, 'design' ) ;
#66 = MANIFOLD_SOLID_BREP ( 'Boss-Extrude1', #229 ) ;
#67 = UNCERTAINTY_MEASURE_WITH_UNIT (LENGTH_MEASURE( 1.000000000000000100E-005 ), #100, 'distance_accuracy_value', 'NONE');
#68 = ADVANCED_BREP_SHAPE_REPRESENTATION ( 'Blade', ( #66, #163 ), #44 ) ;
#69 = VERTEX_POINT ( 'NONE', #148 ) ;
#70 = DIRECTION ( 'NONE',  ( -0.0000000000000000000, -0.0000000000000000000, -1.000000000000000000 ) ) ;
#71 = DIRECTION ( 'NONE',  ( -1.000000000000000000, 0.0000000000000000000, 0.0000000000000000000 ) ) ;
#72 = DIRECTION ( 'NONE',  ( 0.0000000000000000000, 0.0000000000000000000, 1.000000000000000000 ) ) ;
#73 = VERTEX_POINT ( 'NONE', #132 ) ;
#74 = DIRECTION ( 'NONE',  ( 1.000000000000000000, 0.0000000000000000000, -0.0000000000000000000 ) ) ;
#75 = VERTEX_POINT ( 'NONE', #147 ) ;
#76 = DIRECTION ( 'NONE',  ( -0.0000000000000000000, -0.0000000000000000000, -1.000000000000000000 ) ) ;
#77 = DIRECTION ( 'NONE',  ( -1.000000000000000000, 0.0000000000000000000, 0.0000000000000000000 ) ) ;
#78 = DIRECTION ( 'NONE',  ( -0.0000000000000000000, -0.0000000000000000000, -1.000000000000000000 ) ) ;
#79 = CARTESIAN_POINT ( 'NONE',  ( 127.0000000000000000, 1.555301434917138600E-014, 5.000000000000000000 ) ) ;
#80 = VERTEX_POINT ( 'NONE', #79 ) ;
#81 = CARTESIAN_POINT ( 'NONE',  ( 0.0000000000000000000, 0.0000000000000000000, 5.000000000000000000 ) ) ;
#82 = DIRECTION ( 'NONE',  ( -0.0000000000000000000, -0.0000000000000000000, -1.000000000000000000 ) ) ;
#83 = CARTESIAN_POINT ( 'NONE',  ( 0.0000000000000000000, 0.0000000000000000000, 5.000000000000000000 ) ) ;
#84 = DIRECTION ( 'NONE',  ( 0.0000000000000000000, 0.0000000000000000000, 1.000000000000000000 ) ) ;
#85 = VERTEX_POINT ( 'NONE', #125 ) ;
#86 = CARTESIAN_POINT ( 'NONE',  ( -127.0000000000000000, 0.0000000000000000000, 0.0000000000000000000 ) ) ;
#87 = CARTESIAN_POINT ( 'NONE',  ( 0.0000000000000000000, 0.0000000000000000000, 0.0000000000000000000 ) ) ;
#88 = CARTESIAN_POINT ( 'NONE',  ( 0.0000000000000000000, 0.0000000000000000000, 5.000000000000000000 ) ) ;
#89 = CARTESIAN_POINT ( 'NONE',  ( 127.0000000000000000, 1.555301434917138600E-014, 0.0000000000000000000 ) ) ;
#90 = DIRECTION ( 'NONE',  ( 0.0000000000000000000, 0.0000000000000000000, 1.000000000000000000 ) ) ;
#91 = DIRECTION ( 'NONE',  ( 1.000000000000000000, 0.0000000000000000000, 0.0000000000000000000 ) ) ;
#92 = CARTESIAN_POINT ( 'NONE',  ( 0.0000000000000000000, 0.0000000000000000000, 5.000000000000000000 ) ) ;
#93 = DIRECTION ( 'NONE',  ( 0.0000000000000000000, 0.0000000000000000000, 1.000000000000000000 ) ) ;
#94 = DIRECTION ( 'NONE',  ( 1.000000000000000000, 0.0000000000000000000, 0.0000000000000000000 ) ) ;
#95 = DIRECTION ( 'NONE',  ( 0.0000000000000000000, 0.0000000000000000000, 1.000000000000000000 ) ) ;
#96 = DIRECTION ( 'NONE',  ( 1.000000000000000000, 0.0000000000000000000, 0.0000000000000000000 ) ) ;
#97 = DIRECTION ( 'NONE',  ( 0.0000000000000000000, 0.0000000000000000000, 1.000000000000000000 ) ) ;
#98 = DIRECTION ( 'NONE',  ( 0.0000000000000000000, 0.0000000000000000000, 1.000000000000000000 ) ) ;
#99 = DIRECTION ( 'NONE',  ( 1.000000000000000000, 0.0000000000000000000, 0.0000000000000000000 ) ) ;
#100 =( LENGTH_UNIT ( ) NAMED_UNIT ( * ) SI_UNIT ( .MILLI., .METRE. ) );
#101 =( NAMED_UNIT ( * ) PLANE_ANGLE_UNIT ( ) SI_UNIT ( $, .RADIAN. ) );
#102 =( NAMED_UNIT ( * ) SI_UNIT ( $, .STERADIAN. ) SOLID_ANGLE_UNIT ( ) );
#103 = CARTESIAN_POINT ( 'NONE',  ( 0.0000000000000000000, 0.0000000000000000000, 0.0000000000000000000 ) ) ;
#104 = DIRECTION ( 'NONE',  ( 1.000000000000000000, 0.0000000000000000000, 0.0000000000000000000 ) ) ;
#105 = APPLICATION_CONTEXT ( 'configuration controlled 3d designs of mechanical parts and assemblies' ) ;
#106 = APPLICATION_PROTOCOL_DEFINITION ( 'international standard', 'config_control_design', 1994, #105 ) ;
#107 = MECHANICAL_CONTEXT ( 'NONE', #105, 'mechanical' ) ;
#108 = PERSON_AND_ORGANIZATION_ROLE ( 'design_owner' ) ;
#109 = APPLICATION_CONTEXT ( 'configuration controlled 3d designs of mechanical parts and assemblies' ) ;
#110 = APPLICATION_PROTOCOL_DEFINITION ( 'international standard', 'config_control_design', 1994, #109 ) ;
#111 = APPROVAL_STATUS ( 'not_yet_approved' ) ;
#112 = APPROVAL_ROLE ( '' ) ;
#113 = PERSON_AND_ORGANIZATION_ROLE ( 'creator' ) ;
#114 = DATE_TIME_ROLE ( 'creation_date' ) ;
#115 = APPROVAL_STATUS ( 'not_yet_approved' ) ;
#116 = APPROVAL_ROLE ( '' ) ;
#117 = PERSON_AND_ORGANIZATION_ROLE ( 'creator' ) ;
#118 = PERSON_AND_ORGANIZATION_ROLE ( 'design_supplier' ) ;
#119 = SECURITY_CLASSIFICATION_LEVEL ( 'unclassified' ) ;
#120 = PERSON_AND_ORGANIZATION_ROLE ( 'classification_officer' ) ;
#121 = DATE_TIME_ROLE ( 'classification_date' ) ;
#122 = APPROVAL_STATUS ( 'not_yet_approved' ) ;
#123 = APPROVAL_ROLE ( '' ) ;
#124 = DIRECTION ( 'NONE',  ( -0.0000000000000000000, -0.0000000000000000000, -1.000000000000000000 ) ) ;
#125 = CARTESIAN_POINT ( 'NONE',  ( -15.89999999999999700, 0.0000000000000000000, 5.000000000000000000 ) ) ;
#126 = CARTESIAN_POINT ( 'NONE',  ( 127.0000000000000000, 1.555301434917138600E-014, 5.000000000000000000 ) ) ;
#127 = CARTESIAN_POINT ( 'NONE',  ( 0.0000000000000000000, 0.0000000000000000000, 5.000000000000000000 ) ) ;
#128 = CARTESIAN_POINT ( 'NONE',  ( 15.89999999999999700, 1.947188410644291400E-015, 0.0000000000000000000 ) ) ;
#129 = DIRECTION ( 'NONE',  ( 0.0000000000000000000, 0.0000000000000000000, 1.000000000000000000 ) ) ;
#130 = VERTEX_POINT ( 'NONE', #128 ) ;
#131 = VERTEX_POINT ( 'NONE', #89 ) ;
#132 = CARTESIAN_POINT ( 'NONE',  ( -127.0000000000000000, 0.0000000000000000000, 5.000000000000000000 ) ) ;
#133 = DIRECTION ( 'NONE',  ( 0.0000000000000000000, 0.0000000000000000000, 1.000000000000000000 ) ) ;
#134 = PLANE ( 'NONE',  #181 ) ;
#135 = CARTESIAN_POINT ( 'NONE',  ( 0.0000000000000000000, 0.0000000000000000000, 0.0000000000000000000 ) ) ;
#136 = CARTESIAN_POINT ( 'NONE',  ( 0.0000000000000000000, 0.0000000000000000000, 5.000000000000000000 ) ) ;
#137 = CARTESIAN_POINT ( 'NONE',  ( 15.89999999999999700, 1.947188410644291400E-015, 5.000000000000000000 ) ) ;
#138 = CARTESIAN_POINT ( 'NONE',  ( -15.89999999999999700, 0.0000000000000000000, 5.000000000000000000 ) ) ;
#139 = DIRECTION ( 'NONE',  ( 1.000000000000000000, 0.0000000000000000000, 0.0000000000000000000 ) ) ;
#140 = DIRECTION ( 'NONE',  ( -0.0000000000000000000, -0.0000000000000000000, -1.000000000000000000 ) ) ;
#141 = DIRECTION ( 'NONE',  ( -0.0000000000000000000, -0.0000000000000000000, -1.000000000000000000 ) ) ;
#142 = CARTESIAN_POINT ( 'NONE',  ( 0.0000000000000000000, 0.0000000000000000000, 5.000000000000000000 ) ) ;
#143 = CARTESIAN_POINT ( 'NONE',  ( 0.0000000000000000000, 0.0000000000000000000, 0.0000000000000000000 ) ) ;
#144 = PLANE ( 'NONE',  #164 ) ;
#145 = CARTESIAN_POINT ( 'NONE',  ( 0.0000000000000000000, 0.0000000000000000000, 0.0000000000000000000 ) ) ;
#146 = DIRECTION ( 'NONE',  ( 1.000000000000000000, 0.0000000000000000000, 0.0000000000000000000 ) ) ;
#147 = CARTESIAN_POINT ( 'NONE',  ( 15.89999999999999700, 1.947188410644291400E-015, 5.000000000000000000 ) ) ;
#148 = CARTESIAN_POINT ( 'NONE',  ( -15.89999999999999700, 0.0000000000000000000, 0.0000000000000000000 ) ) ;
#149 = DIRECTION ( 'NONE',  ( -1.000000000000000000, 0.0000000000000000000, 0.0000000000000000000 ) ) ;
#150 = DIRECTION ( 'NONE',  ( 0.0000000000000000000, 0.0000000000000000000, 1.000000000000000000 ) ) ;
#151 = CARTESIAN_POINT ( 'NONE',  ( 0.0000000000000000000, 0.0000000000000000000, 5.000000000000000000 ) ) ;
#152 = DIRECTION ( 'NONE',  ( 1.000000000000000000, 0.0000000000000000000, 0.0000000000000000000 ) ) ;
#153 = DIRECTION ( 'NONE',  ( -1.000000000000000000, 0.0000000000000000000, 0.0000000000000000000 ) ) ;
#154 = VERTEX_POINT ( 'NONE', #86 ) ;
#155 = DIRECTION ( 'NONE',  ( 0.0000000000000000000, 0.0000000000000000000, 1.000000000000000000 ) ) ;
#156 = DIRECTION ( 'NONE',  ( 1.000000000000000000, 0.0000000000000000000, 0.0000000000000000000 ) ) ;
#157 = CARTESIAN_POINT ( 'NONE',  ( 0.0000000000000000000, 0.0000000000000000000, 5.000000000000000000 ) ) ;
#158 = DIRECTION ( 'NONE',  ( 1.000000000000000000, 0.0000000000000000000, -0.0000000000000000000 ) ) ;
#159 = CARTESIAN_POINT ( 'NONE',  ( 0.0000000000000000000, 0.0000000000000000000, 0.0000000000000000000 ) ) ;
#160 = CARTESIAN_POINT ( 'NONE',  ( -127.0000000000000000, 0.0000000000000000000, 5.000000000000000000 ) ) ;
#161 = DIRECTION ( 'NONE',  ( -0.0000000000000000000, -0.0000000000000000000, -1.000000000000000000 ) ) ;
#162 = AXIS2_PLACEMENT_3D ( 'NONE', #83, #76, #153 ) ;
#163 = AXIS2_PLACEMENT_3D ( 'NONE', #103, #97, #104 ) ;
#164 = AXIS2_PLACEMENT_3D ( 'NONE', #87, #150, #158 ) ;
#165 = AXIS2_PLACEMENT_3D ( 'NONE', #143, #133, #156 ) ;
#166 = AXIS2_PLACEMENT_3D ( 'NONE', #136, #155, #146 ) ;
#167 = AXIS2_PLACEMENT_3D ( 'NONE', #145, #129, #152 ) ;
#168 = EDGE_CURVE ( 'NONE', #130, #69, #36, .T. ) ;
#169 = CC_DESIGN_PERSON_AND_ORGANIZATION_ASSIGNMENT ( #7, #120, ( #203 ) ) ;
#170 = AXIS2_PLACEMENT_3D ( 'NONE', #142, #93, #94 ) ;
#171 = EDGE_CURVE ( 'NONE', #80, #73, #32, .T. ) ;
#172 = PRODUCT_RELATED_PRODUCT_CATEGORY ( 'detail', '', ( #208 ) ) ;
#173 = EDGE_CURVE ( 'NONE', #80, #131, #37, .T. ) ;
#174 = EDGE_CURVE ( 'NONE', #69, #130, #39, .T. ) ;
#175 = EDGE_CURVE ( 'NONE', #131, #154, #11, .T. ) ;
#176 = EDGE_CURVE ( 'NONE', #75, #130, #56, .T. ) ;
#177 = EDGE_CURVE ( 'NONE', #85, #69, #54, .T. ) ;
#178 = EDGE_CURVE ( 'NONE', #73, #154, #27, .T. ) ;
#179 = EDGE_CURVE ( 'NONE', #154, #131, #34, .T. ) ;
#180 = EDGE_CURVE ( 'NONE', #85, #75, #33, .T. ) ;
#181 = AXIS2_PLACEMENT_3D ( 'NONE', #127, #72, #74 ) ;
#182 = AXIS2_PLACEMENT_3D ( 'NONE', #157, #70, #149 ) ;
#183 = APPROVAL ( #122, 'UNSPECIFIED' ) ;
#184 = AXIS2_PLACEMENT_3D ( 'NONE', #159, #90, #91 ) ;
#185 = CC_DESIGN_PERSON_AND_ORGANIZATION_ASSIGNMENT ( #47, #108, ( #208 ) ) ;
#186 = AXIS2_PLACEMENT_3D ( 'NONE', #135, #84, #139 ) ;
#187 = AXIS2_PLACEMENT_3D ( 'NONE', #92, #98, #99 ) ;
#188 = AXIS2_PLACEMENT_3D ( 'NONE', #81, #161, #71 ) ;
#189 = APPROVAL ( #115, 'UNSPECIFIED' ) ;
#190 = PRODUCT_DEFINITION ( 'UNKNOWN', '', #195, #65 ) ;
#191 = CC_DESIGN_APPROVAL ( #189, ( #195 ) ) ;
#192 = APPROVAL ( #111, 'UNSPECIFIED' ) ;
#193 = CC_DESIGN_APPROVAL ( #192, ( #190 ) ) ;
#194 = CC_DESIGN_PERSON_AND_ORGANIZATION_ASSIGNMENT ( #21, #113, ( #190 ) ) ;
#195 = PRODUCT_DEFINITION_FORMATION_WITH_SPECIFIED_SOURCE ( 'ANY', '', #208, .NOT_KNOWN. ) ;
#196 = CC_DESIGN_PERSON_AND_ORGANIZATION_ASSIGNMENT ( #10, #117, ( #195 ) ) ;
#197 = CC_DESIGN_PERSON_AND_ORGANIZATION_ASSIGNMENT ( #8, #118, ( #195 ) ) ;
#198 = AXIS2_PLACEMENT_3D ( 'NONE', #151, #78, #77 ) ;
#199 = CC_DESIGN_DATE_AND_TIME_ASSIGNMENT ( #3, #121, ( #203 ) ) ;
#200 = CC_DESIGN_APPROVAL ( #183, ( #203 ) ) ;
#201 = EDGE_CURVE ( 'NONE', #73, #80, #29, .T. ) ;
#202 = EDGE_CURVE ( 'NONE', #75, #85, #42, .T. ) ;
#203 = SECURITY_CLASSIFICATION ( '', '', #119 ) ;
#204 = CC_DESIGN_SECURITY_CLASSIFICATION ( #203, ( #195 ) ) ;
#205 = AXIS2_PLACEMENT_3D ( 'NONE', #88, #95, #96 ) ;
#206 = CC_DESIGN_DATE_AND_TIME_ASSIGNMENT ( #18, #114, ( #190 ) ) ;
#207 = PERSON ( 'UNSPECIFIED', 'UNSPECIFIED', 'UNSPECIFIED', ('UNSPECIFIED'), ('UNSPECIFIED'), ('UNSPECIFIED') ) ;
#208 = PRODUCT ( 'Blade', 'Blade', '', ( #107 ) ) ;
#209 = ORIENTED_EDGE ( 'NONE', *, *, #175, .F. ) ;
#210 = ORIENTED_EDGE ( 'NONE', *, *, #168, .F. ) ;
#211 = ORIENTED_EDGE ( 'NONE', *, *, #171, .F. ) ;
#212 = ORIENTED_EDGE ( 'NONE', *, *, #179, .T. ) ;
#213 = CYLINDRICAL_SURFACE ( 'NONE', #162, 15.89999999999999700 ) ;
#214 = EDGE_LOOP ( 'NONE', ( #248, #224, #225, #230 ) ) ;
#215 = ORIENTED_EDGE ( 'NONE', *, *, #173, .F. ) ;
#216 = ORIENTED_EDGE ( 'NONE', *, *, #173, .T. ) ;
#217 = EDGE_LOOP ( 'NONE', ( #246, #219 ) ) ;
#218 = ORIENTED_EDGE ( 'NONE', *, *, #178, .F. ) ;
#219 = ORIENTED_EDGE ( 'NONE', *, *, #171, .T. ) ;
#220 = ORIENTED_EDGE ( 'NONE', *, *, #177, .T. ) ;
#221 = ORIENTED_EDGE ( 'NONE', *, *, #174, .T. ) ;
#222 = ORIENTED_EDGE ( 'NONE', *, *, #178, .T. ) ;
#223 = ORIENTED_EDGE ( 'NONE', *, *, #176, .F. ) ;
#224 = ORIENTED_EDGE ( 'NONE', *, *, #176, .T. ) ;
#225 = ORIENTED_EDGE ( 'NONE', *, *, #174, .F. ) ;
#226 = EDGE_LOOP ( 'NONE', ( #242, #232 ) ) ;
#227 = ORIENTED_EDGE ( 'NONE', *, *, #202, .T. ) ;
#228 = FACE_OUTER_BOUND ( 'NONE', #237, .T. ) ;
#229 = CLOSED_SHELL ( 'NONE', ( #59, #60, #58, #61, #62, #63 ) ) ;
#230 = ORIENTED_EDGE ( 'NONE', *, *, #177, .F. ) ;
#231 = CYLINDRICAL_SURFACE ( 'NONE', #182, 127.0000000000000000 ) ;
#232 = ORIENTED_EDGE ( 'NONE', *, *, #202, .F. ) ;
#233 = FACE_OUTER_BOUND ( 'NONE', #217, .T. ) ;
#234 = FACE_OUTER_BOUND ( 'NONE', #214, .T. ) ;
#235 = FACE_BOUND ( 'NONE', #226, .T. ) ;
#236 = EDGE_LOOP ( 'NONE', ( #223, #227, #220, #210 ) ) ;
#237 = EDGE_LOOP ( 'NONE', ( #243, #209 ) ) ;
#238 = FACE_OUTER_BOUND ( 'NONE', #240, .T. ) ;
#239 = ORIENTED_EDGE ( 'NONE', *, *, #168, .T. ) ;
#240 = EDGE_LOOP ( 'NONE', ( #211, #216, #244, #218 ) ) ;
#241 = CYLINDRICAL_SURFACE ( 'NONE', #188, 127.0000000000000000 ) ;
#242 = ORIENTED_EDGE ( 'NONE', *, *, #180, .F. ) ;
#243 = ORIENTED_EDGE ( 'NONE', *, *, #179, .F. ) ;
#244 = ORIENTED_EDGE ( 'NONE', *, *, #175, .T. ) ;
#245 = ORIENTED_EDGE ( 'NONE', *, *, #201, .F. ) ;
#246 = ORIENTED_EDGE ( 'NONE', *, *, #201, .T. ) ;
#247 = EDGE_LOOP ( 'NONE', ( #215, #245, #222, #212 ) ) ;
#248 = ORIENTED_EDGE ( 'NONE', *, *, #180, .T. ) ;
#249 = EDGE_LOOP ( 'NONE', ( #221, #239 ) ) ;
ENDSEC;
END-ISO-10303-21;
