  0
SECTION
  2
HEADER
  9
$ACADVER
  1
AC1009
  9
$INSBASE
 10
0.0
 20
0.0
 30
0.0
  9
$EXTMIN
 10
0.0
 20
0.0
 30
0.0
  9
$EXTMAX
 10
0.0
 20
0.0
 30
0.0
  0
ENDSEC
  0
SECTION
  2
TABLES
  0
TABLE
  2
VPORT
 70
0
  0
ENDTAB
  0
TABLE
  2
LTYPE
 70
1
  0
LTYPE
  2
CONTINUOUS
 70
0
  3
Solid line
 72
65
 73
0
 40
0.0
  0
ENDTAB
  0
TABLE
  2
LAYER
 70
1
  0
LAYER
  2
0
 70
64
 62
7
  6
continuous
  0
ENDTAB
  0
TABLE
  2
STYLE
 70
1
  0
STYLE
  2
STANDARD
 70
0
 40
0
 41
1.0
 50
0.0
 71
0
 42
1
 3
ARIAL.TTF
 4

  0
ENDTAB
  0
TABLE
  2
VIEW
 70
0
  0
ENDTAB
  0
ENDSEC
  0
SECTION
  2
BLOCKS
  0
BLOCK
  8
0
  2
PAD
 70
0
 10
0.0
 20
0.0
 30
0.0
  3
PAD
  0
LINE
  8
0
 62
0
 10
-281.81681
 20
101.6
 30
0.0
 11
-249.762772
 21
101.6
 31
0.0
  0
LINE
  8
0
 62
0
 10
-249.762772
 20
101.6
 30
0.0
 11
-249.762772
 21
88.9
 31
0.0
  0
LINE
  8
0
 62
0
 10
-249.762772
 20
88.9
 30
0.0
 11
-221.187772
 21
88.9
 31
0.0
  0
LINE
  8
0
 62
0
 10
-221.187772
 20
88.9
 30
0.0
 11
-221.187772
 21
101.6
 31
0.0
  0
LINE
  8
0
 62
0
 10
-221.187772
 20
101.6
 30
0.0
 11
221.187772
 21
101.6
 31
0.0
  0
LINE
  8
0
 62
0
 10
221.187772
 20
101.6
 30
0.0
 11
221.187772
 21
88.9
 31
0.0
  0
LINE
  8
0
 62
0
 10
221.187772
 20
88.9
 30
0.0
 11
249.762772
 21
88.9
 31
0.0
  0
LINE
  8
0
 62
0
 10
249.762772
 20
88.9
 30
0.0
 11
249.762772
 21
101.6
 31
0.0
  0
LINE
  8
0
 62
0
 10
249.762772
 20
101.6
 30
0.0
 11
281.81681
 21
101.6
 31
0.0
  0
LINE
  8
0
 62
0
 10
281.81681
 20
101.6
 30
0.0
 11
281.81681
 21
-101.6
 31
0.0
  0
LINE
  8
0
 62
0
 10
281.81681
 20
-101.6
 30
0.0
 11
-281.81681
 21
-101.6
 31
0.0
  0
LINE
  8
0
 62
0
 10
-281.81681
 20
-101.6
 30
0.0
 11
-281.81681
 21
101.6
 31
0.0
  0
ARC
  8
0
 62
0
 10
1.7763568394e-15
 20
25.4
 30
0.0
 40
33.02
 50
-180.0
 51
0.0
  0
LINE
  8
0
 62
0
 10
33.02
 20
25.4
 30
0.0
 11
33.02
 21
55.88
 31
0.0
  0
ARC
  8
0
 62
0
 10
5.3290705182e-15
 20
55.88
 30
0.0
 40
33.02
 50
-0.0
 51
-180.0
  0
LINE
  8
0
 62
0
 10
-33.02
 20
25.4
 30
0.0
 11
-33.02
 21
55.88
 31
0.0
  0
CIRCLE
  8
0
 62
0
 10
215.9
 20
50.8
 30
0.0
 40
9.525
  0
CIRCLE
  8
0
 62
0
 10
215.9
 20
-50.8
 30
0.0
 40
9.525
  0
CIRCLE
  8
0
 62
0
 10
-215.9
 20
-50.8
 30
0.0
 40
9.525
  0
CIRCLE
  8
0
 62
0
 10
-215.9
 20
50.8
 30
0.0
 40
9.525
  0
ENDBLK
  0
ENDSEC
  0
SECTION
  2
ENTITIES
  0
INSERT
  2
PAD
  8
0
 62
0
 10
0.0
 20
0.0
 30
0.0
  0
ENDSEC
  0
EOF
