ISO-10303-21;
HEADER;
FILE_DESCRIPTION (( 'STEP AP203' ),
    '1' );
FILE_NAME ('Shaft.STEP',
    '2012-05-21T19:31:53',
    ( '' ),
    ( '' ),
    'SwSTEP 2.0',
    'SolidWorks 2010',
    '' );
FILE_SCHEMA (( 'CONFIG_CONTROL_DESIGN' ));
ENDSEC;

DATA;
#1 = ADVANCED_FACE ( 'NONE', ( #159 ), #20, .T. ) ;
#2 = ADVANCED_FACE ( 'NONE', ( #161 ), #48, .F. ) ;
#3 = ADVANCED_FACE ( 'NONE', ( #162 ), #156, .T. ) ;
#4 = ADVANCED_FACE ( 'NONE', ( #160 ), #157, .T. ) ;
#5 = PRODUCT ( 'Shaft', 'Shaft', '', ( #59 ) ) ;
#6 = PERSON ( 'UNSPECIFIED', 'UNSPECIFIED', 'UNSPECIFIED', ('UNSPECIFIED'), ('UNSPECIFIED'), ('UNSPECIFIED') ) ;
#7 = PRODUCT_DEFINITION_SHAPE ( 'NONE', 'NONE',  #84 ) ;
#8 = DESIGN_CONTEXT ( 'detailed design', #61, 'design' ) ;
#9 = PERSON_AND_ORGANIZATION_ROLE ( 'creator' ) ;
#10 = APPROVAL_STATUS ( 'not_yet_approved' ) ;
#11 = APPROVAL_ROLE ( '' ) ;
#12 = SECURITY_CLASSIFICATION_LEVEL ( 'unclassified' ) ;
#13 =( NAMED_UNIT ( * ) SI_UNIT ( $, .STERADIAN. ) SOLID_ANGLE_UNIT ( ) );
#14 =( NAMED_UNIT ( * ) PLANE_ANGLE_UNIT ( ) SI_UNIT ( $, .RADIAN. ) );
#15 = DIRECTION ( 'NONE',  ( 0.0000000000000000000, 0.0000000000000000000, 1.000000000000000000 ) ) ;
#16 = DIRECTION ( 'NONE',  ( 1.000000000000000000, 0.0000000000000000000, 0.0000000000000000000 ) ) ;
#17 = DIRECTION ( 'NONE',  ( 0.0000000000000000000, 0.0000000000000000000, 1.000000000000000000 ) ) ;
#18 = DIRECTION ( 'NONE',  ( -0.0000000000000000000, -0.0000000000000000000, -1.000000000000000000 ) ) ;
#19 = CARTESIAN_POINT ( 'NONE',  ( 0.0000000000000000000, 0.0000000000000000000, 0.0000000000000000000 ) ) ;
#20 = PLANE ( 'NONE',  #90 ) ;
#21 = DIRECTION ( 'NONE',  ( -0.0000000000000000000, -0.0000000000000000000, -1.000000000000000000 ) ) ;
#22 = CARTESIAN_POINT ( 'NONE',  ( 6.000000000000002700, 7.347880794884122700E-016, 200.0000000000000000 ) ) ;
#23 =( LENGTH_UNIT ( ) NAMED_UNIT ( * ) SI_UNIT ( .MILLI., .METRE. ) );
#24 = DIRECTION ( 'NONE',  ( 1.000000000000000000, 0.0000000000000000000, 0.0000000000000000000 ) ) ;
#25 = DIRECTION ( 'NONE',  ( 0.0000000000000000000, 0.0000000000000000000, 1.000000000000000000 ) ) ;
#26 = CARTESIAN_POINT ( 'NONE',  ( 0.0000000000000000000, 0.0000000000000000000, 200.0000000000000000 ) ) ;
#27 = DIRECTION ( 'NONE',  ( 1.000000000000000000, 0.0000000000000000000, 0.0000000000000000000 ) ) ;
#28 = DIRECTION ( 'NONE',  ( 0.0000000000000000000, 0.0000000000000000000, 1.000000000000000000 ) ) ;
#29 = CARTESIAN_POINT ( 'NONE',  ( 0.0000000000000000000, 0.0000000000000000000, 200.0000000000000000 ) ) ;
#30 = DIRECTION ( 'NONE',  ( 1.000000000000000000, 0.0000000000000000000, 0.0000000000000000000 ) ) ;
#31 = DIRECTION ( 'NONE',  ( 0.0000000000000000000, 0.0000000000000000000, 1.000000000000000000 ) ) ;
#32 = CARTESIAN_POINT ( 'NONE',  ( 0.0000000000000000000, 0.0000000000000000000, 0.0000000000000000000 ) ) ;
#33 = CARTESIAN_POINT ( 'NONE',  ( -6.000000000000002700, 0.0000000000000000000, 200.0000000000000000 ) ) ;
#34 = CARTESIAN_POINT ( 'NONE',  ( -6.000000000000002700, 0.0000000000000000000, 200.0000000000000000 ) ) ;
#35 = CARTESIAN_POINT ( 'NONE',  ( 6.000000000000002700, 7.347880794884122700E-016, 0.0000000000000000000 ) ) ;
#36 = CARTESIAN_POINT ( 'NONE',  ( 6.000000000000002700, 7.347880794884122700E-016, 200.0000000000000000 ) ) ;
#37 = CARTESIAN_POINT ( 'NONE',  ( 0.0000000000000000000, 0.0000000000000000000, 200.0000000000000000 ) ) ;
#38 = DIRECTION ( 'NONE',  ( -1.000000000000000000, 0.0000000000000000000, 0.0000000000000000000 ) ) ;
#39 = DIRECTION ( 'NONE',  ( 0.0000000000000000000, 0.0000000000000000000, 1.000000000000000000 ) ) ;
#40 = DIRECTION ( 'NONE',  ( -0.0000000000000000000, -0.0000000000000000000, -1.000000000000000000 ) ) ;
#41 = DIRECTION ( 'NONE',  ( -0.0000000000000000000, -0.0000000000000000000, -1.000000000000000000 ) ) ;
#42 = VERTEX_POINT ( 'NONE', #54 ) ;
#43 = DIRECTION ( 'NONE',  ( 1.000000000000000000, 0.0000000000000000000, -0.0000000000000000000 ) ) ;
#44 = CARTESIAN_POINT ( 'NONE',  ( 0.0000000000000000000, 0.0000000000000000000, 200.0000000000000000 ) ) ;
#45 = VERTEX_POINT ( 'NONE', #36 ) ;
#46 = APPROVAL_ROLE ( '' ) ;
#47 = CARTESIAN_POINT ( 'NONE',  ( 0.0000000000000000000, 0.0000000000000000000, 0.0000000000000000000 ) ) ;
#48 = PLANE ( 'NONE',  #89 ) ;
#49 = DIRECTION ( 'NONE',  ( -1.000000000000000000, 0.0000000000000000000, 0.0000000000000000000 ) ) ;
#50 = DIRECTION ( 'NONE',  ( 0.0000000000000000000, 0.0000000000000000000, 1.000000000000000000 ) ) ;
#51 = VERTEX_POINT ( 'NONE', #35 ) ;
#52 = VERTEX_POINT ( 'NONE', #34 ) ;
#53 = DIRECTION ( 'NONE',  ( 1.000000000000000000, 0.0000000000000000000, -0.0000000000000000000 ) ) ;
#54 = CARTESIAN_POINT ( 'NONE',  ( -6.000000000000002700, 0.0000000000000000000, 0.0000000000000000000 ) ) ;
#55 = CARTESIAN_POINT ( 'NONE',  ( 0.0000000000000000000, 0.0000000000000000000, 0.0000000000000000000 ) ) ;
#56 = DIRECTION ( 'NONE',  ( 1.000000000000000000, 0.0000000000000000000, 0.0000000000000000000 ) ) ;
#57 = APPLICATION_CONTEXT ( 'configuration controlled 3d designs of mechanical parts and assemblies' ) ;
#58 = APPLICATION_PROTOCOL_DEFINITION ( 'international standard', 'config_control_design', 1994, #57 ) ;
#59 = MECHANICAL_CONTEXT ( 'NONE', #57, 'mechanical' ) ;
#60 = PERSON_AND_ORGANIZATION_ROLE ( 'design_owner' ) ;
#61 = APPLICATION_CONTEXT ( 'configuration controlled 3d designs of mechanical parts and assemblies' ) ;
#62 = APPLICATION_PROTOCOL_DEFINITION ( 'international standard', 'config_control_design', 1994, #61 ) ;
#63 = APPROVAL_STATUS ( 'not_yet_approved' ) ;
#64 = PERSON_AND_ORGANIZATION_ROLE ( 'classification_officer' ) ;
#65 = PERSON_AND_ORGANIZATION_ROLE ( 'creator' ) ;
#66 = DATE_TIME_ROLE ( 'creation_date' ) ;
#67 = PERSON_AND_ORGANIZATION_ROLE ( 'design_supplier' ) ;
#68 = CARTESIAN_POINT ( 'NONE',  ( 0.0000000000000000000, 0.0000000000000000000, 200.0000000000000000 ) ) ;
#69 = APPROVAL_ROLE ( '' ) ;
#70 = DATE_TIME_ROLE ( 'classification_date' ) ;
#71 = APPROVAL_STATUS ( 'not_yet_approved' ) ;
#72 = CC_DESIGN_DATE_AND_TIME_ASSIGNMENT ( #144, #70, ( #74 ) ) ;
#73 = CC_DESIGN_PERSON_AND_ORGANIZATION_ASSIGNMENT ( #129, #64, ( #74 ) ) ;
#74 = SECURITY_CLASSIFICATION ( '', '', #12 ) ;
#75 = CC_DESIGN_PERSON_AND_ORGANIZATION_ASSIGNMENT ( #105, #67, ( #79 ) ) ;
#76 = CC_DESIGN_PERSON_AND_ORGANIZATION_ASSIGNMENT ( #106, #9, ( #79 ) ) ;
#77 = CC_DESIGN_APPROVAL ( #78, ( #79 ) ) ;
#78 = APPROVAL ( #10, 'UNSPECIFIED' ) ;
#79 = PRODUCT_DEFINITION_FORMATION_WITH_SPECIFIED_SOURCE ( 'ANY', '', #5, .NOT_KNOWN. ) ;
#80 = CC_DESIGN_DATE_AND_TIME_ASSIGNMENT ( #116, #66, ( #84 ) ) ;
#81 = CC_DESIGN_PERSON_AND_ORGANIZATION_ASSIGNMENT ( #120, #65, ( #84 ) ) ;
#82 = CC_DESIGN_APPROVAL ( #83, ( #84 ) ) ;
#83 = APPROVAL ( #63, 'UNSPECIFIED' ) ;
#84 = PRODUCT_DEFINITION ( 'UNKNOWN', '', #79, #8 ) ;
#85 = CC_DESIGN_PERSON_AND_ORGANIZATION_ASSIGNMENT ( #133, #60, ( #5 ) ) ;
#86 = AXIS2_PLACEMENT_3D ( 'NONE', #26, #25, #24 ) ;
#87 = AXIS2_PLACEMENT_3D ( 'NONE', #37, #40, #38 ) ;
#88 = AXIS2_PLACEMENT_3D ( 'NONE', #44, #41, #49 ) ;
#89 = AXIS2_PLACEMENT_3D ( 'NONE', #47, #39, #53 ) ;
#90 = AXIS2_PLACEMENT_3D ( 'NONE', #68, #50, #43 ) ;
#91 = EDGE_CURVE ( 'NONE', #42, #51, #154, .T. ) ;
#92 = EDGE_CURVE ( 'NONE', #45, #52, #153, .T. ) ;
#93 = EDGE_CURVE ( 'NONE', #52, #45, #151, .T. ) ;
#94 = EDGE_CURVE ( 'NONE', #45, #51, #158, .T. ) ;
#95 = EDGE_CURVE ( 'NONE', #52, #42, #152, .T. ) ;
#96 = AXIS2_PLACEMENT_3D ( 'NONE', #55, #15, #56 ) ;
#97 = AXIS2_PLACEMENT_3D ( 'NONE', #29, #28, #27 ) ;
#98 = AXIS2_PLACEMENT_3D ( 'NONE', #32, #31, #30 ) ;
#99 = CC_DESIGN_APPROVAL ( #103, ( #74 ) ) ;
#100 = CC_DESIGN_SECURITY_CLASSIFICATION ( #74, ( #79 ) ) ;
#101 = PRODUCT_RELATED_PRODUCT_CATEGORY ( 'detail', '', ( #5 ) ) ;
#102 = AXIS2_PLACEMENT_3D ( 'NONE', #19, #17, #16 ) ;
#103 = APPROVAL ( #71, 'UNSPECIFIED' ) ;
#104 = EDGE_CURVE ( 'NONE', #51, #42, #149, .T. ) ;
#105 = PERSON_AND_ORGANIZATION ( #6, #134 ) ;
#106 = PERSON_AND_ORGANIZATION ( #6, #134 ) ;
#107 = APPROVAL_DATE_TIME ( #108, #78 ) ;
#108 = DATE_AND_TIME ( #111, #112 ) ;
#109 = ORIENTED_EDGE ( 'NONE', *, *, #95, .F. ) ;
#110 = ORIENTED_EDGE ( 'NONE', *, *, #92, .T. ) ;
#111 = CALENDAR_DATE ( 2012, 21, 5 ) ;
#112 = LOCAL_TIME ( 14, 31, 53.00000000000000000, #113 ) ;
#113 = COORDINATED_UNIVERSAL_TIME_OFFSET ( 6, 0, .BEHIND. ) ;
#114 = APPROVAL_PERSON_ORGANIZATION ( #115, #78, #46 ) ;
#115 = PERSON_AND_ORGANIZATION ( #6, #134 ) ;
#116 = DATE_AND_TIME ( #117, #118 ) ;
#117 = CALENDAR_DATE ( 2012, 21, 5 ) ;
#118 = LOCAL_TIME ( 14, 31, 53.00000000000000000, #119 ) ;
#119 = COORDINATED_UNIVERSAL_TIME_OFFSET ( 6, 0, .BEHIND. ) ;
#120 = PERSON_AND_ORGANIZATION ( #6, #134 ) ;
#121 = APPROVAL_DATE_TIME ( #123, #83 ) ;
#122 = ORIENTED_EDGE ( 'NONE', *, *, #91, .F. ) ;
#123 = DATE_AND_TIME ( #124, #125 ) ;
#124 = CALENDAR_DATE ( 2012, 21, 5 ) ;
#125 = LOCAL_TIME ( 14, 31, 53.00000000000000000, #126 ) ;
#126 = COORDINATED_UNIVERSAL_TIME_OFFSET ( 6, 0, .BEHIND. ) ;
#127 = ORIENTED_EDGE ( 'NONE', *, *, #93, .F. ) ;
#128 = ORIENTED_EDGE ( 'NONE', *, *, #93, .T. ) ;
#129 = PERSON_AND_ORGANIZATION ( #6, #134 ) ;
#130 = CALENDAR_DATE ( 2012, 21, 5 ) ;
#131 = APPROVAL_PERSON_ORGANIZATION ( #132, #83, #11 ) ;
#132 = PERSON_AND_ORGANIZATION ( #6, #134 ) ;
#133 = PERSON_AND_ORGANIZATION ( #6, #134 ) ;
#134 = ORGANIZATION ( 'UNSPECIFIED', 'UNSPECIFIED', '' ) ;
#135 = ORIENTED_EDGE ( 'NONE', *, *, #104, .T. ) ;
#136 = SHAPE_DEFINITION_REPRESENTATION ( #7, #173 ) ;
#137 = PERSON_AND_ORGANIZATION ( #6, #134 ) ;
#138 =( GEOMETRIC_REPRESENTATION_CONTEXT ( 3 ) GLOBAL_UNCERTAINTY_ASSIGNED_CONTEXT ( ( #175 ) ) GLOBAL_UNIT_ASSIGNED_CONTEXT ( ( #23, #14, #13 ) ) REPRESENTATION_CONTEXT ( 'NONE', 'WORKASPACE' ) );
#139 = ORIENTED_EDGE ( 'NONE', *, *, #94, .T. ) ;
#140 = ORIENTED_EDGE ( 'NONE', *, *, #104, .F. ) ;
#141 = CLOSED_SHELL ( 'NONE', ( #4, #3, #1, #2 ) ) ;
#142 = COORDINATED_UNIVERSAL_TIME_OFFSET ( 6, 0, .BEHIND. ) ;
#143 = LOCAL_TIME ( 14, 31, 53.00000000000000000, #142 ) ;
#144 = DATE_AND_TIME ( #145, #143 ) ;
#145 = CALENDAR_DATE ( 2012, 21, 5 ) ;
#146 = COORDINATED_UNIVERSAL_TIME_OFFSET ( 6, 0, .BEHIND. ) ;
#147 = LOCAL_TIME ( 14, 31, 53.00000000000000000, #146 ) ;
#148 = APPROVAL_PERSON_ORGANIZATION ( #137, #103, #69 ) ;
#149 = CIRCLE ( 'NONE', #102, 6.000000000000002700 ) ;
#150 = VECTOR ( 'NONE', #18, 1000.000000000000000 ) ;
#151 = CIRCLE ( 'NONE', #86, 6.000000000000002700 ) ;
#152 = LINE ( 'NONE', #33, #150 ) ;
#153 = CIRCLE ( 'NONE', #97, 6.000000000000002700 ) ;
#154 = CIRCLE ( 'NONE', #98, 6.000000000000002700 ) ;
#155 = VECTOR ( 'NONE', #21, 1000.000000000000000 ) ;
#156 = CYLINDRICAL_SURFACE ( 'NONE', #88, 6.000000000000002700 ) ;
#157 = CYLINDRICAL_SURFACE ( 'NONE', #87, 6.000000000000002700 ) ;
#158 = LINE ( 'NONE', #22, #155 ) ;
#159 = FACE_OUTER_BOUND ( 'NONE', #168, .T. ) ;
#160 = FACE_OUTER_BOUND ( 'NONE', #167, .T. ) ;
#161 = FACE_OUTER_BOUND ( 'NONE', #163, .T. ) ;
#162 = FACE_OUTER_BOUND ( 'NONE', #166, .T. ) ;
#163 = EDGE_LOOP ( 'NONE', ( #122, #140 ) ) ;
#164 = DATE_AND_TIME ( #130, #147 ) ;
#165 = APPROVAL_DATE_TIME ( #164, #103 ) ;
#166 = EDGE_LOOP ( 'NONE', ( #172, #127, #169, #170 ) ) ;
#167 = EDGE_LOOP ( 'NONE', ( #171, #139, #135, #109 ) ) ;
#168 = EDGE_LOOP ( 'NONE', ( #128, #110 ) ) ;
#169 = ORIENTED_EDGE ( 'NONE', *, *, #95, .T. ) ;
#170 = ORIENTED_EDGE ( 'NONE', *, *, #91, .T. ) ;
#171 = ORIENTED_EDGE ( 'NONE', *, *, #92, .F. ) ;
#172 = ORIENTED_EDGE ( 'NONE', *, *, #94, .F. ) ;
#173 = ADVANCED_BREP_SHAPE_REPRESENTATION ( 'Shaft', ( #174, #96 ), #138 ) ;
#174 = MANIFOLD_SOLID_BREP ( 'Boss-Extrude1', #141 ) ;
#175 = UNCERTAINTY_MEASURE_WITH_UNIT (LENGTH_MEASURE( 1.000000000000000100E-005 ), #23, 'distance_accuracy_value', 'NONE');
ENDSEC;
END-ISO-10303-21;
