  0
SECTION
  2
HEADER
  9
$ACADVER
  1
AC1009
  9
$INSBASE
 10
0.0
 20
0.0
 30
0.0
  9
$EXTMIN
 10
0.0
 20
0.0
 30
0.0
  9
$EXTMAX
 10
0.0
 20
0.0
 30
0.0
  0
ENDSEC
  0
SECTION
  2
TABLES
  0
TABLE
  2
VPORT
 70
0
  0
ENDTAB
  0
TABLE
  2
LTYPE
 70
1
  0
LTYPE
  2
CONTINUOUS
 70
0
  3
Solid line
 72
65
 73
0
 40
0.0
  0
ENDTAB
  0
TABLE
  2
LAYER
 70
1
  0
LAYER
  2
0
 70
64
 62
7
  6
continuous
  0
ENDTAB
  0
TABLE
  2
STYLE
 70
1
  0
STYLE
  2
STANDARD
 70
0
 40
0
 41
1.0
 50
0.0
 71
0
 42
1
 3
ARIAL.TTF
 4

  0
ENDTAB
  0
TABLE
  2
VIEW
 70
0
  0
ENDTAB
  0
ENDSEC
  0
SECTION
  2
BLOCKS
  0
BLOCK
  8
0
  2
PAD
 70
0
 10
0.0
 20
0.0
 30
0.0
  3
PAD
  0
LINE
  8
0
 62
0
 10
247.121614395
 20
-85.4938683695
 30
0.0
 11
247.255552664
 21
-174.393767473
 31
0.0
  0
LINE
  8
0
 62
0
 10
247.255552664
 20
-174.393767473
 30
0.0
 11
-114.694036541
 21
-174.939087569
 31
0.0
  0
LINE
  8
0
 62
0
 10
-114.694036541
 20
-174.939087569
 30
0.0
 11
-114.827974811
 21
-86.0391884655
 31
0.0
  0
LINE
  8
0
 62
0
 10
-114.827974811
 20
-86.0391884655
 30
0.0
 11
-89.4280036383
 21
-86.0009203886
 31
0.0
  0
LINE
  8
0
 62
0
 10
-89.4280036383
 20
-86.0009203886
 30
0.0
 11
-89.4040860903
 21
-101.875902371
 31
0.0
  0
LINE
  8
0
 62
0
 10
-89.4040860903
 20
-101.875902371
 30
0.0
 11
-86.2290896937
 21
-101.871118862
 31
0.0
  0
LINE
  8
0
 62
0
 10
-86.2290896937
 20
-101.871118862
 30
0.0
 11
-86.2338732033
 21
-98.6961224652
 31
0.0
  0
LINE
  8
0
 62
0
 10
-86.2338732033
 20
-98.6961224652
 30
0.0
 11
218.565780864
 21
-98.2369055422
 31
0.0
  0
LINE
  8
0
 62
0
 10
218.565780864
 20
-98.2369055422
 30
0.0
 11
218.570564374
 21
-101.411901939
 31
0.0
  0
LINE
  8
0
 62
0
 10
218.570564374
 20
-101.411901939
 30
0.0
 11
221.745560771
 21
-101.407118429
 31
0.0
  0
LINE
  8
0
 62
0
 10
221.745560771
 20
-101.407118429
 30
0.0
 11
221.721643223
 21
-85.5321364464
 31
0.0
  0
LINE
  8
0
 62
0
 10
247.121614395
 20
-85.4938683695
 30
0.0
 11
221.721643223
 21
-85.5321364464
 31
0.0
  0
ENDBLK
  0
ENDSEC
  0
SECTION
  2
ENTITIES
  0
INSERT
  2
PAD
  8
0
 62
0
 10
0.0
 20
0.0
 30
0.0
  0
ENDSEC
  0
EOF
