 0
SECTION
 2
ENTITIES
  0
POLYLINE
 8
Layer0
 66
     1
70
    8
 10
0.0
 20
 0.0
 30
0.0
  0
VERTEX
  8
MY3DLAYER
10
5.78124999999999
20
42.7500000000193
30
-6.35759999999999
 70
     32
  0
VERTEX
  8
MY3DLAYER
10
1.78124999999999
20
42.7500000000193
30
-6.35759999999999
 70
     32
  0
VERTEX
  8
MY3DLAYER
10
1.78124999999999
20
-4.74999999994792
30
-6.35759999999999
 70
     32
  0
VERTEX
  8
MY3DLAYER
10
5.78124999999999
20
-4.74999999994792
30
-6.3576
 70
     32
  0
VERTEX
  8
MY3DLAYER
10
5.78124999999999
20
42.7500000000193
30
-6.35759999999999
 70
     32
  0
SEQEND
  0
POLYLINE
 8
Layer0
 66
     1
70
    8
 10
0.0
 20
 0.0
 30
0.0
  0
VERTEX
  8
MY3DLAYER
10
2.735863908207
20
33.1332962913703
30
-6.35759999999999
 70
     32
  0
VERTEX
  8
MY3DLAYER
10
2.74792295595171
20
33.1283012702447
30
-6.35759999999999
 70
     32
  0
VERTEX
  8
MY3DLAYER
10
2.75827829501078
20
33.1203553391145
30
-6.35759999999999
 70
     32
  0
VERTEX
  8
MY3DLAYER
10
2.76622422614033
20
33.1100000000549
30
-6.35759999999999
 70
     32
  0
VERTEX
  8
MY3DLAYER
10
2.77121924726517
20
33.0979409523099
30
-6.35759999999999
 70
     32
  0
VERTEX
  8
MY3DLAYER
10
2.77292295595029
20
33.0850000000547
30
-6.35759999999999
 70
     32
  0
VERTEX
  8
MY3DLAYER
10
2.77121924726431
20
33.0720590477996
30
-6.35759999999999
 70
     32
  0
VERTEX
  8
MY3DLAYER
10
2.76622422613868
20
33.0600000000549
30
-6.35759999999999
 70
     32
  0
VERTEX
  8
MY3DLAYER
10
3.12129464168584
20
32.8550000000399
30
-6.35759999999999
 70
     32
  0
VERTEX
  8
MY3DLAYER
10
3.12924057281615
20
32.8653553390989
30
-6.35759999999999
 70
     32
  0
VERTEX
  8
MY3DLAYER
10
3.13959591187582
20
32.8733012702283
30
-6.35759999999999
 70
     32
  0
VERTEX
  8
MY3DLAYER
10
3.1516549596209
20
32.8782962913531
30
-6.35759999999999
 70
     32
  0
VERTEX
  8
MY3DLAYER
10
3.16459591187609
20
32.8800000000381
30
-6.35759999999999
 70
     32
  0
VERTEX
  8
MY3DLAYER
10
3.17753686413115
20
32.878296291352
30
-6.35759999999999
 70
     32
  0
VERTEX
  8
MY3DLAYER
10
3.18959591187582
20
32.8733012702263
30
-6.35759999999999
 70
     32
  0
VERTEX
  8
MY3DLAYER
10
3.19995125093481
20
32.865355339096
30
-6.35759999999999
 70
     32
  0
VERTEX
  8
MY3DLAYER
10
3.20789718206429
20
32.8550000000363
30
-6.35759999999999
 70
     32
  0
VERTEX
  8
MY3DLAYER
10
3.21289220318902
20
32.8429409522912
30
-6.35759999999999
 70
     32
  0
VERTEX
  8
MY3DLAYER
10
3.21459591187404
20
32.830000000036
30
-6.35759999999999
 70
     32
  0
VERTEX
  8
MY3DLAYER
10
3.21289220318796
20
32.817059047781
30
-6.35759999999999
 70
     32
  0
VERTEX
  8
MY3DLAYER
10
3.20789718206222
20
32.8050000000363
30
-6.35759999999999
 70
     32
  0
VERTEX
  8
MY3DLAYER
10
3.19995125093191
20
32.7946446609773
30
-6.35759999999999
 70
     32
  0
VERTEX
  8
MY3DLAYER
10
3.18959591187225
20
32.7866987298478
30
-6.35759999999999
 70
     32
  0
VERTEX
  8
MY3DLAYER
10
3.17753686412717
20
32.7817037087231
30
-6.35759999999999
 70
     32
  0
VERTEX
  8
MY3DLAYER
10
3.16459591187198
20
32.7800000000381
30
-6.35759999999999
 70
     32
  0
VERTEX
  8
MY3DLAYER
10
3.1645959118635
20
32.3700000000563
30
-6.35759999999999
 70
     32
  0
VERTEX
  8
MY3DLAYER
10
3.17753686411863
20
32.3682962913708
30
-6.35759999999999
 70
     32
  0
VERTEX
  8
MY3DLAYER
10
3.18959591186351
20
32.3633012702455
30
-6.35759999999999
 70
     32
  0
VERTEX
  8
MY3DLAYER
10
3.19995125092284
20
32.3553553391157
30
-6.35759999999999
 70
     32
  0
VERTEX
  8
MY3DLAYER
10
3.20789718205273
20
32.3450000000563
30
-6.35759999999999
 70
     32
  0
VERTEX
  8
MY3DLAYER
10
3.21289220317796
20
32.3329409523114
30
-6.35759999999999
 70
     32
  0
VERTEX
  8
MY3DLAYER
10
3.21459591186351
20
32.3200000000563
30
-6.35759999999999
 70
     32
  0
VERTEX
  8
MY3DLAYER
10
3.21289220317796
20
32.3070590478012
30
-6.35759999999999
 70
     32
  0
VERTEX
  8
MY3DLAYER
10
3.20789718205273
20
32.2950000000563
30
-6.35759999999999
 70
     32
  0
VERTEX
  8
MY3DLAYER
10
3.19995125092284
20
32.284644660997
30
-6.35759999999999
 70
     32
  0
VERTEX
  8
MY3DLAYER
10
3.18959591186351
20
32.2766987298671
30
-6.35759999999999
 70
     32
  0
VERTEX
  8
MY3DLAYER
10
3.17753686411863
20
32.2717037087419
30
-6.35759999999999
 70
     32
  0
VERTEX
  8
MY3DLAYER
10
3.16459591186351
20
32.2700000000563
30
-6.35759999999999
 70
     32
  0
VERTEX
  8
MY3DLAYER
10
3.15165495960838
20
32.2717037087419
30
-6.35759999999999
 70
     32
  0
VERTEX
  8
MY3DLAYER
10
3.13959591186351
20
32.2766987298671
30
-6.35759999999999
 70
     32
  0
VERTEX
  8
MY3DLAYER
10
3.12924057280418
20
32.284644660997
30
-6.35759999999999
 70
     32
  0
VERTEX
  8
MY3DLAYER
10
3.12129464167428
20
32.2950000000563
30
-6.35759999999999
 70
     32
  0
VERTEX
  8
MY3DLAYER
10
2.76622422611866
20
32.090000000056
30
-6.35759999999999
 70
     32
  0
VERTEX
  8
MY3DLAYER
10
2.7712192472438
20
32.077940952311
30
-6.35759999999999
 70
     32
  0
VERTEX
  8
MY3DLAYER
10
2.77292295592924
20
32.0650000000559
30
-6.35759999999999
 70
     32
  0
VERTEX
  8
MY3DLAYER
10
2.77121924724358
20
32.0520590478008
30
-6.35759999999999
 70
     32
  0
VERTEX
  8
MY3DLAYER
10
2.76622422611825
20
32.040000000056
30
-6.35759999999999
 70
     32
  0
VERTEX
  8
MY3DLAYER
10
2.75827829498827
20
32.0296446609967
30
-6.35759999999999
 70
     32
  0
VERTEX
  8
MY3DLAYER
10
2.74792295592889
20
32.0216987298669
30
-6.35759999999999
 70
     32
  0
VERTEX
  8
MY3DLAYER
10
2.73586390818396
20
32.0167037087417
30
-6.35759999999999
 70
     32
  0
VERTEX
  8
MY3DLAYER
10
2.72292295592883
20
32.0150000000563
30
-6.3576
 70
     32
  0
VERTEX
  8
MY3DLAYER
10
2.70998200367371
20
32.016703708742
30
-6.3576
 70
     32
  0
VERTEX
  8
MY3DLAYER
10
2.69792295592887
20
32.0216987298673
30
-6.3576
 70
     32
  0
VERTEX
  8
MY3DLAYER
10
2.68756761686961
20
32.0296446609973
30
-6.3576
 70
     32
  0
VERTEX
  8
MY3DLAYER
10
2.6796216857398
20
32.0400000000567
30
-6.3576
 70
     32
  0
VERTEX
  8
MY3DLAYER
10
2.67462666461467
20
32.0520590478016
30
-6.3576
 70
     32
  0
VERTEX
  8
MY3DLAYER
10
2.67292295592922
20
32.0650000000567
30
-6.3576
 70
     32
  0
VERTEX
  8
MY3DLAYER
10
2.67462666461488
20
32.0779409523118
30
-6.3576
 70
     32
  0
VERTEX
  8
MY3DLAYER
10
2.67962168574022
20
32.0900000000567
30
-6.3576
 70
     32
  0
VERTEX
  8
MY3DLAYER
10
2.32455127018797
20
32.2950000000629
30
-6.3576
 70
     32
  0
VERTEX
  8
MY3DLAYER
10
2.31660533905791
20
32.2846446610037
30
-6.3576
 70
     32
  0
VERTEX
  8
MY3DLAYER
10
2.30624999999845
20
32.276698729874
30
-6.3576
 70
     32
  0
VERTEX
  8
MY3DLAYER
10
2.29419095225349
20
32.2717037087489
30
-6.3576
 70
     32
  0
VERTEX
  8
MY3DLAYER
10
2.28124999999834
20
32.2700000000636
30
-6.3576
 70
     32
  0
VERTEX
  8
MY3DLAYER
10
2.26830904774324
20
32.2717037087494
30
-6.3576
 70
     32
  0
VERTEX
  8
MY3DLAYER
10
2.25624999999845
20
32.2766987298748
30
-6.3576
 70
     32
  0
VERTEX
  8
MY3DLAYER
10
2.24589466093925
20
32.2846446610049
30
-6.3576
 70
     32
  0
VERTEX
  8
MY3DLAYER
10
2.23794872980953
20
32.2950000000643
30
-6.3576
 70
     32
  0
VERTEX
  8
MY3DLAYER
10
2.2329537086845
20
32.3070590478093
30
-6.3576
 70
     32
  0
VERTEX
  8
MY3DLAYER
10
2.23124999999916
20
32.3200000000644
30
-6.3576
 70
     32
  0
VERTEX
  8
MY3DLAYER
10
2.23295370868492
20
32.3329409523195
30
-6.3576
 70
     32
  0
VERTEX
  8
MY3DLAYER
10
2.23794872981036
20
32.3450000000643
30
-6.3576
 70
     32
  0
VERTEX
  8
MY3DLAYER
10
2.24589466094042
20
32.3553553391235
30
-6.3576
 70
     32
  0
VERTEX
  8
MY3DLAYER
10
2.25624999999987
20
32.3633012702532
30
-6.3576
 70
     32
  0
VERTEX
  8
MY3DLAYER
10
2.26830904774483
20
32.3682962913783
30
-6.3576
 70
     32
  0
VERTEX
  8
MY3DLAYER
10
2.28124999999999
20
32.3700000000636
30
-6.3576
 70
     32
  0
VERTEX
  8
MY3DLAYER
10
2.28125000000846
20
32.7800000000672
30
-6.35759999999999
 70
     32
  0
VERTEX
  8
MY3DLAYER
10
2.26830904775337
20
32.7817037087531
30
-6.35759999999999
 70
     32
  0
VERTEX
  8
MY3DLAYER
10
2.25625000000862
20
32.7866987298787
30
-6.35759999999999
 70
     32
  0
VERTEX
  8
MY3DLAYER
10
2.24589466094949
20
32.7946446610088
30
-6.35759999999999
 70
     32
  0
VERTEX
  8
MY3DLAYER
10
2.23794872981986
20
32.8050000000683
30
-6.35759999999999
 70
     32
  0
VERTEX
  8
MY3DLAYER
10
2.23295370869491
20
32.8170590478133
30
-6.35759999999999
 70
     32
  0
VERTEX
  8
MY3DLAYER
10
2.23125000000969
20
32.8300000000685
30
-6.35759999999999
 70
     32
  0
VERTEX
  8
MY3DLAYER
10
2.23295370869556
20
32.8429409523236
30
-6.35759999999999
 70
     32
  0
VERTEX
  8
MY3DLAYER
10
2.23794872982108
20
32.8550000000683
30
-6.35759999999999
 70
     32
  0
VERTEX
  8
MY3DLAYER
10
2.24589466095124
20
32.8653553391275
30
-6.35759999999999
 70
     32
  0
VERTEX
  8
MY3DLAYER
10
2.25625000001076
20
32.8733012702571
30
-6.35759999999999
 70
     32
  0
VERTEX
  8
MY3DLAYER
10
2.26830904775576
20
32.878296291382
30
-6.35759999999999
 70
     32
  0
VERTEX
  8
MY3DLAYER
10
2.28125000001093
20
32.8800000000673
30
-6.35759999999999
 70
     32
  0
VERTEX
  8
MY3DLAYER
10
2.29419095226601
20
32.8782962913814
30
-6.3576
 70
     32
  0
VERTEX
  8
MY3DLAYER
10
2.30625000001077
20
32.8733012702559
30
-6.3576
 70
     32
  0
VERTEX
  8
MY3DLAYER
10
2.3166053390699
20
32.8653553391257
30
-6.3576
 70
     32
  0
VERTEX
  8
MY3DLAYER
10
2.32455127019953
20
32.8550000000662
30
-6.3576
 70
     32
  0
VERTEX
  8
MY3DLAYER
10
2.67962168576025
20
33.0600000000578
30
-6.35759999999999
 70
     32
  0
VERTEX
  8
MY3DLAYER
10
2.6746266646354
20
33.0720590478028
30
-6.35759999999999
 70
     32
  0
VERTEX
  8
MY3DLAYER
10
2.67292295595027
20
33.0850000000579
30
-6.35759999999999
 70
     32
  0
VERTEX
  8
MY3DLAYER
10
2.67462666463626
20
33.097940952313
30
-6.35759999999999
 70
     32
  0
VERTEX
  8
MY3DLAYER
10
2.67962168576189
20
33.1100000000577
30
-6.35759999999999
 70
     32
  0
VERTEX
  8
MY3DLAYER
10
2.68756761689212
20
33.1203553391168
30
-6.35759999999999
 70
     32
  0
VERTEX
  8
MY3DLAYER
10
2.69792295595171
20
33.1283012702463
30
-6.35759999999999
 70
     32
  0
VERTEX
  8
MY3DLAYER
10
2.70998200369675
20
33.1332962913712
30
-6.35759999999999
 70
     32
  0
VERTEX
  8
MY3DLAYER
10
2.72292295595193
20
33.1350000000563
30
-6.35759999999999
 70
     32
  0
VERTEX
  8
MY3DLAYER
10
2.735863908207
20
33.1332962913703
30
-6.35759999999999
 70
     32
  0
SEQEND
  0
POLYLINE
 8
Layer0
 66
     1
70
    8
 10
0.0
 20
 0.0
 30
0.0
  0
VERTEX
  8
MY3DLAYER
10
3.19995125093191
20
30.0796446609682
30
-6.35759999999999
 70
     32
  0
VERTEX
  8
MY3DLAYER
10
3.18959591187226
20
30.0716987298387
30
-6.35759999999999
 70
     32
  0
VERTEX
  8
MY3DLAYER
10
3.17753686412718
20
30.066703708714
30
-6.35759999999999
 70
     32
  0
VERTEX
  8
MY3DLAYER
10
3.16459591187198
20
30.065000000029
30
-6.35759999999999
 70
     32
  0
VERTEX
  8
MY3DLAYER
10
3.1645959118635
20
29.6550000000472
30
-6.3576
 70
     32
  0
VERTEX
  8
MY3DLAYER
10
3.17753686411863
20
29.6532962913616
30
-6.35759999999999
 70
     32
  0
VERTEX
  8
MY3DLAYER
10
3.18959591186352
20
29.6483012702364
30
-6.35759999999999
 70
     32
  0
VERTEX
  8
MY3DLAYER
10
3.19995125092284
20
29.6403553391065
30
-6.35759999999999
 70
     32
  0
VERTEX
  8
MY3DLAYER
10
3.20789718205273
20
29.6300000000472
30
-6.35759999999999
 70
     32
  0
VERTEX
  8
MY3DLAYER
10
3.21289220317796
20
29.6179409523023
30
-6.35759999999999
 70
     32
  0
VERTEX
  8
MY3DLAYER
10
3.21459591186352
20
29.6050000000472
30
-6.35759999999999
 70
     32
  0
VERTEX
  8
MY3DLAYER
10
3.21289220317797
20
29.5920590477921
30
-6.35759999999999
 70
     32
  0
VERTEX
  8
MY3DLAYER
10
3.20789718205274
20
29.5800000000472
30
-6.35759999999999
 70
     32
  0
VERTEX
  8
MY3DLAYER
10
3.19995125092284
20
29.5696446609879
30
-6.35759999999999
 70
     32
  0
VERTEX
  8
MY3DLAYER
10
3.18959591186351
20
29.561698729858
30
-6.3576
 70
     32
  0
VERTEX
  8
MY3DLAYER
10
3.17753686411864
20
29.5567037087327
30
-6.3576
 70
     32
  0
VERTEX
  8
MY3DLAYER
10
3.16459591186351
20
29.5550000000472
30
-6.3576
 70
     32
  0
VERTEX
  8
MY3DLAYER
10
3.15165495960839
20
29.5567037087327
30
-6.3576
 70
     32
  0
VERTEX
  8
MY3DLAYER
10
3.13959591186351
20
29.561698729858
30
-6.3576
 70
     32
  0
VERTEX
  8
MY3DLAYER
10
3.12924057280418
20
29.5696446609879
30
-6.3576
 70
     32
  0
VERTEX
  8
MY3DLAYER
10
3.12129464167429
20
29.5800000000472
30
-6.3576
 70
     32
  0
VERTEX
  8
MY3DLAYER
10
2.76622422611866
20
29.3750000000468
30
-6.35759999999999
 70
     32
  0
VERTEX
  8
MY3DLAYER
10
2.7712192472438
20
29.3629409523019
30
-6.35759999999999
 70
     32
  0
VERTEX
  8
MY3DLAYER
10
2.77292295592924
20
29.3500000000468
30
-6.35759999999999
 70
     32
  0
VERTEX
  8
MY3DLAYER
10
2.77121924724358
20
29.3370590477917
30
-6.35759999999999
 70
     32
  0
VERTEX
  8
MY3DLAYER
10
2.76622422611826
20
29.3250000000468
30
-6.35759999999999
 70
     32
  0
VERTEX
  8
MY3DLAYER
10
2.75827829498827
20
29.3146446609876
30
-6.35759999999999
 70
     32
  0
VERTEX
  8
MY3DLAYER
10
2.74792295592889
20
29.3066987298578
30
-6.35759999999999
 70
     32
  0
VERTEX
  8
MY3DLAYER
10
2.73586390818397
20
29.3017037087326
30
-6.35759999999999
 70
     32
  0
VERTEX
  8
MY3DLAYER
10
2.72292295592884
20
29.3000000000472
30
-6.35759999999999
 70
     32
  0
VERTEX
  8
MY3DLAYER
10
2.70998200367372
20
29.3017037087328
30
-6.35759999999999
 70
     32
  0
VERTEX
  8
MY3DLAYER
10
2.69792295592887
20
29.3066987298582
30
-6.35759999999999
 70
     32
  0
VERTEX
  8
MY3DLAYER
10
2.68756761686961
20
29.3146446609881
30
-6.35759999999999
 70
     32
  0
VERTEX
  8
MY3DLAYER
10
2.6796216857398
20
29.3250000000475
30
-6.35759999999999
 70
     32
  0
VERTEX
  8
MY3DLAYER
10
2.67462666461467
20
29.3370590477924
30
-6.35759999999999
 70
     32
  0
VERTEX
  8
MY3DLAYER
10
2.67292295592922
20
29.3500000000476
30
-6.35759999999999
 70
     32
  0
VERTEX
  8
MY3DLAYER
10
2.67462666461488
20
29.3629409523027
30
-6.35759999999999
 70
     32
  0
VERTEX
  8
MY3DLAYER
10
2.67962168574022
20
29.3750000000476
30
-6.35759999999999
 70
     32
  0
VERTEX
  8
MY3DLAYER
10
2.32455127018797
20
29.5800000000538
30
-6.3576
 70
     32
  0
VERTEX
  8
MY3DLAYER
10
2.31660533905792
20
29.5696446609946
30
-6.3576
 70
     32
  0
VERTEX
  8
MY3DLAYER
10
2.30624999999845
20
29.5616987298648
30
-6.3576
 70
     32
  0
VERTEX
  8
MY3DLAYER
10
2.2941909522535
20
29.5567037087398
30
-6.3576
 70
     32
  0
VERTEX
  8
MY3DLAYER
10
2.28124999999834
20
29.5550000000545
30
-6.3576
 70
     32
  0
VERTEX
  8
MY3DLAYER
10
2.26830904774325
20
29.5567037087402
30
-6.3576
 70
     32
  0
VERTEX
  8
MY3DLAYER
10
2.25624999999845
20
29.5616987298656
30
-6.3576
 70
     32
  0
VERTEX
  8
MY3DLAYER
10
2.24589466093926
20
29.5696446609957
30
-6.3576
 70
     32
  0
VERTEX
  8
MY3DLAYER
10
2.23794872980954
20
29.5800000000552
30
-6.3576
 70
     32
  0
VERTEX
  8
MY3DLAYER
10
2.23295370868451
20
29.5920590478001
30
-6.3576
 70
     32
  0
VERTEX
  8
MY3DLAYER
10
2.23124999999916
20
29.6050000000553
30
-6.3576
 70
     32
  0
VERTEX
  8
MY3DLAYER
10
2.23295370868492
20
29.6179409523104
30
-6.3576
 70
     32
  0
VERTEX
  8
MY3DLAYER
10
2.23794872981036
20
29.6300000000552
30
-6.3576
 70
     32
  0
VERTEX
  8
MY3DLAYER
10
2.24589466094042
20
29.6403553391144
30
-6.3576
 70
     32
  0
VERTEX
  8
MY3DLAYER
10
2.25624999999987
20
29.6483012702441
30
-6.3576
 70
     32
  0
VERTEX
  8
MY3DLAYER
10
2.26830904774483
20
29.6532962913691
30
-6.3576
 70
     32
  0
VERTEX
  8
MY3DLAYER
10
2.28124999999999
20
29.6550000000545
30
-6.3576
 70
     32
  0
VERTEX
  8
MY3DLAYER
10
2.28125000000846
20
30.0650000000581
30
-6.3576
 70
     32
  0
VERTEX
  8
MY3DLAYER
10
2.26830904775338
20
30.066703708744
30
-6.3576
 70
     32
  0
VERTEX
  8
MY3DLAYER
10
2.25625000000863
20
30.0716987298695
30
-6.3576
 70
     32
  0
VERTEX
  8
MY3DLAYER
10
2.2458946609495
20
30.0796446609997
30
-6.3576
 70
     32
  0
VERTEX
  8
MY3DLAYER
10
2.23794872981986
20
30.0900000000592
30
-6.3576
 70
     32
  0
VERTEX
  8
MY3DLAYER
10
2.23295370869492
20
30.1020590478042
30
-6.3576
 70
     32
  0
VERTEX
  8
MY3DLAYER
10
2.2312500000097
20
30.1150000000593
30
-6.3576
 70
     32
  0
VERTEX
  8
MY3DLAYER
10
2.23295370869556
20
30.1279409523144
30
-6.3576
 70
     32
  0
VERTEX
  8
MY3DLAYER
10
2.23794872982109
20
30.1400000000592
30
-6.3576
 70
     32
  0
VERTEX
  8
MY3DLAYER
10
2.24589466095124
20
30.1503553391183
30
-6.3576
 70
     32
  0
VERTEX
  8
MY3DLAYER
10
2.25625000001076
20
30.158301270248
30
-6.3576
 70
     32
  0
VERTEX
  8
MY3DLAYER
10
2.26830904775576
20
30.1632962913729
30
-6.3576
 70
     32
  0
VERTEX
  8
MY3DLAYER
10
2.28125000001094
20
30.1650000000581
30
-6.3576
 70
     32
  0
VERTEX
  8
MY3DLAYER
10
2.29419095226602
20
30.1632962913723
30
-6.3576
 70
     32
  0
VERTEX
  8
MY3DLAYER
10
2.30625000001077
20
30.1583012702467
30
-6.3576
 70
     32
  0
VERTEX
  8
MY3DLAYER
10
2.31660533906991
20
30.1503553391166
30
-6.3576
 70
     32
  0
VERTEX
  8
MY3DLAYER
10
2.32455127019954
20
30.1400000000571
30
-6.3576
 70
     32
  0
VERTEX
  8
MY3DLAYER
10
2.67962168576025
20
30.3450000000486
30
-6.3576
 70
     32
  0
VERTEX
  8
MY3DLAYER
10
2.6746266646354
20
30.3570590477936
30
-6.3576
 70
     32
  0
VERTEX
  8
MY3DLAYER
10
2.67292295595028
20
30.3700000000488
30
-6.3576
 70
     32
  0
VERTEX
  8
MY3DLAYER
10
2.67462666463626
20
30.3829409523039
30
-6.35759999999999
 70
     32
  0
VERTEX
  8
MY3DLAYER
10
2.67962168576189
20
30.3950000000486
30
-6.35759999999999
 70
     32
  0
VERTEX
  8
MY3DLAYER
10
2.68756761689212
20
30.4053553391077
30
-6.35759999999999
 70
     32
  0
VERTEX
  8
MY3DLAYER
10
2.69792295595171
20
30.4133012702372
30
-6.35759999999999
 70
     32
  0
VERTEX
  8
MY3DLAYER
10
2.70998200369676
20
30.4182962913621
30
-6.35759999999999
 70
     32
  0
VERTEX
  8
MY3DLAYER
10
2.72292295595193
20
30.4200000000472
30
-6.35759999999999
 70
     32
  0
VERTEX
  8
MY3DLAYER
10
2.735863908207
20
30.4182962913612
30
-6.35759999999999
 70
     32
  0
VERTEX
  8
MY3DLAYER
10
2.74792295595171
20
30.4133012702356
30
-6.35759999999999
 70
     32
  0
VERTEX
  8
MY3DLAYER
10
2.75827829501079
20
30.4053553391053
30
-6.35759999999999
 70
     32
  0
VERTEX
  8
MY3DLAYER
10
2.76622422614033
20
30.3950000000457
30
-6.35759999999999
 70
     32
  0
VERTEX
  8
MY3DLAYER
10
2.77121924726518
20
30.3829409523007
30
-6.35759999999999
 70
     32
  0
VERTEX
  8
MY3DLAYER
10
2.77292295595029
20
30.3700000000455
30
-6.35759999999999
 70
     32
  0
VERTEX
  8
MY3DLAYER
10
2.77121924726432
20
30.3570590477905
30
-6.35759999999999
 70
     32
  0
VERTEX
  8
MY3DLAYER
10
2.76622422613869
20
30.3450000000458
30
-6.35759999999999
 70
     32
  0
VERTEX
  8
MY3DLAYER
10
3.12129464168585
20
30.1400000000307
30
-6.35759999999999
 70
     32
  0
VERTEX
  8
MY3DLAYER
10
3.12924057281615
20
30.1503553390897
30
-6.35759999999999
 70
     32
  0
VERTEX
  8
MY3DLAYER
10
3.13959591187582
20
30.1583012702192
30
-6.35759999999999
 70
     32
  0
VERTEX
  8
MY3DLAYER
10
3.1516549596209
20
30.1632962913439
30
-6.35759999999999
 70
     32
  0
VERTEX
  8
MY3DLAYER
10
3.16459591187609
20
30.165000000029
30
-6.35759999999999
 70
     32
  0
VERTEX
  8
MY3DLAYER
10
3.17753686413116
20
30.1632962913429
30
-6.35759999999999
 70
     32
  0
VERTEX
  8
MY3DLAYER
10
3.18959591187582
20
30.1583012702172
30
-6.35759999999999
 70
     32
  0
VERTEX
  8
MY3DLAYER
10
3.19995125093482
20
30.1503553390868
30
-6.35759999999999
 70
     32
  0
VERTEX
  8
MY3DLAYER
10
3.2078971820643
20
30.1400000000272
30
-6.35759999999999
 70
     32
  0
VERTEX
  8
MY3DLAYER
10
3.21289220318903
20
30.1279409522821
30
-6.35759999999999
 70
     32
  0
VERTEX
  8
MY3DLAYER
10
3.21459591187405
20
30.1150000000269
30
-6.35759999999999
 70
     32
  0
VERTEX
  8
MY3DLAYER
10
3.21289220318797
20
30.1020590477719
30
-6.35759999999999
 70
     32
  0
VERTEX
  8
MY3DLAYER
10
3.20789718206223
20
30.0900000000272
30
-6.35759999999999
 70
     32
  0
VERTEX
  8
MY3DLAYER
10
3.19995125093191
20
30.0796446609682
30
-6.35759999999999
 70
     32
  0
SEQEND
  0
POLYLINE
 8
Layer0
 66
     1
70
    8
 10
0.0
 20
 0.0
 30
0.0
  0
VERTEX
  8
MY3DLAYER
10
4.88787333540166
20
30.3829409522745
30
-6.35759999999999
 70
     32
  0
VERTEX
  8
MY3DLAYER
10
4.88957704408678
20
30.3700000000194
30
-6.35759999999999
 70
     32
  0
VERTEX
  8
MY3DLAYER
10
4.8878733354008
20
30.3570590477643
30
-6.35759999999999
 70
     32
  0
VERTEX
  8
MY3DLAYER
10
4.88287831427517
20
30.3450000000196
30
-6.35759999999999
 70
     32
  0
VERTEX
  8
MY3DLAYER
10
5.23794872982234
20
30.1400000000045
30
-6.35759999999999
 70
     32
  0
VERTEX
  8
MY3DLAYER
10
5.24589466095264
20
30.1503553390635
30
-6.35759999999999
 70
     32
  0
VERTEX
  8
MY3DLAYER
10
5.25625000001231
20
30.158301270193
30
-6.35759999999999
 70
     32
  0
VERTEX
  8
MY3DLAYER
10
5.26830904775739
20
30.1632962913178
30
-6.35759999999999
 70
     32
  0
VERTEX
  8
MY3DLAYER
10
5.28125000001258
20
30.1650000000028
30
-6.35759999999999
 70
     32
  0
VERTEX
  8
MY3DLAYER
10
5.29419095226764
20
30.1632962913167
30
-6.35759999999999
 70
     32
  0
VERTEX
  8
MY3DLAYER
10
5.30625000001231
20
30.158301270191
30
-6.35759999999999
 70
     32
  0
VERTEX
  8
MY3DLAYER
10
5.31660533907131
20
30.1503553390606
30
-6.35759999999999
 70
     32
  0
VERTEX
  8
MY3DLAYER
10
5.32455127020078
20
30.140000000001
30
-6.35759999999999
 70
     32
  0
VERTEX
  8
MY3DLAYER
10
5.32954629132551
20
30.1279409522559
30
-6.35759999999999
 70
     32
  0
VERTEX
  8
MY3DLAYER
10
5.33125000001053
20
30.1150000000007
30
-6.35759999999999
 70
     32
  0
VERTEX
  8
MY3DLAYER
10
5.32954629132445
20
30.1020590477457
30
-6.35759999999999
 70
     32
  0
VERTEX
  8
MY3DLAYER
10
5.32455127019871
20
30.090000000001
30
-6.35759999999999
 70
     32
  0
VERTEX
  8
MY3DLAYER
10
5.3166053390684
20
30.079644660942
30
-6.35759999999999
 70
     32
  0
VERTEX
  8
MY3DLAYER
10
5.30625000000874
20
30.0716987298125
30
-6.35759999999999
 70
     32
  0
VERTEX
  8
MY3DLAYER
10
5.29419095226366
20
30.0667037086878
30
-6.35759999999999
 70
     32
  0
VERTEX
  8
MY3DLAYER
10
5.28125000000847
20
30.0650000000028
30
-6.35759999999999
 70
     32
  0
VERTEX
  8
MY3DLAYER
10
5.28124999999999
20
29.655000000021
30
-6.35759999999999
 70
     32
  0
VERTEX
  8
MY3DLAYER
10
5.29419095225512
20
29.6532962913354
30
-6.35759999999999
 70
     32
  0
VERTEX
  8
MY3DLAYER
10
5.30625
20
29.6483012702102
30
-6.35759999999999
 70
     32
  0
VERTEX
  8
MY3DLAYER
10
5.31660533905933
20
29.6403553390803
30
-6.35759999999999
 70
     32
  0
VERTEX
  8
MY3DLAYER
10
5.32455127018922
20
29.630000000021
30
-6.35759999999999
 70
     32
  0
VERTEX
  8
MY3DLAYER
10
5.32954629131445
20
29.6179409522761
30
-6.35759999999999
 70
     32
  0
VERTEX
  8
MY3DLAYER
10
5.33125
20
29.605000000021
30
-6.35759999999999
 70
     32
  0
VERTEX
  8
MY3DLAYER
10
5.32954629131445
20
29.5920590477659
30
-6.35759999999999
 70
     32
  0
VERTEX
  8
MY3DLAYER
10
5.32455127018923
20
29.580000000021
30
-6.35759999999999
 70
     32
  0
VERTEX
  8
MY3DLAYER
10
5.31660533905933
20
29.5696446609617
30
-6.35759999999999
 70
     32
  0
VERTEX
  8
MY3DLAYER
10
5.30625
20
29.5616987298318
30
-6.35759999999999
 70
     32
  0
VERTEX
  8
MY3DLAYER
10
5.29419095225512
20
29.5567037087065
30
-6.35759999999999
 70
     32
  0
VERTEX
  8
MY3DLAYER
10
5.28125
20
29.555000000021
30
-6.35759999999999
 70
     32
  0
VERTEX
  8
MY3DLAYER
10
5.26830904774488
20
29.5567037087065
30
-6.35759999999999
 70
     32
  0
VERTEX
  8
MY3DLAYER
10
5.25625
20
29.5616987298318
30
-6.35759999999999
 70
     32
  0
VERTEX
  8
MY3DLAYER
10
5.24589466094067
20
29.5696446609617
30
-6.35759999999999
 70
     32
  0
VERTEX
  8
MY3DLAYER
10
5.23794872981077
20
29.580000000021
30
-6.35759999999999
 70
     32
  0
VERTEX
  8
MY3DLAYER
10
4.88287831425515
20
29.3750000000206
30
-6.35759999999999
 70
     32
  0
VERTEX
  8
MY3DLAYER
10
4.88787333538029
20
29.3629409522757
30
-6.35759999999999
 70
     32
  0
VERTEX
  8
MY3DLAYER
10
4.88957704406573
20
29.3500000000206
30
-6.35759999999999
 70
     32
  0
VERTEX
  8
MY3DLAYER
10
4.88787333538007
20
29.3370590477655
30
-6.35759999999999
 70
     32
  0
VERTEX
  8
MY3DLAYER
10
4.88287831425474
20
29.3250000000206
30
-6.35759999999999
 70
     32
  0
VERTEX
  8
MY3DLAYER
10
4.87493238312476
20
29.3146446609614
30
-6.35759999999999
 70
     32
  0
VERTEX
  8
MY3DLAYER
10
4.86457704406538
20
29.3066987298316
30
-6.35759999999999
 70
     32
  0
VERTEX
  8
MY3DLAYER
10
4.85251799632045
20
29.3017037087064
30
-6.35759999999999
 70
     32
  0
VERTEX
  8
MY3DLAYER
10
4.83957704406533
20
29.300000000021
30
-6.35759999999999
 70
     32
  0
VERTEX
  8
MY3DLAYER
10
4.8266360918102
20
29.3017037087066
30
-6.35759999999999
 70
     32
  0
VERTEX
  8
MY3DLAYER
10
4.81457704406536
20
29.306698729832
30
-6.35759999999999
 70
     32
  0
VERTEX
  8
MY3DLAYER
10
4.8042217050061
20
29.3146446609619
30
-6.35759999999999
 70
     32
  0
VERTEX
  8
MY3DLAYER
10
4.79627577387629
20
29.3250000000213
30
-6.35759999999999
 70
     32
  0
VERTEX
  8
MY3DLAYER
10
4.79128075275116
20
29.3370590477663
30
-6.35759999999999
 70
     32
  0
VERTEX
  8
MY3DLAYER
10
4.78957704406571
20
29.3500000000214
30
-6.35759999999999
 70
     32
  0
VERTEX
  8
MY3DLAYER
10
4.79128075275137
20
29.3629409522765
30
-6.35759999999999
 70
     32
  0
VERTEX
  8
MY3DLAYER
10
4.79627577387671
20
29.3750000000214
30
-6.35759999999999
 70
     32
  0
VERTEX
  8
MY3DLAYER
10
4.44120535832446
20
29.5800000000276
30
-6.35759999999999
 70
     32
  0
VERTEX
  8
MY3DLAYER
10
4.4332594271944
20
29.5696446609684
30
-6.35759999999999
 70
     32
  0
VERTEX
  8
MY3DLAYER
10
4.42290408813494
20
29.5616987298387
30
-6.35759999999999
 70
     32
  0
VERTEX
  8
MY3DLAYER
10
4.41084504038999
20
29.5567037087136
30
-6.35759999999999
 70
     32
  0
VERTEX
  8
MY3DLAYER
10
4.39790408813483
20
29.5550000000283
30
-6.35759999999999
 70
     32
  0
VERTEX
  8
MY3DLAYER
10
4.38496313587973
20
29.556703708714
30
-6.35759999999999
 70
     32
  0
VERTEX
  8
MY3DLAYER
10
4.37290408813494
20
29.5616987298394
30
-6.35759999999999
 70
     32
  0
VERTEX
  8
MY3DLAYER
10
4.36254874907574
20
29.5696446609695
30
-6.35759999999999
 70
     32
  0
VERTEX
  8
MY3DLAYER
10
4.35460281794603
20
29.580000000029
30
-6.35759999999999
 70
     32
  0
VERTEX
  8
MY3DLAYER
10
4.34960779682099
20
29.5920590477739
30
-6.35759999999999
 70
     32
  0
VERTEX
  8
MY3DLAYER
10
4.34790408813565
20
29.6050000000291
30
-6.35759999999999
 70
     32
  0
VERTEX
  8
MY3DLAYER
10
4.34960779682141
20
29.6179409522842
30
-6.35759999999999
 70
     32
  0
VERTEX
  8
MY3DLAYER
10
4.35460281794685
20
29.630000000029
30
-6.35759999999999
 70
     32
  0
VERTEX
  8
MY3DLAYER
10
4.36254874907691
20
29.6403553390882
30
-6.35759999999999
 70
     32
  0
VERTEX
  8
MY3DLAYER
10
4.37290408813636
20
29.6483012702179
30
-6.35759999999999
 70
     32
  0
VERTEX
  8
MY3DLAYER
10
4.38496313588132
20
29.6532962913429
30
-6.35759999999999
 70
     32
  0
VERTEX
  8
MY3DLAYER
10
4.39790408813648
20
29.6550000000283
30
-6.35759999999999
 70
     32
  0
VERTEX
  8
MY3DLAYER
10
4.39790408814495
20
30.0650000000319
30
-6.35759999999999
 70
     32
  0
VERTEX
  8
MY3DLAYER
10
4.38496313588987
20
30.0667037087178
30
-6.35759999999999
 70
     32
  0
VERTEX
  8
MY3DLAYER
10
4.37290408814511
20
30.0716987298433
30
-6.35759999999999
 70
     32
  0
VERTEX
  8
MY3DLAYER
10
4.36254874908598
20
30.0796446609735
30
-6.35759999999999
 70
     32
  0
VERTEX
  8
MY3DLAYER
10
4.35460281795634
20
30.090000000033
30
-6.35759999999999
 70
     32
  0
VERTEX
  8
MY3DLAYER
10
4.3496077968314
20
30.102059047778
30
-6.35759999999999
 70
     32
  0
VERTEX
  8
MY3DLAYER
10
4.34790408814618
20
30.1150000000332
30
-6.35759999999999
 70
     32
  0
VERTEX
  8
MY3DLAYER
10
4.34960779683205
20
30.1279409522883
30
-6.35759999999999
 70
     32
  0
VERTEX
  8
MY3DLAYER
10
4.35460281795757
20
30.140000000033
30
-6.35759999999999
 70
     32
  0
VERTEX
  8
MY3DLAYER
10
4.36254874908773
20
30.1503553390921
30
-6.35759999999999
 70
     32
  0
VERTEX
  8
MY3DLAYER
10
4.37290408814725
20
30.1583012702218
30
-6.35759999999999
 70
     32
  0
VERTEX
  8
MY3DLAYER
10
4.38496313589225
20
30.1632962913467
30
-6.35759999999999
 70
     32
  0
VERTEX
  8
MY3DLAYER
10
4.39790408814742
20
30.1650000000319
30
-6.35759999999999
 70
     32
  0
VERTEX
  8
MY3DLAYER
10
4.4108450404025
20
30.1632962913461
30
-6.35759999999999
 70
     32
  0
VERTEX
  8
MY3DLAYER
10
4.42290408814726
20
30.1583012702205
30
-6.35759999999999
 70
     32
  0
VERTEX
  8
MY3DLAYER
10
4.43325942720639
20
30.1503553390904
30
-6.35759999999999
 70
     32
  0
VERTEX
  8
MY3DLAYER
10
4.44120535833602
20
30.1400000000309
30
-6.35759999999999
 70
     32
  0
VERTEX
  8
MY3DLAYER
10
4.79627577389673
20
30.3450000000224
30
-6.35759999999999
 70
     32
  0
VERTEX
  8
MY3DLAYER
10
4.79128075277189
20
30.3570590477675
30
-6.35759999999999
 70
     32
  0
VERTEX
  8
MY3DLAYER
10
4.78957704408676
20
30.3700000000226
30
-6.35759999999999
 70
     32
  0
VERTEX
  8
MY3DLAYER
10
4.79128075277275
20
30.3829409522777
30
-6.35759999999999
 70
     32
  0
VERTEX
  8
MY3DLAYER
10
4.79627577389838
20
30.3950000000224
30
-6.35759999999999
 70
     32
  0
VERTEX
  8
MY3DLAYER
10
4.80422170502861
20
30.4053553390815
30
-6.35759999999999
 70
     32
  0
VERTEX
  8
MY3DLAYER
10
4.8145770440882
20
30.413301270211
30
-6.35759999999999
 70
     32
  0
VERTEX
  8
MY3DLAYER
10
4.82663609183324
20
30.4182962913359
30
-6.35759999999999
 70
     32
  0
VERTEX
  8
MY3DLAYER
10
4.83957704408842
20
30.420000000021
30
-6.35759999999999
 70
     32
  0
VERTEX
  8
MY3DLAYER
10
4.85251799634349
20
30.418296291335
30
-6.35759999999999
 70
     32
  0
VERTEX
  8
MY3DLAYER
10
4.8645770440882
20
30.4133012702094
30
-6.35759999999999
 70
     32
  0
VERTEX
  8
MY3DLAYER
10
4.87493238314727
20
30.4053553390791
30
-6.35759999999999
 70
     32
  0
VERTEX
  8
MY3DLAYER
10
4.88287831427682
20
30.3950000000196
30
-6.35759999999999
 70
     32
  0
VERTEX
  8
MY3DLAYER
10
4.88787333540166
20
30.3829409522745
30
-6.35759999999999
 70
     32
  0
SEQEND
  0
POLYLINE
 8
Layer0
 66
     1
70
    8
 10
0.0
 20
 0.0
 30
0.0
  0
VERTEX
  8
MY3DLAYER
10
4.8145770440882
20
27.6983012702019
30
-6.35759999999999
 70
     32
  0
VERTEX
  8
MY3DLAYER
10
4.82663609183324
20
27.7032962913268
30
-6.35759999999999
 70
     32
  0
VERTEX
  8
MY3DLAYER
10
4.83957704408842
20
27.7050000000119
30
-6.35759999999999
 70
     32
  0
VERTEX
  8
MY3DLAYER
10
4.85251799634349
20
27.7032962913259
30
-6.35759999999999
 70
     32
  0
VERTEX
  8
MY3DLAYER
10
4.8645770440882
20
27.6983012702002
30
-6.35759999999999
 70
     32
  0
VERTEX
  8
MY3DLAYER
10
4.87493238314728
20
27.69035533907
30
-6.35759999999999
 70
     32
  0
VERTEX
  8
MY3DLAYER
10
4.88287831427682
20
27.6800000000104
30
-6.35759999999999
 70
     32
  0
VERTEX
  8
MY3DLAYER
10
4.88787333540166
20
27.6679409522654
30
-6.35759999999999
 70
     32
  0
VERTEX
  8
MY3DLAYER
10
4.88957704408678
20
27.6550000000102
30
-6.35759999999999
 70
     32
  0
VERTEX
  8
MY3DLAYER
10
4.88787333540081
20
27.6420590477551
30
-6.35759999999999
 70
     32
  0
VERTEX
  8
MY3DLAYER
10
4.88287831427517
20
27.6300000000104
30
-6.35759999999999
 70
     32
  0
VERTEX
  8
MY3DLAYER
10
5.23794872982234
20
27.4249999999954
30
-6.35759999999999
 70
     32
  0
VERTEX
  8
MY3DLAYER
10
5.24589466095264
20
27.4353553390544
30
-6.35759999999999
 70
     32
  0
VERTEX
  8
MY3DLAYER
10
5.25625000001231
20
27.4433012701839
30
-6.35759999999999
 70
     32
  0
VERTEX
  8
MY3DLAYER
10
5.26830904775739
20
27.4482962913086
30
-6.35759999999999
 70
     32
  0
VERTEX
  8
MY3DLAYER
10
5.28125000001258
20
27.4499999999936
30
-6.35759999999999
 70
     32
  0
VERTEX
  8
MY3DLAYER
10
5.29419095226764
20
27.4482962913076
30
-6.35759999999999
 70
     32
  0
VERTEX
  8
MY3DLAYER
10
5.30625000001231
20
27.4433012701818
30
-6.35759999999999
 70
     32
  0
VERTEX
  8
MY3DLAYER
10
5.31660533907131
20
27.4353553390515
30
-6.35759999999999
 70
     32
  0
VERTEX
  8
MY3DLAYER
10
5.32455127020079
20
27.4249999999919
30
-6.35759999999999
 70
     32
  0
VERTEX
  8
MY3DLAYER
10
5.32954629132552
20
27.4129409522468
30
-6.35759999999999
 70
     32
  0
VERTEX
  8
MY3DLAYER
10
5.33125000001054
20
27.3999999999916
30
-6.35759999999999
 70
     32
  0
VERTEX
  8
MY3DLAYER
10
5.32954629132446
20
27.3870590477365
30
-6.35759999999999
 70
     32
  0
VERTEX
  8
MY3DLAYER
10
5.32455127019871
20
27.3749999999919
30
-6.35759999999999
 70
     32
  0
VERTEX
  8
MY3DLAYER
10
5.3166053390684
20
27.3646446609328
30
-6.35759999999999
 70
     32
  0
VERTEX
  8
MY3DLAYER
10
5.30625000000875
20
27.3566987298034
30
-6.35759999999999
 70
     32
  0
VERTEX
  8
MY3DLAYER
10
5.29419095226366
20
27.3517037086786
30
-6.35759999999999
 70
     32
  0
VERTEX
  8
MY3DLAYER
10
5.28125000000847
20
27.3499999999936
30
-6.35759999999999
 70
     32
  0
VERTEX
  8
MY3DLAYER
10
5.28124999999999
20
26.9400000000119
30
-6.35759999999999
 70
     32
  0
VERTEX
  8
MY3DLAYER
10
5.29419095225512
20
26.9382962913263
30
-6.35759999999999
 70
     32
  0
VERTEX
  8
MY3DLAYER
10
5.30625
20
26.9333012702011
30
-6.35759999999999
 70
     32
  0
VERTEX
  8
MY3DLAYER
10
5.31660533905933
20
26.9253553390712
30
-6.35759999999999
 70
     32
  0
VERTEX
  8
MY3DLAYER
10
5.32455127018922
20
26.9150000000119
30
-6.35759999999999
 70
     32
  0
VERTEX
  8
MY3DLAYER
10
5.32954629131445
20
26.902940952267
30
-6.35759999999999
 70
     32
  0
VERTEX
  8
MY3DLAYER
10
5.33125
20
26.8900000000119
30
-6.35759999999999
 70
     32
  0
VERTEX
  8
MY3DLAYER
10
5.32954629131445
20
26.8770590477568
30
-6.35759999999999
 70
     32
  0
VERTEX
  8
MY3DLAYER
10
5.32455127018923
20
26.8650000000119
30
-6.35759999999999
 70
     32
  0
VERTEX
  8
MY3DLAYER
10
5.31660533905933
20
26.8546446609526
30
-6.35759999999999
 70
     32
  0
VERTEX
  8
MY3DLAYER
10
5.30625
20
26.8466987298227
30
-6.35759999999999
 70
     32
  0
VERTEX
  8
MY3DLAYER
10
5.29419095225512
20
26.8417037086974
30
-6.35759999999999
 70
     32
  0
VERTEX
  8
MY3DLAYER
10
5.28125
20
26.8400000000119
30
-6.35759999999999
 70
     32
  0
VERTEX
  8
MY3DLAYER
10
5.26830904774488
20
26.8417037086974
30
-6.35759999999999
 70
     32
  0
VERTEX
  8
MY3DLAYER
10
5.25625
20
26.8466987298227
30
-6.35759999999999
 70
     32
  0
VERTEX
  8
MY3DLAYER
10
5.24589466094067
20
26.8546446609526
30
-6.35759999999999
 70
     32
  0
VERTEX
  8
MY3DLAYER
10
5.23794872981077
20
26.8650000000119
30
-6.35759999999999
 70
     32
  0
VERTEX
  8
MY3DLAYER
10
4.88287831425514
20
26.6600000000115
30
-6.35759999999999
 70
     32
  0
VERTEX
  8
MY3DLAYER
10
4.88787333538029
20
26.6479409522666
30
-6.35759999999999
 70
     32
  0
VERTEX
  8
MY3DLAYER
10
4.88957704406572
20
26.6350000000115
30
-6.35759999999999
 70
     32
  0
VERTEX
  8
MY3DLAYER
10
4.88787333538007
20
26.6220590477564
30
-6.35759999999999
 70
     32
  0
VERTEX
  8
MY3DLAYER
10
4.88287831425474
20
26.6100000000115
30
-6.35759999999999
 70
     32
  0
VERTEX
  8
MY3DLAYER
10
4.87493238312476
20
26.5996446609523
30
-6.35759999999999
 70
     32
  0
VERTEX
  8
MY3DLAYER
10
4.86457704406537
20
26.5916987298225
30
-6.35759999999999
 70
     32
  0
VERTEX
  8
MY3DLAYER
10
4.85251799632045
20
26.5867037086973
30
-6.35759999999999
 70
     32
  0
VERTEX
  8
MY3DLAYER
10
4.83957704406532
20
26.5850000000119
30
-6.35759999999999
 70
     32
  0
VERTEX
  8
MY3DLAYER
10
4.8266360918102
20
26.5867037086975
30
-6.35759999999999
 70
     32
  0
VERTEX
  8
MY3DLAYER
10
4.81457704406536
20
26.5916987298229
30
-6.35759999999999
 70
     32
  0
VERTEX
  8
MY3DLAYER
10
4.80422170500609
20
26.5996446609528
30
-6.35759999999999
 70
     32
  0
VERTEX
  8
MY3DLAYER
10
4.79627577387629
20
26.6100000000122
30
-6.35759999999999
 70
     32
  0
VERTEX
  8
MY3DLAYER
10
4.79128075275115
20
26.6220590477571
30
-6.35759999999999
 70
     32
  0
VERTEX
  8
MY3DLAYER
10
4.7895770440657
20
26.6350000000123
30
-6.35759999999999
 70
     32
  0
VERTEX
  8
MY3DLAYER
10
4.79128075275136
20
26.6479409522674
30
-6.35759999999999
 70
     32
  0
VERTEX
  8
MY3DLAYER
10
4.79627577387671
20
26.6600000000123
30
-6.35759999999999
 70
     32
  0
VERTEX
  8
MY3DLAYER
10
4.44120535832446
20
26.8650000000185
30
-6.35759999999999
 70
     32
  0
VERTEX
  8
MY3DLAYER
10
4.43325942719441
20
26.8546446609593
30
-6.35759999999999
 70
     32
  0
VERTEX
  8
MY3DLAYER
10
4.42290408813494
20
26.8466987298295
30
-6.35759999999999
 70
     32
  0
VERTEX
  8
MY3DLAYER
10
4.41084504038999
20
26.8417037087045
30
-6.35759999999999
 70
     32
  0
VERTEX
  8
MY3DLAYER
10
4.39790408813483
20
26.8400000000192
30
-6.35759999999999
 70
     32
  0
VERTEX
  8
MY3DLAYER
10
4.38496313587973
20
26.8417037087049
30
-6.35759999999999
 70
     32
  0
VERTEX
  8
MY3DLAYER
10
4.37290408813494
20
26.8466987298303
30
-6.35759999999999
 70
     32
  0
VERTEX
  8
MY3DLAYER
10
4.36254874907574
20
26.8546446609604
30
-6.35759999999999
 70
     32
  0
VERTEX
  8
MY3DLAYER
10
4.35460281794603
20
26.8650000000199
30
-6.35759999999999
 70
     32
  0
VERTEX
  8
MY3DLAYER
10
4.34960779682099
20
26.8770590477648
30
-6.35759999999999
 70
     32
  0
VERTEX
  8
MY3DLAYER
10
4.34790408813565
20
26.89000000002
30
-6.35759999999999
 70
     32
  0
VERTEX
  8
MY3DLAYER
10
4.34960779682141
20
26.9029409522751
30
-6.35759999999999
 70
     32
  0
VERTEX
  8
MY3DLAYER
10
4.35460281794685
20
26.9150000000199
30
-6.35759999999999
 70
     32
  0
VERTEX
  8
MY3DLAYER
10
4.36254874907691
20
26.9253553390791
30
-6.35759999999999
 70
     32
  0
VERTEX
  8
MY3DLAYER
10
4.37290408813636
20
26.9333012702088
30
-6.35759999999999
 70
     32
  0
VERTEX
  8
MY3DLAYER
10
4.38496313588132
20
26.9382962913338
30
-6.35759999999999
 70
     32
  0
VERTEX
  8
MY3DLAYER
10
4.39790408813648
20
26.9400000000192
30
-6.35759999999999
 70
     32
  0
VERTEX
  8
MY3DLAYER
10
4.39790408814495
20
27.3500000000228
30
-6.35759999999999
 70
     32
  0
VERTEX
  8
MY3DLAYER
10
4.38496313588987
20
27.3517037087087
30
-6.35759999999999
 70
     32
  0
VERTEX
  8
MY3DLAYER
10
4.37290408814512
20
27.3566987298342
30
-6.35759999999999
 70
     32
  0
VERTEX
  8
MY3DLAYER
10
4.36254874908598
20
27.3646446609643
30
-6.35759999999999
 70
     32
  0
VERTEX
  8
MY3DLAYER
10
4.35460281795635
20
27.3750000000239
30
-6.35759999999999
 70
     32
  0
VERTEX
  8
MY3DLAYER
10
4.34960779683141
20
27.3870590477689
30
-6.35759999999999
 70
     32
  0
VERTEX
  8
MY3DLAYER
10
4.34790408814619
20
27.400000000024
30
-6.35759999999999
 70
     32
  0
VERTEX
  8
MY3DLAYER
10
4.34960779683205
20
27.4129409522791
30
-6.35759999999999
 70
     32
  0
VERTEX
  8
MY3DLAYER
10
4.35460281795758
20
27.4250000000239
30
-6.35759999999999
 70
     32
  0
VERTEX
  8
MY3DLAYER
10
4.36254874908773
20
27.435355339083
30
-6.35759999999999
 70
     32
  0
VERTEX
  8
MY3DLAYER
10
4.37290408814725
20
27.4433012702127
30
-6.35759999999999
 70
     32
  0
VERTEX
  8
MY3DLAYER
10
4.38496313589225
20
27.4482962913376
30
-6.35759999999999
 70
     32
  0
VERTEX
  8
MY3DLAYER
10
4.39790408814742
20
27.4500000000228
30
-6.35759999999999
 70
     32
  0
VERTEX
  8
MY3DLAYER
10
4.41084504040251
20
27.4482962913369
30
-6.35759999999999
 70
     32
  0
VERTEX
  8
MY3DLAYER
10
4.42290408814726
20
27.4433012702114
30
-6.35759999999999
 70
     32
  0
VERTEX
  8
MY3DLAYER
10
4.43325942720639
20
27.4353553390813
30
-6.35759999999999
 70
     32
  0
VERTEX
  8
MY3DLAYER
10
4.44120535833603
20
27.4250000000217
30
-6.35759999999999
 70
     32
  0
VERTEX
  8
MY3DLAYER
10
4.79627577389674
20
27.6300000000133
30
-6.35759999999999
 70
     32
  0
VERTEX
  8
MY3DLAYER
10
4.79128075277189
20
27.6420590477583
30
-6.35759999999999
 70
     32
  0
VERTEX
  8
MY3DLAYER
10
4.78957704408677
20
27.6550000000135
30
-6.35759999999999
 70
     32
  0
VERTEX
  8
MY3DLAYER
10
4.79128075277275
20
27.6679409522686
30
-6.35759999999999
 70
     32
  0
VERTEX
  8
MY3DLAYER
10
4.79627577389838
20
27.6800000000133
30
-6.35759999999999
 70
     32
  0
VERTEX
  8
MY3DLAYER
10
4.80422170502861
20
27.6903553390723
30
-6.35759999999999
 70
     32
  0
VERTEX
  8
MY3DLAYER
10
4.8145770440882
20
27.6983012702019
30
-6.35759999999999
 70
     32
  0
SEQEND
  0
POLYLINE
 8
Layer0
 66
     1
70
    8
 10
0.0
 20
 0.0
 30
0.0
  0
VERTEX
  8
MY3DLAYER
10
2.75827829498827
20
26.5996446609784
30
-6.35759999999999
 70
     32
  0
VERTEX
  8
MY3DLAYER
10
2.74792295592889
20
26.5916987298487
30
-6.35759999999999
 70
     32
  0
VERTEX
  8
MY3DLAYER
10
2.73586390818396
20
26.5867037087235
30
-6.35759999999999
 70
     32
  0
VERTEX
  8
MY3DLAYER
10
2.72292295592883
20
26.5850000000381
30
-6.35759999999999
 70
     32
  0
VERTEX
  8
MY3DLAYER
10
2.70998200367371
20
26.5867037087237
30
-6.35759999999999
 70
     32
  0
VERTEX
  8
MY3DLAYER
10
2.69792295592887
20
26.5916987298491
30
-6.35759999999999
 70
     32
  0
VERTEX
  8
MY3DLAYER
10
2.68756761686961
20
26.599644660979
30
-6.35759999999999
 70
     32
  0
VERTEX
  8
MY3DLAYER
10
2.6796216857398
20
26.6100000000384
30
-6.35759999999999
 70
     32
  0
VERTEX
  8
MY3DLAYER
10
2.67462666461467
20
26.6220590477833
30
-6.35759999999999
 70
     32
  0
VERTEX
  8
MY3DLAYER
10
2.67292295592922
20
26.6350000000385
30
-6.35759999999999
 70
     32
  0
VERTEX
  8
MY3DLAYER
10
2.67462666461488
20
26.6479409522936
30
-6.35759999999999
 70
     32
  0
VERTEX
  8
MY3DLAYER
10
2.67962168574022
20
26.6600000000384
30
-6.35759999999999
 70
     32
  0
VERTEX
  8
MY3DLAYER
10
2.32455127018797
20
26.8650000000446
30
-6.3576
 70
     32
  0
VERTEX
  8
MY3DLAYER
10
2.31660533905792
20
26.8546446609854
30
-6.3576
 70
     32
  0
VERTEX
  8
MY3DLAYER
10
2.30624999999846
20
26.8466987298557
30
-6.3576
 70
     32
  0
VERTEX
  8
MY3DLAYER
10
2.2941909522535
20
26.8417037087307
30
-6.3576
 70
     32
  0
VERTEX
  8
MY3DLAYER
10
2.28124999999834
20
26.8400000000454
30
-6.35759999999999
 70
     32
  0
VERTEX
  8
MY3DLAYER
10
2.26830904774325
20
26.8417037087311
30
-6.35759999999999
 70
     32
  0
VERTEX
  8
MY3DLAYER
10
2.25624999999845
20
26.8466987298565
30
-6.35759999999999
 70
     32
  0
VERTEX
  8
MY3DLAYER
10
2.24589466093926
20
26.8546446609866
30
-6.35759999999999
 70
     32
  0
VERTEX
  8
MY3DLAYER
10
2.23794872980954
20
26.8650000000461
30
-6.35759999999999
 70
     32
  0
VERTEX
  8
MY3DLAYER
10
2.23295370868451
20
26.877059047791
30
-6.35759999999999
 70
     32
  0
VERTEX
  8
MY3DLAYER
10
2.23124999999916
20
26.8900000000462
30
-6.35759999999999
 70
     32
  0
VERTEX
  8
MY3DLAYER
10
2.23295370868492
20
26.9029409523013
30
-6.35759999999999
 70
     32
  0
VERTEX
  8
MY3DLAYER
10
2.23794872981036
20
26.9150000000461
30
-6.35759999999999
 70
     32
  0
VERTEX
  8
MY3DLAYER
10
2.24589466094042
20
26.9253553391053
30
-6.35759999999999
 70
     32
  0
VERTEX
  8
MY3DLAYER
10
2.25624999999987
20
26.933301270235
30
-6.35759999999999
 70
     32
  0
VERTEX
  8
MY3DLAYER
10
2.26830904774483
20
26.93829629136
30
-6.35759999999999
 70
     32
  0
VERTEX
  8
MY3DLAYER
10
2.28124999999999
20
26.9400000000454
30
-6.35759999999999
 70
     32
  0
VERTEX
  8
MY3DLAYER
10
2.28125000000846
20
27.350000000049
30
-6.35759999999999
 70
     32
  0
VERTEX
  8
MY3DLAYER
10
2.26830904775338
20
27.3517037087349
30
-6.35759999999999
 70
     32
  0
VERTEX
  8
MY3DLAYER
10
2.25625000000863
20
27.3566987298604
30
-6.35759999999999
 70
     32
  0
VERTEX
  8
MY3DLAYER
10
2.2458946609495
20
27.3646446609905
30
-6.35759999999999
 70
     32
  0
VERTEX
  8
MY3DLAYER
10
2.23794872981986
20
27.3750000000501
30
-6.35759999999999
 70
     32
  0
VERTEX
  8
MY3DLAYER
10
2.23295370869492
20
27.387059047795
30
-6.35759999999999
 70
     32
  0
VERTEX
  8
MY3DLAYER
10
2.2312500000097
20
27.4000000000502
30
-6.35759999999999
 70
     32
  0
VERTEX
  8
MY3DLAYER
10
2.23295370869556
20
27.4129409523053
30
-6.35759999999999
 70
     32
  0
VERTEX
  8
MY3DLAYER
10
2.23794872982109
20
27.42500000005
30
-6.35759999999999
 70
     32
  0
VERTEX
  8
MY3DLAYER
10
2.24589466095124
20
27.4353553391092
30
-6.35759999999999
 70
     32
  0
VERTEX
  8
MY3DLAYER
10
2.25625000001076
20
27.4433012702388
30
-6.35759999999999
 70
     32
  0
VERTEX
  8
MY3DLAYER
10
2.26830904775576
20
27.4482962913638
30
-6.35759999999999
 70
     32
  0
VERTEX
  8
MY3DLAYER
10
2.28125000001094
20
27.450000000049
30
-6.35759999999999
 70
     32
  0
VERTEX
  8
MY3DLAYER
10
2.29419095226602
20
27.4482962913631
30
-6.3576
 70
     32
  0
VERTEX
  8
MY3DLAYER
10
2.30625000001077
20
27.4433012702376
30
-6.3576
 70
     32
  0
VERTEX
  8
MY3DLAYER
10
2.31660533906991
20
27.4353553391074
30
-6.3576
 70
     32
  0
VERTEX
  8
MY3DLAYER
10
2.32455127019954
20
27.4250000000479
30
-6.3576
 70
     32
  0
VERTEX
  8
MY3DLAYER
10
2.67962168576025
20
27.6300000000395
30
-6.3576
 70
     32
  0
VERTEX
  8
MY3DLAYER
10
2.6746266646354
20
27.6420590477845
30
-6.3576
 70
     32
  0
VERTEX
  8
MY3DLAYER
10
2.67292295595028
20
27.6550000000397
30
-6.3576
 70
     32
  0
VERTEX
  8
MY3DLAYER
10
2.67462666463626
20
27.6679409522948
30
-6.3576
 70
     32
  0
VERTEX
  8
MY3DLAYER
10
2.67962168576189
20
27.6800000000395
30
-6.3576
 70
     32
  0
VERTEX
  8
MY3DLAYER
10
2.68756761689212
20
27.6903553390985
30
-6.3576
 70
     32
  0
VERTEX
  8
MY3DLAYER
10
2.69792295595171
20
27.6983012702281
30
-6.3576
 70
     32
  0
VERTEX
  8
MY3DLAYER
10
2.70998200369676
20
27.7032962913529
30
-6.3576
 70
     32
  0
VERTEX
  8
MY3DLAYER
10
2.72292295595193
20
27.705000000038
30
-6.3576
 70
     32
  0
VERTEX
  8
MY3DLAYER
10
2.735863908207
20
27.703296291352
30
-6.3576
 70
     32
  0
VERTEX
  8
MY3DLAYER
10
2.74792295595171
20
27.6983012702264
30
-6.3576
 70
     32
  0
VERTEX
  8
MY3DLAYER
10
2.75827829501079
20
27.6903553390962
30
-6.3576
 70
     32
  0
VERTEX
  8
MY3DLAYER
10
2.76622422614033
20
27.6800000000366
30
-6.3576
 70
     32
  0
VERTEX
  8
MY3DLAYER
10
2.77121924726518
20
27.6679409522916
30
-6.3576
 70
     32
  0
VERTEX
  8
MY3DLAYER
10
2.77292295595029
20
27.6550000000364
30
-6.3576
 70
     32
  0
VERTEX
  8
MY3DLAYER
10
2.77121924726432
20
27.6420590477813
30
-6.3576
 70
     32
  0
VERTEX
  8
MY3DLAYER
10
2.76622422613869
20
27.6300000000366
30
-6.3576
 70
     32
  0
VERTEX
  8
MY3DLAYER
10
3.12129464168585
20
27.4250000000216
30
-6.35759999999999
 70
     32
  0
VERTEX
  8
MY3DLAYER
10
3.12924057281615
20
27.4353553390806
30
-6.35759999999999
 70
     32
  0
VERTEX
  8
MY3DLAYER
10
3.13959591187582
20
27.4433012702101
30
-6.35759999999999
 70
     32
  0
VERTEX
  8
MY3DLAYER
10
3.1516549596209
20
27.4482962913348
30
-6.35759999999999
 70
     32
  0
VERTEX
  8
MY3DLAYER
10
3.16459591187609
20
27.4500000000198
30
-6.35759999999999
 70
     32
  0
VERTEX
  8
MY3DLAYER
10
3.17753686413116
20
27.4482962913337
30
-6.35759999999999
 70
     32
  0
VERTEX
  8
MY3DLAYER
10
3.18959591187582
20
27.443301270208
30
-6.35759999999999
 70
     32
  0
VERTEX
  8
MY3DLAYER
10
3.19995125093482
20
27.4353553390777
30
-6.35759999999999
 70
     32
  0
VERTEX
  8
MY3DLAYER
10
3.2078971820643
20
27.4250000000181
30
-6.35759999999999
 70
     32
  0
VERTEX
  8
MY3DLAYER
10
3.21289220318903
20
27.412940952273
30
-6.35759999999999
 70
     32
  0
VERTEX
  8
MY3DLAYER
10
3.21459591187405
20
27.4000000000178
30
-6.35759999999999
 70
     32
  0
VERTEX
  8
MY3DLAYER
10
3.21289220318797
20
27.3870590477627
30
-6.35759999999999
 70
     32
  0
VERTEX
  8
MY3DLAYER
10
3.20789718206223
20
27.3750000000181
30
-6.35759999999999
 70
     32
  0
VERTEX
  8
MY3DLAYER
10
3.19995125093191
20
27.364644660959
30
-6.35759999999999
 70
     32
  0
VERTEX
  8
MY3DLAYER
10
3.18959591187226
20
27.3566987298296
30
-6.35759999999999
 70
     32
  0
VERTEX
  8
MY3DLAYER
10
3.17753686412718
20
27.3517037087048
30
-6.35759999999999
 70
     32
  0
VERTEX
  8
MY3DLAYER
10
3.16459591187198
20
27.3500000000198
30
-6.35759999999999
 70
     32
  0
VERTEX
  8
MY3DLAYER
10
3.1645959118635
20
26.9400000000381
30
-6.35759999999999
 70
     32
  0
VERTEX
  8
MY3DLAYER
10
3.17753686411864
20
26.9382962913525
30
-6.35759999999999
 70
     32
  0
VERTEX
  8
MY3DLAYER
10
3.18959591186352
20
26.9333012702273
30
-6.35759999999999
 70
     32
  0
VERTEX
  8
MY3DLAYER
10
3.19995125092284
20
26.9253553390974
30
-6.35759999999999
 70
     32
  0
VERTEX
  8
MY3DLAYER
10
3.20789718205273
20
26.915000000038
30
-6.35759999999999
 70
     32
  0
VERTEX
  8
MY3DLAYER
10
3.21289220317796
20
26.9029409522932
30
-6.35759999999999
 70
     32
  0
VERTEX
  8
MY3DLAYER
10
3.21459591186352
20
26.8900000000381
30
-6.35759999999999
 70
     32
  0
VERTEX
  8
MY3DLAYER
10
3.21289220317797
20
26.8770590477829
30
-6.35759999999999
 70
     32
  0
VERTEX
  8
MY3DLAYER
10
3.20789718205274
20
26.8650000000381
30
-6.35759999999999
 70
     32
  0
VERTEX
  8
MY3DLAYER
10
3.19995125092284
20
26.8546446609787
30
-6.35759999999999
 70
     32
  0
VERTEX
  8
MY3DLAYER
10
3.18959591186351
20
26.8466987298489
30
-6.35759999999999
 70
     32
  0
VERTEX
  8
MY3DLAYER
10
3.17753686411864
20
26.8417037087236
30
-6.35759999999999
 70
     32
  0
VERTEX
  8
MY3DLAYER
10
3.16459591186351
20
26.8400000000381
30
-6.35759999999999
 70
     32
  0
VERTEX
  8
MY3DLAYER
10
3.15165495960839
20
26.8417037087236
30
-6.35759999999999
 70
     32
  0
VERTEX
  8
MY3DLAYER
10
3.13959591186351
20
26.8466987298488
30
-6.35759999999999
 70
     32
  0
VERTEX
  8
MY3DLAYER
10
3.12924057280418
20
26.8546446609787
30
-6.35759999999999
 70
     32
  0
VERTEX
  8
MY3DLAYER
10
3.12129464167429
20
26.8650000000381
30
-6.35759999999999
 70
     32
  0
VERTEX
  8
MY3DLAYER
10
2.76622422611866
20
26.6600000000377
30
-6.35759999999999
 70
     32
  0
VERTEX
  8
MY3DLAYER
10
2.7712192472438
20
26.6479409522928
30
-6.35759999999999
 70
     32
  0
VERTEX
  8
MY3DLAYER
10
2.77292295592924
20
26.6350000000376
30
-6.35759999999999
 70
     32
  0
VERTEX
  8
MY3DLAYER
10
2.77121924724358
20
26.6220590477826
30
-6.35759999999999
 70
     32
  0
VERTEX
  8
MY3DLAYER
10
2.76622422611825
20
26.6100000000377
30
-6.35759999999999
 70
     32
  0
VERTEX
  8
MY3DLAYER
10
2.75827829498827
20
26.5996446609784
30
-6.35759999999999
 70
     32
  0
SEQEND
  0
POLYLINE
 8
Layer0
 66
     1
70
    8
 10
0.0
 20
 0.0
 30
0.0
  0
VERTEX
  8
MY3DLAYER
10
2.70998200369675
20
24.9882962913438
30
-6.35759999999999
 70
     32
  0
VERTEX
  8
MY3DLAYER
10
2.72292295595193
20
24.9900000000289
30
-6.35759999999999
 70
     32
  0
VERTEX
  8
MY3DLAYER
10
2.735863908207
20
24.9882962913429
30
-6.35759999999999
 70
     32
  0
VERTEX
  8
MY3DLAYER
10
2.74792295595171
20
24.9833012702173
30
-6.35759999999999
 70
     32
  0
VERTEX
  8
MY3DLAYER
10
2.75827829501078
20
24.9753553390871
30
-6.35759999999999
 70
     32
  0
VERTEX
  8
MY3DLAYER
10
2.76622422614033
20
24.9650000000275
30
-6.35759999999999
 70
     32
  0
VERTEX
  8
MY3DLAYER
10
2.77121924726517
20
24.9529409522825
30
-6.35759999999999
 70
     32
  0
VERTEX
  8
MY3DLAYER
10
2.77292295595029
20
24.9400000000273
30
-6.35759999999999
 70
     32
  0
VERTEX
  8
MY3DLAYER
10
2.77121924726431
20
24.9270590477722
30
-6.35759999999999
 70
     32
  0
VERTEX
  8
MY3DLAYER
10
2.76622422613868
20
24.9150000000275
30
-6.35759999999999
 70
     32
  0
VERTEX
  8
MY3DLAYER
10
3.12129464168584
20
24.7100000000125
30
-6.35759999999999
 70
     32
  0
VERTEX
  8
MY3DLAYER
10
3.12924057281615
20
24.7203553390715
30
-6.35759999999999
 70
     32
  0
VERTEX
  8
MY3DLAYER
10
3.13959591187582
20
24.728301270201
30
-6.35759999999999
 70
     32
  0
VERTEX
  8
MY3DLAYER
10
3.1516549596209
20
24.7332962913257
30
-6.35759999999999
 70
     32
  0
VERTEX
  8
MY3DLAYER
10
3.16459591187609
20
24.7350000000107
30
-6.35759999999999
 70
     32
  0
VERTEX
  8
MY3DLAYER
10
3.17753686413115
20
24.7332962913246
30
-6.35759999999999
 70
     32
  0
VERTEX
  8
MY3DLAYER
10
3.18959591187582
20
24.7283012701989
30
-6.35759999999999
 70
     32
  0
VERTEX
  8
MY3DLAYER
10
3.19995125093481
20
24.7203553390686
30
-6.35759999999999
 70
     32
  0
VERTEX
  8
MY3DLAYER
10
3.20789718206429
20
24.7100000000089
30
-6.35759999999999
 70
     32
  0
VERTEX
  8
MY3DLAYER
10
3.21289220318902
20
24.6979409522638
30
-6.35759999999999
 70
     32
  0
VERTEX
  8
MY3DLAYER
10
3.21459591187404
20
24.6850000000087
30
-6.35759999999999
 70
     32
  0
VERTEX
  8
MY3DLAYER
10
3.21289220318796
20
24.6720590477536
30
-6.35759999999999
 70
     32
  0
VERTEX
  8
MY3DLAYER
10
3.20789718206222
20
24.6600000000089
30
-6.35759999999999
 70
     32
  0
VERTEX
  8
MY3DLAYER
10
3.19995125093191
20
24.6496446609499
30
-6.35759999999999
 70
     32
  0
VERTEX
  8
MY3DLAYER
10
3.18959591187225
20
24.6416987298205
30
-6.35759999999999
 70
     32
  0
VERTEX
  8
MY3DLAYER
10
3.17753686412717
20
24.6367037086957
30
-6.35759999999999
 70
     32
  0
VERTEX
  8
MY3DLAYER
10
3.16459591187198
20
24.6350000000107
30
-6.35759999999999
 70
     32
  0
VERTEX
  8
MY3DLAYER
10
3.1645959118635
20
24.2250000000289
30
-6.35759999999999
 70
     32
  0
VERTEX
  8
MY3DLAYER
10
3.17753686411863
20
24.2232962913434
30
-6.35759999999999
 70
     32
  0
VERTEX
  8
MY3DLAYER
10
3.18959591186351
20
24.2183012702182
30
-6.35759999999999
 70
     32
  0
VERTEX
  8
MY3DLAYER
10
3.19995125092284
20
24.2103553390883
30
-6.35759999999999
 70
     32
  0
VERTEX
  8
MY3DLAYER
10
3.20789718205273
20
24.2000000000289
30
-6.35759999999999
 70
     32
  0
VERTEX
  8
MY3DLAYER
10
3.21289220317796
20
24.1879409522841
30
-6.35759999999999
 70
     32
  0
VERTEX
  8
MY3DLAYER
10
3.21459591186351
20
24.1750000000289
30
-6.35759999999999
 70
     32
  0
VERTEX
  8
MY3DLAYER
10
3.21289220317796
20
24.1620590477738
30
-6.35759999999999
 70
     32
  0
VERTEX
  8
MY3DLAYER
10
3.20789718205273
20
24.150000000029
30
-6.35759999999999
 70
     32
  0
VERTEX
  8
MY3DLAYER
10
3.19995125092284
20
24.1396446609696
30
-6.35759999999999
 70
     32
  0
VERTEX
  8
MY3DLAYER
10
3.18959591186351
20
24.1316987298397
30
-6.35759999999999
 70
     32
  0
VERTEX
  8
MY3DLAYER
10
3.17753686411863
20
24.1267037087145
30
-6.35759999999999
 70
     32
  0
VERTEX
  8
MY3DLAYER
10
3.16459591186351
20
24.1250000000289
30
-6.35759999999999
 70
     32
  0
VERTEX
  8
MY3DLAYER
10
3.15165495960838
20
24.1267037087145
30
-6.35759999999999
 70
     32
  0
VERTEX
  8
MY3DLAYER
10
3.13959591186351
20
24.1316987298397
30
-6.35759999999999
 70
     32
  0
VERTEX
  8
MY3DLAYER
10
3.12924057280418
20
24.1396446609696
30
-6.35759999999999
 70
     32
  0
VERTEX
  8
MY3DLAYER
10
3.12129464167428
20
24.1500000000289
30
-6.35759999999999
 70
     32
  0
VERTEX
  8
MY3DLAYER
10
2.76622422611866
20
23.9450000000286
30
-6.3576
 70
     32
  0
VERTEX
  8
MY3DLAYER
10
2.7712192472438
20
23.9329409522837
30
-6.3576
 70
     32
  0
VERTEX
  8
MY3DLAYER
10
2.77292295592924
20
23.9200000000285
30
-6.3576
 70
     32
  0
VERTEX
  8
MY3DLAYER
10
2.77121924724358
20
23.9070590477734
30
-6.3576
 70
     32
  0
VERTEX
  8
MY3DLAYER
10
2.76622422611825
20
23.8950000000286
30
-6.3576
 70
     32
  0
VERTEX
  8
MY3DLAYER
10
2.75827829498827
20
23.8846446609693
30
-6.3576
 70
     32
  0
VERTEX
  8
MY3DLAYER
10
2.74792295592889
20
23.8766987298395
30
-6.3576
 70
     32
  0
VERTEX
  8
MY3DLAYER
10
2.73586390818396
20
23.8717037087144
30
-6.3576
 70
     32
  0
VERTEX
  8
MY3DLAYER
10
2.72292295592883
20
23.8700000000289
30
-6.3576
 70
     32
  0
VERTEX
  8
MY3DLAYER
10
2.70998200367371
20
23.8717037087146
30
-6.3576
 70
     32
  0
VERTEX
  8
MY3DLAYER
10
2.69792295592887
20
23.8766987298399
30
-6.3576
 70
     32
  0
VERTEX
  8
MY3DLAYER
10
2.68756761686961
20
23.8846446609699
30
-6.3576
 70
     32
  0
VERTEX
  8
MY3DLAYER
10
2.6796216857398
20
23.8950000000293
30
-6.3576
 70
     32
  0
VERTEX
  8
MY3DLAYER
10
2.67462666461467
20
23.9070590477742
30
-6.3576
 70
     32
  0
VERTEX
  8
MY3DLAYER
10
2.67292295592922
20
23.9200000000293
30
-6.3576
 70
     32
  0
VERTEX
  8
MY3DLAYER
10
2.67462666461488
20
23.9329409522844
30
-6.3576
 70
     32
  0
VERTEX
  8
MY3DLAYER
10
2.67962168574022
20
23.9450000000293
30
-6.3576
 70
     32
  0
VERTEX
  8
MY3DLAYER
10
2.32455127018797
20
24.1500000000355
30
-6.3576
 70
     32
  0
VERTEX
  8
MY3DLAYER
10
2.31660533905791
20
24.1396446609763
30
-6.3576
 70
     32
  0
VERTEX
  8
MY3DLAYER
10
2.30624999999845
20
24.1316987298466
30
-6.3576
 70
     32
  0
VERTEX
  8
MY3DLAYER
10
2.29419095225349
20
24.1267037087215
30
-6.3576
 70
     32
  0
VERTEX
  8
MY3DLAYER
10
2.28124999999834
20
24.1250000000363
30
-6.3576
 70
     32
  0
VERTEX
  8
MY3DLAYER
10
2.26830904774324
20
24.126703708722
30
-6.3576
 70
     32
  0
VERTEX
  8
MY3DLAYER
10
2.25624999999845
20
24.1316987298474
30
-6.3576
 70
     32
  0
VERTEX
  8
MY3DLAYER
10
2.24589466093925
20
24.1396446609775
30
-6.3576
 70
     32
  0
VERTEX
  8
MY3DLAYER
10
2.23794872980953
20
24.1500000000369
30
-6.3576
 70
     32
  0
VERTEX
  8
MY3DLAYER
10
2.2329537086845
20
24.1620590477819
30
-6.3576
 70
     32
  0
VERTEX
  8
MY3DLAYER
10
2.23124999999916
20
24.175000000037
30
-6.3576
 70
     32
  0
VERTEX
  8
MY3DLAYER
10
2.23295370868492
20
24.1879409522921
30
-6.3576
 70
     32
  0
VERTEX
  8
MY3DLAYER
10
2.23794872981036
20
24.2000000000369
30
-6.3576
 70
     32
  0
VERTEX
  8
MY3DLAYER
10
2.24589466094042
20
24.2103553390961
30
-6.3576
 70
     32
  0
VERTEX
  8
MY3DLAYER
10
2.25624999999987
20
24.2183012702259
30
-6.3576
 70
     32
  0
VERTEX
  8
MY3DLAYER
10
2.26830904774483
20
24.2232962913509
30
-6.3576
 70
     32
  0
VERTEX
  8
MY3DLAYER
10
2.28124999999999
20
24.2250000000362
30
-6.3576
 70
     32
  0
VERTEX
  8
MY3DLAYER
10
2.28125000000846
20
24.6350000000399
30
-6.3576
 70
     32
  0
VERTEX
  8
MY3DLAYER
10
2.26830904775337
20
24.6367037087257
30
-6.3576
 70
     32
  0
VERTEX
  8
MY3DLAYER
10
2.25625000000862
20
24.6416987298513
30
-6.3576
 70
     32
  0
VERTEX
  8
MY3DLAYER
10
2.24589466094949
20
24.6496446609814
30
-6.3576
 70
     32
  0
VERTEX
  8
MY3DLAYER
10
2.23794872981986
20
24.660000000041
30
-6.3576
 70
     32
  0
VERTEX
  8
MY3DLAYER
10
2.23295370869491
20
24.6720590477859
30
-6.3576
 70
     32
  0
VERTEX
  8
MY3DLAYER
10
2.23125000000969
20
24.6850000000411
30
-6.3576
 70
     32
  0
VERTEX
  8
MY3DLAYER
10
2.23295370869556
20
24.6979409522962
30
-6.3576
 70
     32
  0
VERTEX
  8
MY3DLAYER
10
2.23794872982108
20
24.7100000000409
30
-6.3576
 70
     32
  0
VERTEX
  8
MY3DLAYER
10
2.24589466095124
20
24.7203553391001
30
-6.3576
 70
     32
  0
VERTEX
  8
MY3DLAYER
10
2.25625000001076
20
24.7283012702297
30
-6.3576
 70
     32
  0
VERTEX
  8
MY3DLAYER
10
2.26830904775576
20
24.7332962913547
30
-6.35759999999999
 70
     32
  0
VERTEX
  8
MY3DLAYER
10
2.28125000001093
20
24.7350000000399
30
-6.35759999999999
 70
     32
  0
VERTEX
  8
MY3DLAYER
10
2.29419095226601
20
24.733296291354
30
-6.3576
 70
     32
  0
VERTEX
  8
MY3DLAYER
10
2.30625000001077
20
24.7283012702285
30
-6.3576
 70
     32
  0
VERTEX
  8
MY3DLAYER
10
2.3166053390699
20
24.7203553390983
30
-6.3576
 70
     32
  0
VERTEX
  8
MY3DLAYER
10
2.32455127019953
20
24.7100000000388
30
-6.3576
 70
     32
  0
VERTEX
  8
MY3DLAYER
10
2.67962168576025
20
24.9150000000304
30
-6.35759999999999
 70
     32
  0
VERTEX
  8
MY3DLAYER
10
2.6746266646354
20
24.9270590477754
30
-6.35759999999999
 70
     32
  0
VERTEX
  8
MY3DLAYER
10
2.67292295595027
20
24.9400000000306
30
-6.35759999999999
 70
     32
  0
VERTEX
  8
MY3DLAYER
10
2.67462666463626
20
24.9529409522857
30
-6.35759999999999
 70
     32
  0
VERTEX
  8
MY3DLAYER
10
2.67962168576189
20
24.9650000000304
30
-6.35759999999999
 70
     32
  0
VERTEX
  8
MY3DLAYER
10
2.68756761689212
20
24.9753553390894
30
-6.35759999999999
 70
     32
  0
VERTEX
  8
MY3DLAYER
10
2.69792295595171
20
24.983301270219
30
-6.35759999999999
 70
     32
  0
VERTEX
  8
MY3DLAYER
10
2.70998200369675
20
24.9882962913438
30
-6.35759999999999
 70
     32
  0
SEQEND
  0
POLYLINE
 8
Layer0
 66
     1
70
    8
 10
0.0
 20
 0.0
 30
0.0
  0
VERTEX
  8
MY3DLAYER
10
4.44120535832446
20
24.1500000000093
30
-6.35759999999999
 70
     32
  0
VERTEX
  8
MY3DLAYER
10
4.4332594271944
20
24.1396446609501
30
-6.35759999999999
 70
     32
  0
VERTEX
  8
MY3DLAYER
10
4.42290408813494
20
24.1316987298204
30
-6.35759999999999
 70
     32
  0
VERTEX
  8
MY3DLAYER
10
4.41084504038998
20
24.1267037086954
30
-6.35759999999999
 70
     32
  0
VERTEX
  8
MY3DLAYER
10
4.39790408813483
20
24.1250000000101
30
-6.35759999999999
 70
     32
  0
VERTEX
  8
MY3DLAYER
10
4.38496313587973
20
24.1267037086958
30
-6.35759999999999
 70
     32
  0
VERTEX
  8
MY3DLAYER
10
4.37290408813493
20
24.1316987298212
30
-6.35759999999999
 70
     32
  0
VERTEX
  8
MY3DLAYER
10
4.36254874907574
20
24.1396446609513
30
-6.35759999999999
 70
     32
  0
VERTEX
  8
MY3DLAYER
10
4.35460281794602
20
24.1500000000107
30
-6.35759999999999
 70
     32
  0
VERTEX
  8
MY3DLAYER
10
4.34960779682099
20
24.1620590477557
30
-6.35759999999999
 70
     32
  0
VERTEX
  8
MY3DLAYER
10
4.34790408813564
20
24.1750000000108
30
-6.35759999999999
 70
     32
  0
VERTEX
  8
MY3DLAYER
10
4.3496077968214
20
24.187940952266
30
-6.35759999999999
 70
     32
  0
VERTEX
  8
MY3DLAYER
10
4.35460281794684
20
24.2000000000108
30
-6.35759999999999
 70
     32
  0
VERTEX
  8
MY3DLAYER
10
4.3625487490769
20
24.2103553390699
30
-6.35759999999999
 70
     32
  0
VERTEX
  8
MY3DLAYER
10
4.37290408813636
20
24.2183012701997
30
-6.35759999999999
 70
     32
  0
VERTEX
  8
MY3DLAYER
10
4.38496313588131
20
24.2232962913247
30
-6.35759999999999
 70
     32
  0
VERTEX
  8
MY3DLAYER
10
4.39790408813647
20
24.22500000001
30
-6.35759999999999
 70
     32
  0
VERTEX
  8
MY3DLAYER
10
4.39790408814495
20
24.6350000000137
30
-6.35759999999999
 70
     32
  0
VERTEX
  8
MY3DLAYER
10
4.38496313588986
20
24.6367037086996
30
-6.35759999999999
 70
     32
  0
VERTEX
  8
MY3DLAYER
10
4.37290408814511
20
24.6416987298251
30
-6.35759999999999
 70
     32
  0
VERTEX
  8
MY3DLAYER
10
4.36254874908598
20
24.6496446609552
30
-6.35759999999999
 70
     32
  0
VERTEX
  8
MY3DLAYER
10
4.35460281795634
20
24.6600000000148
30
-6.35759999999999
 70
     32
  0
VERTEX
  8
MY3DLAYER
10
4.3496077968314
20
24.6720590477598
30
-6.35759999999999
 70
     32
  0
VERTEX
  8
MY3DLAYER
10
4.34790408814618
20
24.6850000000149
30
-6.35759999999999
 70
     32
  0
VERTEX
  8
MY3DLAYER
10
4.34960779683204
20
24.69794095227
30
-6.35759999999999
 70
     32
  0
VERTEX
  8
MY3DLAYER
10
4.35460281795757
20
24.7100000000148
30
-6.35759999999999
 70
     32
  0
VERTEX
  8
MY3DLAYER
10
4.36254874908773
20
24.7203553390739
30
-6.35759999999999
 70
     32
  0
VERTEX
  8
MY3DLAYER
10
4.37290408814725
20
24.7283012702035
30
-6.35759999999999
 70
     32
  0
VERTEX
  8
MY3DLAYER
10
4.38496313589225
20
24.7332962913285
30
-6.35759999999999
 70
     32
  0
VERTEX
  8
MY3DLAYER
10
4.39790408814742
20
24.7350000000137
30
-6.35759999999999
 70
     32
  0
VERTEX
  8
MY3DLAYER
10
4.4108450404025
20
24.7332962913278
30
-6.35759999999999
 70
     32
  0
VERTEX
  8
MY3DLAYER
10
4.42290408814725
20
24.7283012702023
30
-6.35759999999999
 70
     32
  0
VERTEX
  8
MY3DLAYER
10
4.43325942720639
20
24.7203553390721
30
-6.35759999999999
 70
     32
  0
VERTEX
  8
MY3DLAYER
10
4.44120535833602
20
24.7100000000126
30
-6.35759999999999
 70
     32
  0
VERTEX
  8
MY3DLAYER
10
4.79627577389673
20
24.9150000000042
30
-6.35759999999999
 70
     32
  0
VERTEX
  8
MY3DLAYER
10
4.79128075277189
20
24.9270590477492
30
-6.35759999999999
 70
     32
  0
VERTEX
  8
MY3DLAYER
10
4.78957704408676
20
24.9400000000044
30
-6.35759999999999
 70
     32
  0
VERTEX
  8
MY3DLAYER
10
4.79128075277275
20
24.9529409522595
30
-6.35759999999999
 70
     32
  0
VERTEX
  8
MY3DLAYER
10
4.79627577389838
20
24.9650000000042
30
-6.35759999999999
 70
     32
  0
VERTEX
  8
MY3DLAYER
10
4.8042217050286
20
24.9753553390632
30
-6.35759999999999
 70
     32
  0
VERTEX
  8
MY3DLAYER
10
4.81457704408819
20
24.9833012701928
30
-6.35759999999999
 70
     32
  0
VERTEX
  8
MY3DLAYER
10
4.82663609183324
20
24.9882962913176
30
-6.35759999999999
 70
     32
  0
VERTEX
  8
MY3DLAYER
10
4.83957704408842
20
24.9900000000027
30
-6.35759999999999
 70
     32
  0
VERTEX
  8
MY3DLAYER
10
4.85251799634348
20
24.9882962913168
30
-6.35759999999999
 70
     32
  0
VERTEX
  8
MY3DLAYER
10
4.8645770440882
20
24.9833012701911
30
-6.35759999999999
 70
     32
  0
VERTEX
  8
MY3DLAYER
10
4.87493238314727
20
24.9753553390609
30
-6.35759999999999
 70
     32
  0
VERTEX
  8
MY3DLAYER
10
4.88287831427681
20
24.9650000000013
30
-6.35759999999999
 70
     32
  0
VERTEX
  8
MY3DLAYER
10
4.88787333540166
20
24.9529409522563
30
-6.35759999999999
 70
     32
  0
VERTEX
  8
MY3DLAYER
10
4.88957704408677
20
24.9400000000011
30
-6.35759999999999
 70
     32
  0
VERTEX
  8
MY3DLAYER
10
4.8878733354008
20
24.927059047746
30
-6.35759999999999
 70
     32
  0
VERTEX
  8
MY3DLAYER
10
4.88287831427517
20
24.9150000000013
30
-6.35759999999999
 70
     32
  0
VERTEX
  8
MY3DLAYER
10
5.23794872982233
20
24.7099999999863
30
-6.35759999999999
 70
     32
  0
VERTEX
  8
MY3DLAYER
10
5.24589466095264
20
24.7203553390453
30
-6.35759999999999
 70
     32
  0
VERTEX
  8
MY3DLAYER
10
5.2562500000123
20
24.7283012701748
30
-6.35759999999999
 70
     32
  0
VERTEX
  8
MY3DLAYER
10
5.26830904775739
20
24.7332962912995
30
-6.35759999999999
 70
     32
  0
VERTEX
  8
MY3DLAYER
10
5.28125000001258
20
24.7349999999845
30
-6.35759999999999
 70
     32
  0
VERTEX
  8
MY3DLAYER
10
5.29419095226764
20
24.7332962912985
30
-6.35759999999999
 70
     32
  0
VERTEX
  8
MY3DLAYER
10
5.30625000001231
20
24.7283012701727
30
-6.35759999999999
 70
     32
  0
VERTEX
  8
MY3DLAYER
10
5.3166053390713
20
24.7203553390424
30
-6.35759999999999
 70
     32
  0
VERTEX
  8
MY3DLAYER
10
5.32455127020078
20
24.7099999999828
30
-6.35759999999999
 70
     32
  0
VERTEX
  8
MY3DLAYER
10
5.32954629132551
20
24.6979409522377
30
-6.35759999999999
 70
     32
  0
VERTEX
  8
MY3DLAYER
10
5.33125000001053
20
24.6849999999825
30
-6.35759999999999
 70
     32
  0
VERTEX
  8
MY3DLAYER
10
5.32954629132445
20
24.6720590477274
30
-6.35759999999999
 70
     32
  0
VERTEX
  8
MY3DLAYER
10
5.32455127019871
20
24.6599999999828
30
-6.35759999999999
 70
     32
  0
VERTEX
  8
MY3DLAYER
10
5.3166053390684
20
24.6496446609237
30
-6.35759999999999
 70
     32
  0
VERTEX
  8
MY3DLAYER
10
5.30625000000874
20
24.6416987297943
30
-6.35759999999999
 70
     32
  0
VERTEX
  8
MY3DLAYER
10
5.29419095226366
20
24.6367037086695
30
-6.35759999999999
 70
     32
  0
VERTEX
  8
MY3DLAYER
10
5.28125000000846
20
24.6349999999845
30
-6.35759999999999
 70
     32
  0
VERTEX
  8
MY3DLAYER
10
5.28124999999999
20
24.2250000000027
30
-6.35759999999999
 70
     32
  0
VERTEX
  8
MY3DLAYER
10
5.29419095225512
20
24.2232962913172
30
-6.35759999999999
 70
     32
  0
VERTEX
  8
MY3DLAYER
10
5.30625
20
24.218301270192
30
-6.35759999999999
 70
     32
  0
VERTEX
  8
MY3DLAYER
10
5.31660533905932
20
24.2103553390621
30
-6.35759999999999
 70
     32
  0
VERTEX
  8
MY3DLAYER
10
5.32455127018921
20
24.2000000000027
30
-6.35759999999999
 70
     32
  0
VERTEX
  8
MY3DLAYER
10
5.32954629131445
20
24.1879409522579
30
-6.35759999999999
 70
     32
  0
VERTEX
  8
MY3DLAYER
10
5.33125
20
24.1750000000028
30
-6.35759999999999
 70
     32
  0
VERTEX
  8
MY3DLAYER
10
5.32954629131445
20
24.1620590477476
30
-6.35759999999999
 70
     32
  0
VERTEX
  8
MY3DLAYER
10
5.32455127018922
20
24.1500000000028
30
-6.35759999999999
 70
     32
  0
VERTEX
  8
MY3DLAYER
10
5.31660533905933
20
24.1396446609434
30
-6.35759999999999
 70
     32
  0
VERTEX
  8
MY3DLAYER
10
5.30625
20
24.1316987298136
30
-6.35759999999999
 70
     32
  0
VERTEX
  8
MY3DLAYER
10
5.29419095225512
20
24.1267037086883
30
-6.35759999999999
 70
     32
  0
VERTEX
  8
MY3DLAYER
10
5.28124999999999
20
24.1250000000027
30
-6.35759999999999
 70
     32
  0
VERTEX
  8
MY3DLAYER
10
5.26830904774487
20
24.1267037086883
30
-6.35759999999999
 70
     32
  0
VERTEX
  8
MY3DLAYER
10
5.25624999999999
20
24.1316987298135
30
-6.35759999999999
 70
     32
  0
VERTEX
  8
MY3DLAYER
10
5.24589466094067
20
24.1396446609434
30
-6.35759999999999
 70
     32
  0
VERTEX
  8
MY3DLAYER
10
5.23794872981077
20
24.1500000000027
30
-6.35759999999999
 70
     32
  0
VERTEX
  8
MY3DLAYER
10
4.88287831425515
20
23.9450000000024
30
-6.35759999999999
 70
     32
  0
VERTEX
  8
MY3DLAYER
10
4.88787333538029
20
23.9329409522575
30
-6.35759999999999
 70
     32
  0
VERTEX
  8
MY3DLAYER
10
4.88957704406573
20
23.9200000000023
30
-6.35759999999999
 70
     32
  0
VERTEX
  8
MY3DLAYER
10
4.88787333538007
20
23.9070590477473
30
-6.35759999999999
 70
     32
  0
VERTEX
  8
MY3DLAYER
10
4.88287831425474
20
23.8950000000024
30
-6.35759999999999
 70
     32
  0
VERTEX
  8
MY3DLAYER
10
4.87493238312476
20
23.8846446609431
30
-6.35759999999999
 70
     32
  0
VERTEX
  8
MY3DLAYER
10
4.86457704406538
20
23.8766987298133
30
-6.35759999999999
 70
     32
  0
VERTEX
  8
MY3DLAYER
10
4.85251799632045
20
23.8717037086882
30
-6.35759999999999
 70
     32
  0
VERTEX
  8
MY3DLAYER
10
4.83957704406532
20
23.8700000000028
30
-6.35759999999999
 70
     32
  0
VERTEX
  8
MY3DLAYER
10
4.8266360918102
20
23.8717037086884
30
-6.35759999999999
 70
     32
  0
VERTEX
  8
MY3DLAYER
10
4.81457704406536
20
23.8766987298137
30
-6.35759999999999
 70
     32
  0
VERTEX
  8
MY3DLAYER
10
4.80422170500609
20
23.8846446609437
30
-6.35759999999999
 70
     32
  0
VERTEX
  8
MY3DLAYER
10
4.79627577387629
20
23.8950000000031
30
-6.35759999999999
 70
     32
  0
VERTEX
  8
MY3DLAYER
10
4.79128075275115
20
23.907059047748
30
-6.35759999999999
 70
     32
  0
VERTEX
  8
MY3DLAYER
10
4.78957704406571
20
23.9200000000032
30
-6.35759999999999
 70
     32
  0
VERTEX
  8
MY3DLAYER
10
4.79128075275137
20
23.9329409522583
30
-6.35759999999999
 70
     32
  0
VERTEX
  8
MY3DLAYER
10
4.79627577387671
20
23.9450000000031
30
-6.35759999999999
 70
     32
  0
VERTEX
  8
MY3DLAYER
10
4.44120535832446
20
24.1500000000093
30
-6.35759999999999
 70
     32
  0
SEQEND
  0
POLYLINE
 8
Layer0
 66
     1
70
    8
 10
0.0
 20
 0.0
 30
0.0
  0
VERTEX
  8
MY3DLAYER
10
2.76622422614033
20
22.2500000000184
30
-6.35759999999999
 70
     32
  0
VERTEX
  8
MY3DLAYER
10
2.77121924726518
20
22.2379409522733
30
-6.35759999999999
 70
     32
  0
VERTEX
  8
MY3DLAYER
10
2.77292295595029
20
22.2250000000182
30
-6.35759999999999
 70
     32
  0
VERTEX
  8
MY3DLAYER
10
2.77121924726432
20
22.2120590477631
30
-6.35759999999999
 70
     32
  0
VERTEX
  8
MY3DLAYER
10
2.76622422613869
20
22.2000000000184
30
-6.35759999999999
 70
     32
  0
VERTEX
  8
MY3DLAYER
10
3.12129464168585
20
21.9950000000033
30
-6.3576
 70
     32
  0
VERTEX
  8
MY3DLAYER
10
3.12924057281615
20
22.0053553390623
30
-6.3576
 70
     32
  0
VERTEX
  8
MY3DLAYER
10
3.13959591187582
20
22.0133012701918
30
-6.35759999999999
 70
     32
  0
VERTEX
  8
MY3DLAYER
10
3.1516549596209
20
22.0182962913166
30
-6.35759999999999
 70
     32
  0
VERTEX
  8
MY3DLAYER
10
3.16459591187609
20
22.0200000000016
30
-6.35759999999999
 70
     32
  0
VERTEX
  8
MY3DLAYER
10
3.17753686413116
20
22.0182962913155
30
-6.35759999999999
 70
     32
  0
VERTEX
  8
MY3DLAYER
10
3.18959591187582
20
22.0133012701898
30
-6.35759999999999
 70
     32
  0
VERTEX
  8
MY3DLAYER
10
3.19995125093482
20
22.0053553390594
30
-6.35759999999999
 70
     32
  0
VERTEX
  8
MY3DLAYER
10
3.2078971820643
20
21.9949999999998
30
-6.35759999999999
 70
     32
  0
VERTEX
  8
MY3DLAYER
10
3.21289220318903
20
21.9829409522547
30
-6.35759999999999
 70
     32
  0
VERTEX
  8
MY3DLAYER
10
3.21459591187405
20
21.9699999999995
30
-6.35759999999999
 70
     32
  0
VERTEX
  8
MY3DLAYER
10
3.21289220318797
20
21.9570590477445
30
-6.35759999999999
 70
     32
  0
VERTEX
  8
MY3DLAYER
10
3.20789718206223
20
21.9449999999998
30
-6.35759999999999
 70
     32
  0
VERTEX
  8
MY3DLAYER
10
3.19995125093191
20
21.9346446609408
30
-6.35759999999999
 70
     32
  0
VERTEX
  8
MY3DLAYER
10
3.18959591187226
20
21.9266987298113
30
-6.35759999999999
 70
     32
  0
VERTEX
  8
MY3DLAYER
10
3.17753686412718
20
21.9217037086866
30
-6.35759999999999
 70
     32
  0
VERTEX
  8
MY3DLAYER
10
3.16459591187198
20
21.9200000000016
30
-6.35759999999999
 70
     32
  0
VERTEX
  8
MY3DLAYER
10
3.1645959118635
20
21.5100000000198
30
-6.35759999999999
 70
     32
  0
VERTEX
  8
MY3DLAYER
10
3.17753686411863
20
21.5082962913342
30
-6.35759999999999
 70
     32
  0
VERTEX
  8
MY3DLAYER
10
3.18959591186352
20
21.503301270209
30
-6.35759999999999
 70
     32
  0
VERTEX
  8
MY3DLAYER
10
3.19995125092284
20
21.4953553390791
30
-6.35759999999999
 70
     32
  0
VERTEX
  8
MY3DLAYER
10
3.20789718205273
20
21.4850000000198
30
-6.35759999999999
 70
     32
  0
VERTEX
  8
MY3DLAYER
10
3.21289220317796
20
21.4729409522749
30
-6.35759999999999
 70
     32
  0
VERTEX
  8
MY3DLAYER
10
3.21459591186352
20
21.4600000000198
30
-6.35759999999999
 70
     32
  0
VERTEX
  8
MY3DLAYER
10
3.21289220317797
20
21.4470590477647
30
-6.35759999999999
 70
     32
  0
VERTEX
  8
MY3DLAYER
10
3.20789718205274
20
21.4350000000198
30
-6.35759999999999
 70
     32
  0
VERTEX
  8
MY3DLAYER
10
3.19995125092284
20
21.4246446609605
30
-6.35759999999999
 70
     32
  0
VERTEX
  8
MY3DLAYER
10
3.18959591186351
20
21.4166987298306
30
-6.35759999999999
 70
     32
  0
VERTEX
  8
MY3DLAYER
10
3.17753686411864
20
21.4117037087053
30
-6.35759999999999
 70
     32
  0
VERTEX
  8
MY3DLAYER
10
3.16459591186351
20
21.4100000000198
30
-6.35759999999999
 70
     32
  0
VERTEX
  8
MY3DLAYER
10
3.15165495960839
20
21.4117037087053
30
-6.35759999999999
 70
     32
  0
VERTEX
  8
MY3DLAYER
10
3.13959591186351
20
21.4166987298306
30
-6.35759999999999
 70
     32
  0
VERTEX
  8
MY3DLAYER
10
3.12924057280418
20
21.4246446609605
30
-6.35759999999999
 70
     32
  0
VERTEX
  8
MY3DLAYER
10
3.12129464167429
20
21.4350000000198
30
-6.35759999999999
 70
     32
  0
VERTEX
  8
MY3DLAYER
10
2.76622422611866
20
21.2300000000195
30
-6.35759999999999
 70
     32
  0
VERTEX
  8
MY3DLAYER
10
2.7712192472438
20
21.2179409522745
30
-6.35759999999999
 70
     32
  0
VERTEX
  8
MY3DLAYER
10
2.77292295592924
20
21.2050000000194
30
-6.35759999999999
 70
     32
  0
VERTEX
  8
MY3DLAYER
10
2.77121924724358
20
21.1920590477643
30
-6.35759999999999
 70
     32
  0
VERTEX
  8
MY3DLAYER
10
2.76622422611826
20
21.1800000000194
30
-6.35759999999999
 70
     32
  0
VERTEX
  8
MY3DLAYER
10
2.75827829498827
20
21.1696446609602
30
-6.35759999999999
 70
     32
  0
VERTEX
  8
MY3DLAYER
10
2.74792295592889
20
21.1616987298304
30
-6.35759999999999
 70
     32
  0
VERTEX
  8
MY3DLAYER
10
2.73586390818397
20
21.1567037087052
30
-6.35759999999999
 70
     32
  0
VERTEX
  8
MY3DLAYER
10
2.72292295592884
20
21.1550000000198
30
-6.35759999999999
 70
     32
  0
VERTEX
  8
MY3DLAYER
10
2.70998200367372
20
21.1567037087054
30
-6.35759999999999
 70
     32
  0
VERTEX
  8
MY3DLAYER
10
2.69792295592887
20
21.1616987298308
30
-6.35759999999999
 70
     32
  0
VERTEX
  8
MY3DLAYER
10
2.68756761686961
20
21.1696446609607
30
-6.35759999999999
 70
     32
  0
VERTEX
  8
MY3DLAYER
10
2.6796216857398
20
21.1800000000201
30
-6.35759999999999
 70
     32
  0
VERTEX
  8
MY3DLAYER
10
2.67462666461467
20
21.1920590477651
30
-6.35759999999999
 70
     32
  0
VERTEX
  8
MY3DLAYER
10
2.67292295592922
20
21.2050000000202
30
-6.35759999999999
 70
     32
  0
VERTEX
  8
MY3DLAYER
10
2.67462666461488
20
21.2179409522753
30
-6.35759999999999
 70
     32
  0
VERTEX
  8
MY3DLAYER
10
2.67962168574022
20
21.2300000000202
30
-6.35759999999999
 70
     32
  0
VERTEX
  8
MY3DLAYER
10
2.32455127018797
20
21.4350000000264
30
-6.3576
 70
     32
  0
VERTEX
  8
MY3DLAYER
10
2.31660533905792
20
21.4246446609672
30
-6.3576
 70
     32
  0
VERTEX
  8
MY3DLAYER
10
2.30624999999845
20
21.4166987298375
30
-6.3576
 70
     32
  0
VERTEX
  8
MY3DLAYER
10
2.2941909522535
20
21.4117037087124
30
-6.3576
 70
     32
  0
VERTEX
  8
MY3DLAYER
10
2.28124999999834
20
21.4100000000271
30
-6.35759999999999
 70
     32
  0
VERTEX
  8
MY3DLAYER
10
2.26830904774325
20
21.4117037087128
30
-6.35759999999999
 70
     32
  0
VERTEX
  8
MY3DLAYER
10
2.25624999999845
20
21.4166987298382
30
-6.35759999999999
 70
     32
  0
VERTEX
  8
MY3DLAYER
10
2.24589466093926
20
21.4246446609683
30
-6.35759999999999
 70
     32
  0
VERTEX
  8
MY3DLAYER
10
2.23794872980954
20
21.4350000000278
30
-6.35759999999999
 70
     32
  0
VERTEX
  8
MY3DLAYER
10
2.23295370868451
20
21.4470590477727
30
-6.35759999999999
 70
     32
  0
VERTEX
  8
MY3DLAYER
10
2.23124999999916
20
21.4600000000279
30
-6.35759999999999
 70
     32
  0
VERTEX
  8
MY3DLAYER
10
2.23295370868492
20
21.472940952283
30
-6.35759999999999
 70
     32
  0
VERTEX
  8
MY3DLAYER
10
2.23794872981036
20
21.4850000000278
30
-6.35759999999999
 70
     32
  0
VERTEX
  8
MY3DLAYER
10
2.24589466094042
20
21.495355339087
30
-6.35759999999999
 70
     32
  0
VERTEX
  8
MY3DLAYER
10
2.25624999999987
20
21.5033012702167
30
-6.35759999999999
 70
     32
  0
VERTEX
  8
MY3DLAYER
10
2.26830904774483
20
21.5082962913417
30
-6.35759999999999
 70
     32
  0
VERTEX
  8
MY3DLAYER
10
2.28124999999999
20
21.5100000000271
30
-6.35759999999999
 70
     32
  0
VERTEX
  8
MY3DLAYER
10
2.28125000000846
20
21.9200000000307
30
-6.3576
 70
     32
  0
VERTEX
  8
MY3DLAYER
10
2.26830904775338
20
21.9217037087166
30
-6.3576
 70
     32
  0
VERTEX
  8
MY3DLAYER
10
2.25625000000863
20
21.9266987298421
30
-6.3576
 70
     32
  0
VERTEX
  8
MY3DLAYER
10
2.2458946609495
20
21.9346446609723
30
-6.3576
 70
     32
  0
VERTEX
  8
MY3DLAYER
10
2.23794872981986
20
21.9450000000318
30
-6.3576
 70
     32
  0
VERTEX
  8
MY3DLAYER
10
2.23295370869492
20
21.9570590477768
30
-6.3576
 70
     32
  0
VERTEX
  8
MY3DLAYER
10
2.2312500000097
20
21.970000000032
30
-6.3576
 70
     32
  0
VERTEX
  8
MY3DLAYER
10
2.23295370869556
20
21.9829409522871
30
-6.3576
 70
     32
  0
VERTEX
  8
MY3DLAYER
10
2.23794872982109
20
21.9950000000318
30
-6.3576
 70
     32
  0
VERTEX
  8
MY3DLAYER
10
2.24589466095124
20
22.0053553390909
30
-6.3576
 70
     32
  0
VERTEX
  8
MY3DLAYER
10
2.25625000001076
20
22.0133012702206
30
-6.3576
 70
     32
  0
VERTEX
  8
MY3DLAYER
10
2.26830904775576
20
22.0182962913455
30
-6.3576
 70
     32
  0
VERTEX
  8
MY3DLAYER
10
2.28125000001094
20
22.0200000000307
30
-6.3576
 70
     32
  0
VERTEX
  8
MY3DLAYER
10
2.29419095226602
20
22.0182962913449
30
-6.3576
 70
     32
  0
VERTEX
  8
MY3DLAYER
10
2.30625000001077
20
22.0133012702193
30
-6.3576
 70
     32
  0
VERTEX
  8
MY3DLAYER
10
2.31660533906991
20
22.0053553390892
30
-6.3576
 70
     32
  0
VERTEX
  8
MY3DLAYER
10
2.32455127019954
20
21.9950000000297
30
-6.3576
 70
     32
  0
VERTEX
  8
MY3DLAYER
10
2.67962168576025
20
22.2000000000212
30
-6.3576
 70
     32
  0
VERTEX
  8
MY3DLAYER
10
2.6746266646354
20
22.2120590477663
30
-6.3576
 70
     32
  0
VERTEX
  8
MY3DLAYER
10
2.67292295595028
20
22.2250000000214
30
-6.3576
 70
     32
  0
VERTEX
  8
MY3DLAYER
10
2.67462666463626
20
22.2379409522765
30
-6.3576
 70
     32
  0
VERTEX
  8
MY3DLAYER
10
2.67962168576189
20
22.2500000000212
30
-6.3576
 70
     32
  0
VERTEX
  8
MY3DLAYER
10
2.68756761689212
20
22.2603553390803
30
-6.3576
 70
     32
  0
VERTEX
  8
MY3DLAYER
10
2.69792295595171
20
22.2683012702098
30
-6.3576
 70
     32
  0
VERTEX
  8
MY3DLAYER
10
2.70998200369676
20
22.2732962913347
30
-6.3576
 70
     32
  0
VERTEX
  8
MY3DLAYER
10
2.72292295595193
20
22.2750000000198
30
-6.3576
 70
     32
  0
VERTEX
  8
MY3DLAYER
10
2.735863908207
20
22.2732962913338
30
-6.35759999999999
 70
     32
  0
VERTEX
  8
MY3DLAYER
10
2.74792295595171
20
22.2683012702082
30
-6.35759999999999
 70
     32
  0
VERTEX
  8
MY3DLAYER
10
2.75827829501079
20
22.2603553390779
30
-6.35759999999999
 70
     32
  0
VERTEX
  8
MY3DLAYER
10
2.76622422614033
20
22.2500000000184
30
-6.35759999999999
 70
     32
  0
SEQEND
  0
POLYLINE
 8
Layer0
 66
     1
70
    8
 10
0.0
 20
 0.0
 30
0.0
  0
VERTEX
  8
MY3DLAYER
10
5.25625
20
21.4166987298044
30
-6.35759999999999
 70
     32
  0
VERTEX
  8
MY3DLAYER
10
5.24589466094067
20
21.4246446609343
30
-6.35759999999999
 70
     32
  0
VERTEX
  8
MY3DLAYER
10
5.23794872981077
20
21.4349999999936
30
-6.35759999999999
 70
     32
  0
VERTEX
  8
MY3DLAYER
10
4.88287831425515
20
21.2299999999933
30
-6.35759999999999
 70
     32
  0
VERTEX
  8
MY3DLAYER
10
4.88787333538029
20
21.2179409522483
30
-6.35759999999999
 70
     32
  0
VERTEX
  8
MY3DLAYER
10
4.88957704406573
20
21.2049999999932
30
-6.35759999999999
 70
     32
  0
VERTEX
  8
MY3DLAYER
10
4.88787333538007
20
21.1920590477381
30
-6.35759999999999
 70
     32
  0
VERTEX
  8
MY3DLAYER
10
4.88287831425474
20
21.1799999999933
30
-6.35759999999999
 70
     32
  0
VERTEX
  8
MY3DLAYER
10
4.87493238312476
20
21.169644660934
30
-6.35759999999999
 70
     32
  0
VERTEX
  8
MY3DLAYER
10
4.86457704406538
20
21.1616987298042
30
-6.35759999999999
 70
     32
  0
VERTEX
  8
MY3DLAYER
10
4.85251799632046
20
21.156703708679
30
-6.35759999999999
 70
     32
  0
VERTEX
  8
MY3DLAYER
10
4.83957704406532
20
21.1549999999936
30
-6.35759999999999
 70
     32
  0
VERTEX
  8
MY3DLAYER
10
4.8266360918102
20
21.1567037086793
30
-6.35759999999999
 70
     32
  0
VERTEX
  8
MY3DLAYER
10
4.81457704406536
20
21.1616987298046
30
-6.35759999999999
 70
     32
  0
VERTEX
  8
MY3DLAYER
10
4.8042217050061
20
21.1696446609346
30
-6.35759999999999
 70
     32
  0
VERTEX
  8
MY3DLAYER
10
4.79627577387629
20
21.179999999994
30
-6.35759999999999
 70
     32
  0
VERTEX
  8
MY3DLAYER
10
4.79128075275116
20
21.1920590477389
30
-6.35759999999999
 70
     32
  0
VERTEX
  8
MY3DLAYER
10
4.78957704406571
20
21.204999999994
30
-6.35759999999999
 70
     32
  0
VERTEX
  8
MY3DLAYER
10
4.79128075275137
20
21.2179409522491
30
-6.35759999999999
 70
     32
  0
VERTEX
  8
MY3DLAYER
10
4.79627577387671
20
21.229999999994
30
-6.35759999999999
 70
     32
  0
VERTEX
  8
MY3DLAYER
10
4.44120535832446
20
21.4350000000002
30
-6.35759999999999
 70
     32
  0
VERTEX
  8
MY3DLAYER
10
4.43325942719441
20
21.424644660941
30
-6.35759999999999
 70
     32
  0
VERTEX
  8
MY3DLAYER
10
4.42290408813494
20
21.4166987298113
30
-6.35759999999999
 70
     32
  0
VERTEX
  8
MY3DLAYER
10
4.41084504038998
20
21.4117037086862
30
-6.35759999999999
 70
     32
  0
VERTEX
  8
MY3DLAYER
10
4.39790408813483
20
21.4100000000009
30
-6.35759999999999
 70
     32
  0
VERTEX
  8
MY3DLAYER
10
4.38496313587973
20
21.4117037086867
30
-6.35759999999999
 70
     32
  0
VERTEX
  8
MY3DLAYER
10
4.37290408813494
20
21.4166987298121
30
-6.35759999999999
 70
     32
  0
VERTEX
  8
MY3DLAYER
10
4.36254874907574
20
21.4246446609422
30
-6.35759999999999
 70
     32
  0
VERTEX
  8
MY3DLAYER
10
4.35460281794603
20
21.4350000000016
30
-6.35759999999999
 70
     32
  0
VERTEX
  8
MY3DLAYER
10
4.34960779682099
20
21.4470590477466
30
-6.35759999999999
 70
     32
  0
VERTEX
  8
MY3DLAYER
10
4.34790408813565
20
21.4600000000017
30
-6.35759999999999
 70
     32
  0
VERTEX
  8
MY3DLAYER
10
4.34960779682141
20
21.4729409522568
30
-6.35759999999999
 70
     32
  0
VERTEX
  8
MY3DLAYER
10
4.35460281794685
20
21.4850000000016
30
-6.35759999999999
 70
     32
  0
VERTEX
  8
MY3DLAYER
10
4.36254874907691
20
21.4953553390608
30
-6.35759999999999
 70
     32
  0
VERTEX
  8
MY3DLAYER
10
4.37290408813636
20
21.5033012701905
30
-6.35759999999999
 70
     32
  0
VERTEX
  8
MY3DLAYER
10
4.38496313588132
20
21.5082962913156
30
-6.35759999999999
 70
     32
  0
VERTEX
  8
MY3DLAYER
10
4.39790408813648
20
21.5100000000009
30
-6.35759999999999
 70
     32
  0
VERTEX
  8
MY3DLAYER
10
4.39790408814495
20
21.9200000000045
30
-6.35759999999999
 70
     32
  0
VERTEX
  8
MY3DLAYER
10
4.38496313588987
20
21.9217037086904
30
-6.35759999999999
 70
     32
  0
VERTEX
  8
MY3DLAYER
10
4.37290408814511
20
21.926698729816
30
-6.35759999999999
 70
     32
  0
VERTEX
  8
MY3DLAYER
10
4.36254874908598
20
21.9346446609461
30
-6.35759999999999
 70
     32
  0
VERTEX
  8
MY3DLAYER
10
4.35460281795635
20
21.9450000000056
30
-6.35759999999999
 70
     32
  0
VERTEX
  8
MY3DLAYER
10
4.34960779683141
20
21.9570590477506
30
-6.35759999999999
 70
     32
  0
VERTEX
  8
MY3DLAYER
10
4.34790408814619
20
21.9700000000058
30
-6.35759999999999
 70
     32
  0
VERTEX
  8
MY3DLAYER
10
4.34960779683205
20
21.9829409522609
30
-6.35759999999999
 70
     32
  0
VERTEX
  8
MY3DLAYER
10
4.35460281795758
20
21.9950000000056
30
-6.35759999999999
 70
     32
  0
VERTEX
  8
MY3DLAYER
10
4.36254874908773
20
22.0053553390648
30
-6.35759999999999
 70
     32
  0
VERTEX
  8
MY3DLAYER
10
4.37290408814725
20
22.0133012701944
30
-6.35759999999999
 70
     32
  0
VERTEX
  8
MY3DLAYER
10
4.38496313589225
20
22.0182962913193
30
-6.35759999999999
 70
     32
  0
VERTEX
  8
MY3DLAYER
10
4.39790408814742
20
22.0200000000046
30
-6.35759999999999
 70
     32
  0
VERTEX
  8
MY3DLAYER
10
4.4108450404025
20
22.0182962913187
30
-6.35759999999999
 70
     32
  0
VERTEX
  8
MY3DLAYER
10
4.42290408814726
20
22.0133012701932
30
-6.35759999999999
 70
     32
  0
VERTEX
  8
MY3DLAYER
10
4.43325942720639
20
22.005355339063
30
-6.35759999999999
 70
     32
  0
VERTEX
  8
MY3DLAYER
10
4.44120535833603
20
21.9950000000035
30
-6.35759999999999
 70
     32
  0
VERTEX
  8
MY3DLAYER
10
4.79627577389674
20
22.1999999999951
30
-6.35759999999999
 70
     32
  0
VERTEX
  8
MY3DLAYER
10
4.79128075277189
20
22.2120590477401
30
-6.35759999999999
 70
     32
  0
VERTEX
  8
MY3DLAYER
10
4.78957704408676
20
22.2249999999952
30
-6.35759999999999
 70
     32
  0
VERTEX
  8
MY3DLAYER
10
4.79128075277275
20
22.2379409522503
30
-6.35759999999999
 70
     32
  0
VERTEX
  8
MY3DLAYER
10
4.79627577389838
20
22.249999999995
30
-6.35759999999999
 70
     32
  0
VERTEX
  8
MY3DLAYER
10
4.80422170502861
20
22.2603553390541
30
-6.35759999999999
 70
     32
  0
VERTEX
  8
MY3DLAYER
10
4.81457704408819
20
22.2683012701836
30
-6.35759999999999
 70
     32
  0
VERTEX
  8
MY3DLAYER
10
4.82663609183324
20
22.2732962913085
30
-6.35759999999999
 70
     32
  0
VERTEX
  8
MY3DLAYER
10
4.83957704408842
20
22.2749999999936
30
-6.35759999999999
 70
     32
  0
VERTEX
  8
MY3DLAYER
10
4.85251799634349
20
22.2732962913076
30
-6.35759999999999
 70
     32
  0
VERTEX
  8
MY3DLAYER
10
4.8645770440882
20
22.268301270182
30
-6.35759999999999
 70
     32
  0
VERTEX
  8
MY3DLAYER
10
4.87493238314727
20
22.2603553390518
30
-6.35759999999999
 70
     32
  0
VERTEX
  8
MY3DLAYER
10
4.88287831427682
20
22.2499999999922
30
-6.35759999999999
 70
     32
  0
VERTEX
  8
MY3DLAYER
10
4.88787333540166
20
22.2379409522472
30
-6.35759999999999
 70
     32
  0
VERTEX
  8
MY3DLAYER
10
4.88957704408678
20
22.224999999992
30
-6.35759999999999
 70
     32
  0
VERTEX
  8
MY3DLAYER
10
4.8878733354008
20
22.2120590477369
30
-6.35759999999999
 70
     32
  0
VERTEX
  8
MY3DLAYER
10
4.88287831427517
20
22.1999999999922
30
-6.35759999999999
 70
     32
  0
VERTEX
  8
MY3DLAYER
10
5.23794872982234
20
21.9949999999772
30
-6.35759999999999
 70
     32
  0
VERTEX
  8
MY3DLAYER
10
5.24589466095264
20
22.0053553390362
30
-6.35759999999999
 70
     32
  0
VERTEX
  8
MY3DLAYER
10
5.25625000001231
20
22.0133012701656
30
-6.35759999999999
 70
     32
  0
VERTEX
  8
MY3DLAYER
10
5.26830904775739
20
22.0182962912904
30
-6.35759999999999
 70
     32
  0
VERTEX
  8
MY3DLAYER
10
5.28125000001258
20
22.0199999999754
30
-6.35759999999999
 70
     32
  0
VERTEX
  8
MY3DLAYER
10
5.29419095226764
20
22.0182962912893
30
-6.35759999999999
 70
     32
  0
VERTEX
  8
MY3DLAYER
10
5.30625000001231
20
22.0133012701636
30
-6.35759999999999
 70
     32
  0
VERTEX
  8
MY3DLAYER
10
5.3166053390713
20
22.0053553390333
30
-6.35759999999999
 70
     32
  0
VERTEX
  8
MY3DLAYER
10
5.32455127020078
20
21.9949999999736
30
-6.35759999999999
 70
     32
  0
VERTEX
  8
MY3DLAYER
10
5.32954629132552
20
21.9829409522285
30
-6.35759999999999
 70
     32
  0
VERTEX
  8
MY3DLAYER
10
5.33125000001054
20
21.9699999999733
30
-6.35759999999999
 70
     32
  0
VERTEX
  8
MY3DLAYER
10
5.32954629132446
20
21.9570590477183
30
-6.35759999999999
 70
     32
  0
VERTEX
  8
MY3DLAYER
10
5.32455127019871
20
21.9449999999736
30
-6.35759999999999
 70
     32
  0
VERTEX
  8
MY3DLAYER
10
5.3166053390684
20
21.9346446609146
30
-6.35759999999999
 70
     32
  0
VERTEX
  8
MY3DLAYER
10
5.30625000000874
20
21.9266987297852
30
-6.35759999999999
 70
     32
  0
VERTEX
  8
MY3DLAYER
10
5.29419095226366
20
21.9217037086604
30
-6.35759999999999
 70
     32
  0
VERTEX
  8
MY3DLAYER
10
5.28125000000847
20
21.9199999999754
30
-6.35759999999999
 70
     32
  0
VERTEX
  8
MY3DLAYER
10
5.28124999999999
20
21.5099999999936
30
-6.35759999999999
 70
     32
  0
VERTEX
  8
MY3DLAYER
10
5.29419095225512
20
21.5082962913081
30
-6.35759999999999
 70
     32
  0
VERTEX
  8
MY3DLAYER
10
5.30625
20
21.5033012701828
30
-6.35759999999999
 70
     32
  0
VERTEX
  8
MY3DLAYER
10
5.31660533905933
20
21.495355339053
30
-6.35759999999999
 70
     32
  0
VERTEX
  8
MY3DLAYER
10
5.32455127018922
20
21.4849999999936
30
-6.35759999999999
 70
     32
  0
VERTEX
  8
MY3DLAYER
10
5.32954629131445
20
21.4729409522487
30
-6.35759999999999
 70
     32
  0
VERTEX
  8
MY3DLAYER
10
5.33125
20
21.4599999999936
30
-6.35759999999999
 70
     32
  0
VERTEX
  8
MY3DLAYER
10
5.32954629131445
20
21.4470590477385
30
-6.35759999999999
 70
     32
  0
VERTEX
  8
MY3DLAYER
10
5.32455127018922
20
21.4349999999936
30
-6.35759999999999
 70
     32
  0
VERTEX
  8
MY3DLAYER
10
5.31660533905933
20
21.4246446609343
30
-6.35759999999999
 70
     32
  0
VERTEX
  8
MY3DLAYER
10
5.30625
20
21.4166987298044
30
-6.35759999999999
 70
     32
  0
VERTEX
  8
MY3DLAYER
10
5.29419095225512
20
21.4117037086792
30
-6.35759999999999
 70
     32
  0
VERTEX
  8
MY3DLAYER
10
5.28125
20
21.4099999999936
30
-6.35759999999999
 70
     32
  0
VERTEX
  8
MY3DLAYER
10
5.26830904774488
20
21.4117037086792
30
-6.35759999999999
 70
     32
  0
VERTEX
  8
MY3DLAYER
10
5.25625
20
21.4166987298044
30
-6.35759999999999
 70
     32
  0
SEQEND
  0
POLYLINE
 8
Layer0
 66
     1
70
    8
 10
0.0
 20
 0.0
 30
0.0
  0
VERTEX
  8
MY3DLAYER
10
4.39790408814495
20
19.2049999999954
30
-6.35759999999999
 70
     32
  0
VERTEX
  8
MY3DLAYER
10
4.38496313588987
20
19.2067037086813
30
-6.35759999999999
 70
     32
  0
VERTEX
  8
MY3DLAYER
10
4.37290408814512
20
19.2116987298068
30
-6.35759999999999
 70
     32
  0
VERTEX
  8
MY3DLAYER
10
4.36254874908598
20
19.219644660937
30
-6.35759999999999
 70
     32
  0
VERTEX
  8
MY3DLAYER
10
4.35460281795635
20
19.2299999999965
30
-6.35759999999999
 70
     32
  0
VERTEX
  8
MY3DLAYER
10
4.34960779683141
20
19.2420590477415
30
-6.35759999999999
 70
     32
  0
VERTEX
  8
MY3DLAYER
10
4.34790408814619
20
19.2549999999966
30
-6.35759999999999
 70
     32
  0
VERTEX
  8
MY3DLAYER
10
4.34960779683205
20
19.2679409522517
30
-6.35759999999999
 70
     32
  0
VERTEX
  8
MY3DLAYER
10
4.35460281795758
20
19.2799999999965
30
-6.35759999999999
 70
     32
  0
VERTEX
  8
MY3DLAYER
10
4.36254874908773
20
19.2903553390556
30
-6.35759999999999
 70
     32
  0
VERTEX
  8
MY3DLAYER
10
4.37290408814725
20
19.2983012701853
30
-6.35759999999999
 70
     32
  0
VERTEX
  8
MY3DLAYER
10
4.38496313589225
20
19.3032962913102
30
-6.35759999999999
 70
     32
  0
VERTEX
  8
MY3DLAYER
10
4.39790408814742
20
19.3049999999954
30
-6.35759999999999
 70
     32
  0
VERTEX
  8
MY3DLAYER
10
4.41084504040251
20
19.3032962913096
30
-6.35759999999999
 70
     32
  0
VERTEX
  8
MY3DLAYER
10
4.42290408814726
20
19.298301270184
30
-6.35759999999999
 70
     32
  0
VERTEX
  8
MY3DLAYER
10
4.43325942720639
20
19.2903553390539
30
-6.35759999999999
 70
     32
  0
VERTEX
  8
MY3DLAYER
10
4.44120535833603
20
19.2799999999944
30
-6.35759999999999
 70
     32
  0
VERTEX
  8
MY3DLAYER
10
4.79627577389674
20
19.4849999999859
30
-6.35759999999999
 70
     32
  0
VERTEX
  8
MY3DLAYER
10
4.79128075277189
20
19.4970590477309
30
-6.35759999999999
 70
     32
  0
VERTEX
  8
MY3DLAYER
10
4.78957704408677
20
19.5099999999861
30
-6.35759999999999
 70
     32
  0
VERTEX
  8
MY3DLAYER
10
4.79128075277275
20
19.5229409522412
30
-6.35759999999999
 70
     32
  0
VERTEX
  8
MY3DLAYER
10
4.79627577389838
20
19.5349999999859
30
-6.35759999999999
 70
     32
  0
VERTEX
  8
MY3DLAYER
10
4.80422170502861
20
19.545355339045
30
-6.35759999999999
 70
     32
  0
VERTEX
  8
MY3DLAYER
10
4.8145770440882
20
19.5533012701745
30
-6.35759999999999
 70
     32
  0
VERTEX
  8
MY3DLAYER
10
4.82663609183324
20
19.5582962912994
30
-6.35759999999999
 70
     32
  0
VERTEX
  8
MY3DLAYER
10
4.83957704408842
20
19.5599999999845
30
-6.35759999999999
 70
     32
  0
VERTEX
  8
MY3DLAYER
10
4.85251799634349
20
19.5582962912985
30
-6.35759999999999
 70
     32
  0
VERTEX
  8
MY3DLAYER
10
4.8645770440882
20
19.5533012701729
30
-6.35759999999999
 70
     32
  0
VERTEX
  8
MY3DLAYER
10
4.87493238314728
20
19.5453553390426
30
-6.35759999999999
 70
     32
  0
VERTEX
  8
MY3DLAYER
10
4.88287831427682
20
19.534999999983
30
-6.35759999999999
 70
     32
  0
VERTEX
  8
MY3DLAYER
10
4.88787333540166
20
19.522940952238
30
-6.35759999999999
 70
     32
  0
VERTEX
  8
MY3DLAYER
10
4.88957704408678
20
19.5099999999828
30
-6.35759999999999
 70
     32
  0
VERTEX
  8
MY3DLAYER
10
4.88787333540081
20
19.4970590477278
30
-6.35759999999999
 70
     32
  0
VERTEX
  8
MY3DLAYER
10
4.88287831427517
20
19.4849999999831
30
-6.35759999999999
 70
     32
  0
VERTEX
  8
MY3DLAYER
10
5.23794872982234
20
19.279999999968
30
-6.35759999999999
 70
     32
  0
VERTEX
  8
MY3DLAYER
10
5.24589466095264
20
19.290355339027
30
-6.35759999999999
 70
     32
  0
VERTEX
  8
MY3DLAYER
10
5.25625000001231
20
19.2983012701565
30
-6.35759999999999
 70
     32
  0
VERTEX
  8
MY3DLAYER
10
5.26830904775739
20
19.3032962912812
30
-6.35759999999999
 70
     32
  0
VERTEX
  8
MY3DLAYER
10
5.28125000001258
20
19.3049999999663
30
-6.35759999999999
 70
     32
  0
VERTEX
  8
MY3DLAYER
10
5.29419095226764
20
19.3032962912802
30
-6.35759999999999
 70
     32
  0
VERTEX
  8
MY3DLAYER
10
5.30625000001231
20
19.2983012701545
30
-6.35759999999999
 70
     32
  0
VERTEX
  8
MY3DLAYER
10
5.31660533907131
20
19.2903553390241
30
-6.35759999999999
 70
     32
  0
VERTEX
  8
MY3DLAYER
10
5.32455127020079
20
19.2799999999645
30
-6.35759999999999
 70
     32
  0
VERTEX
  8
MY3DLAYER
10
5.32954629132552
20
19.2679409522194
30
-6.35759999999999
 70
     32
  0
VERTEX
  8
MY3DLAYER
10
5.33125000001054
20
19.2549999999642
30
-6.35759999999999
 70
     32
  0
VERTEX
  8
MY3DLAYER
10
5.32954629132446
20
19.2420590477092
30
-6.35759999999999
 70
     32
  0
VERTEX
  8
MY3DLAYER
10
5.32455127019871
20
19.2299999999645
30
-6.35759999999999
 70
     32
  0
VERTEX
  8
MY3DLAYER
10
5.3166053390684
20
19.2196446609055
30
-6.35759999999999
 70
     32
  0
VERTEX
  8
MY3DLAYER
10
5.30625000000875
20
19.211698729776
30
-6.35759999999999
 70
     32
  0
VERTEX
  8
MY3DLAYER
10
5.29419095226366
20
19.2067037086513
30
-6.35759999999999
 70
     32
  0
VERTEX
  8
MY3DLAYER
10
5.28125000000847
20
19.2049999999663
30
-6.35759999999999
 70
     32
  0
VERTEX
  8
MY3DLAYER
10
5.28124999999999
20
18.7949999999845
30
-6.35759999999999
 70
     32
  0
VERTEX
  8
MY3DLAYER
10
5.29419095225512
20
18.7932962912989
30
-6.35759999999999
 70
     32
  0
VERTEX
  8
MY3DLAYER
10
5.30625
20
18.7883012701737
30
-6.35759999999999
 70
     32
  0
VERTEX
  8
MY3DLAYER
10
5.31660533905933
20
18.7803553390438
30
-6.35759999999999
 70
     32
  0
VERTEX
  8
MY3DLAYER
10
5.32455127018921
20
18.7699999999845
30
-6.35759999999999
 70
     32
  0
VERTEX
  8
MY3DLAYER
10
5.32954629131445
20
18.7579409522396
30
-6.35759999999999
 70
     32
  0
VERTEX
  8
MY3DLAYER
10
5.33125
20
18.7449999999845
30
-6.35759999999999
 70
     32
  0
VERTEX
  8
MY3DLAYER
10
5.32954629131445
20
18.7320590477294
30
-6.35759999999999
 70
     32
  0
VERTEX
  8
MY3DLAYER
10
5.32455127018922
20
18.7199999999845
30
-6.35759999999999
 70
     32
  0
VERTEX
  8
MY3DLAYER
10
5.31660533905933
20
18.7096446609252
30
-6.35759999999999
 70
     32
  0
VERTEX
  8
MY3DLAYER
10
5.30625
20
18.7016987297953
30
-6.35759999999999
 70
     32
  0
VERTEX
  8
MY3DLAYER
10
5.29419095225512
20
18.69670370867
30
-6.35759999999999
 70
     32
  0
VERTEX
  8
MY3DLAYER
10
5.28124999999999
20
18.6949999999845
30
-6.35759999999999
 70
     32
  0
VERTEX
  8
MY3DLAYER
10
5.26830904774487
20
18.69670370867
30
-6.35759999999999
 70
     32
  0
VERTEX
  8
MY3DLAYER
10
5.25624999999999
20
18.7016987297953
30
-6.35759999999999
 70
     32
  0
VERTEX
  8
MY3DLAYER
10
5.24589466094067
20
18.7096446609252
30
-6.35759999999999
 70
     32
  0
VERTEX
  8
MY3DLAYER
10
5.23794872981077
20
18.7199999999845
30
-6.35759999999999
 70
     32
  0
VERTEX
  8
MY3DLAYER
10
4.88287831425514
20
18.5149999999841
30
-6.35759999999999
 70
     32
  0
VERTEX
  8
MY3DLAYER
10
4.88787333538029
20
18.5029409522392
30
-6.35759999999999
 70
     32
  0
VERTEX
  8
MY3DLAYER
10
4.88957704406572
20
18.4899999999841
30
-6.35759999999999
 70
     32
  0
VERTEX
  8
MY3DLAYER
10
4.88787333538007
20
18.477059047729
30
-6.35759999999999
 70
     32
  0
VERTEX
  8
MY3DLAYER
10
4.88287831425474
20
18.4649999999841
30
-6.35759999999999
 70
     32
  0
VERTEX
  8
MY3DLAYER
10
4.87493238312476
20
18.4546446609249
30
-6.35759999999999
 70
     32
  0
VERTEX
  8
MY3DLAYER
10
4.86457704406537
20
18.4466987297951
30
-6.35759999999999
 70
     32
  0
VERTEX
  8
MY3DLAYER
10
4.85251799632045
20
18.4417037086699
30
-6.35759999999999
 70
     32
  0
VERTEX
  8
MY3DLAYER
10
4.83957704406532
20
18.4399999999845
30
-6.35759999999999
 70
     32
  0
VERTEX
  8
MY3DLAYER
10
4.8266360918102
20
18.4417037086701
30
-6.35759999999999
 70
     32
  0
VERTEX
  8
MY3DLAYER
10
4.81457704406536
20
18.4466987297955
30
-6.35759999999999
 70
     32
  0
VERTEX
  8
MY3DLAYER
10
4.80422170500609
20
18.4546446609254
30
-6.35759999999999
 70
     32
  0
VERTEX
  8
MY3DLAYER
10
4.79627577387629
20
18.4649999999848
30
-6.35759999999999
 70
     32
  0
VERTEX
  8
MY3DLAYER
10
4.79128075275115
20
18.4770590477297
30
-6.35759999999999
 70
     32
  0
VERTEX
  8
MY3DLAYER
10
4.7895770440657
20
18.4899999999849
30
-6.35759999999999
 70
     32
  0
VERTEX
  8
MY3DLAYER
10
4.79128075275136
20
18.50294095224
30
-6.35759999999999
 70
     32
  0
VERTEX
  8
MY3DLAYER
10
4.79627577387671
20
18.5149999999849
30
-6.35759999999999
 70
     32
  0
VERTEX
  8
MY3DLAYER
10
4.44120535832446
20
18.7199999999911
30
-6.35759999999999
 70
     32
  0
VERTEX
  8
MY3DLAYER
10
4.4332594271944
20
18.7096446609319
30
-6.35759999999999
 70
     32
  0
VERTEX
  8
MY3DLAYER
10
4.42290408813494
20
18.7016987298021
30
-6.35759999999999
 70
     32
  0
VERTEX
  8
MY3DLAYER
10
4.41084504038998
20
18.6967037086771
30
-6.35759999999999
 70
     32
  0
VERTEX
  8
MY3DLAYER
10
4.39790408813483
20
18.6949999999918
30
-6.35759999999999
 70
     32
  0
VERTEX
  8
MY3DLAYER
10
4.38496313587973
20
18.6967037086775
30
-6.35759999999999
 70
     32
  0
VERTEX
  8
MY3DLAYER
10
4.37290408813493
20
18.7016987298029
30
-6.35759999999999
 70
     32
  0
VERTEX
  8
MY3DLAYER
10
4.36254874907574
20
18.709644660933
30
-6.35759999999999
 70
     32
  0
VERTEX
  8
MY3DLAYER
10
4.35460281794602
20
18.7199999999925
30
-6.35759999999999
 70
     32
  0
VERTEX
  8
MY3DLAYER
10
4.34960779682099
20
18.7320590477374
30
-6.35759999999999
 70
     32
  0
VERTEX
  8
MY3DLAYER
10
4.34790408813564
20
18.7449999999926
30
-6.35759999999999
 70
     32
  0
VERTEX
  8
MY3DLAYER
10
4.3496077968214
20
18.7579409522477
30
-6.35759999999999
 70
     32
  0
VERTEX
  8
MY3DLAYER
10
4.35460281794684
20
18.7699999999925
30
-6.35759999999999
 70
     32
  0
VERTEX
  8
MY3DLAYER
10
4.36254874907691
20
18.7803553390517
30
-6.35759999999999
 70
     32
  0
VERTEX
  8
MY3DLAYER
10
4.37290408813636
20
18.7883012701814
30
-6.35759999999999
 70
     32
  0
VERTEX
  8
MY3DLAYER
10
4.38496313588132
20
18.7932962913064
30
-6.35759999999999
 70
     32
  0
VERTEX
  8
MY3DLAYER
10
4.39790408813648
20
18.7949999999918
30
-6.35759999999999
 70
     32
  0
VERTEX
  8
MY3DLAYER
10
4.39790408814495
20
19.2049999999954
30
-6.35759999999999
 70
     32
  0
SEQEND
  0
POLYLINE
 8
Layer0
 66
     1
70
    8
 10
0.0
 20
 0.0
 30
0.0
  0
VERTEX
  8
MY3DLAYER
10
2.70998200369676
20
19.5582962913256
30
-6.35759999999999
 70
     32
  0
VERTEX
  8
MY3DLAYER
10
2.72292295595193
20
19.5600000000107
30
-6.35759999999999
 70
     32
  0
VERTEX
  8
MY3DLAYER
10
2.735863908207
20
19.5582962913247
30
-6.35759999999999
 70
     32
  0
VERTEX
  8
MY3DLAYER
10
2.74792295595171
20
19.5533012701991
30
-6.35759999999999
 70
     32
  0
VERTEX
  8
MY3DLAYER
10
2.75827829501079
20
19.5453553390688
30
-6.35759999999999
 70
     32
  0
VERTEX
  8
MY3DLAYER
10
2.76622422614033
20
19.5350000000092
30
-6.35759999999999
 70
     32
  0
VERTEX
  8
MY3DLAYER
10
2.77121924726518
20
19.5229409522642
30
-6.35759999999999
 70
     32
  0
VERTEX
  8
MY3DLAYER
10
2.77292295595029
20
19.510000000009
30
-6.35759999999999
 70
     32
  0
VERTEX
  8
MY3DLAYER
10
2.77121924726432
20
19.4970590477539
30
-6.35759999999999
 70
     32
  0
VERTEX
  8
MY3DLAYER
10
2.76622422613869
20
19.4850000000092
30
-6.35759999999999
 70
     32
  0
VERTEX
  8
MY3DLAYER
10
3.12129464168585
20
19.2799999999942
30
-6.35759999999999
 70
     32
  0
VERTEX
  8
MY3DLAYER
10
3.12924057281616
20
19.2903553390532
30
-6.35759999999999
 70
     32
  0
VERTEX
  8
MY3DLAYER
10
3.13959591187582
20
19.2983012701827
30
-6.35759999999999
 70
     32
  0
VERTEX
  8
MY3DLAYER
10
3.1516549596209
20
19.3032962913074
30
-6.35759999999999
 70
     32
  0
VERTEX
  8
MY3DLAYER
10
3.16459591187609
20
19.3049999999924
30
-6.35759999999999
 70
     32
  0
VERTEX
  8
MY3DLAYER
10
3.17753686413116
20
19.3032962913064
30
-6.35759999999999
 70
     32
  0
VERTEX
  8
MY3DLAYER
10
3.18959591187583
20
19.2983012701806
30
-6.35759999999999
 70
     32
  0
VERTEX
  8
MY3DLAYER
10
3.19995125093482
20
19.2903553390503
30
-6.35759999999999
 70
     32
  0
VERTEX
  8
MY3DLAYER
10
3.2078971820643
20
19.2799999999907
30
-6.35759999999999
 70
     32
  0
VERTEX
  8
MY3DLAYER
10
3.21289220318903
20
19.2679409522456
30
-6.35759999999999
 70
     32
  0
VERTEX
  8
MY3DLAYER
10
3.21459591187405
20
19.2549999999904
30
-6.35759999999999
 70
     32
  0
VERTEX
  8
MY3DLAYER
10
3.21289220318797
20
19.2420590477354
30
-6.35759999999999
 70
     32
  0
VERTEX
  8
MY3DLAYER
10
3.20789718206223
20
19.2299999999907
30
-6.35759999999999
 70
     32
  0
VERTEX
  8
MY3DLAYER
10
3.19995125093192
20
19.2196446609316
30
-6.35759999999999
 70
     32
  0
VERTEX
  8
MY3DLAYER
10
3.18959591187226
20
19.2116987298022
30
-6.35759999999999
 70
     32
  0
VERTEX
  8
MY3DLAYER
10
3.17753686412718
20
19.2067037086774
30
-6.35759999999999
 70
     32
  0
VERTEX
  8
MY3DLAYER
10
3.16459591187198
20
19.2049999999924
30
-6.35759999999999
 70
     32
  0
VERTEX
  8
MY3DLAYER
10
3.1645959118635
20
18.7950000000107
30
-6.35759999999999
 70
     32
  0
VERTEX
  8
MY3DLAYER
10
3.17753686411863
20
18.7932962913251
30
-6.35759999999999
 70
     32
  0
VERTEX
  8
MY3DLAYER
10
3.18959591186352
20
18.7883012701999
30
-6.35759999999999
 70
     32
  0
VERTEX
  8
MY3DLAYER
10
3.19995125092284
20
18.78035533907
30
-6.35759999999999
 70
     32
  0
VERTEX
  8
MY3DLAYER
10
3.20789718205273
20
18.7700000000106
30
-6.35759999999999
 70
     32
  0
VERTEX
  8
MY3DLAYER
10
3.21289220317796
20
18.7579409522658
30
-6.35759999999999
 70
     32
  0
VERTEX
  8
MY3DLAYER
10
3.21459591186351
20
18.7450000000107
30
-6.35759999999999
 70
     32
  0
VERTEX
  8
MY3DLAYER
10
3.21289220317796
20
18.7320590477555
30
-6.35759999999999
 70
     32
  0
VERTEX
  8
MY3DLAYER
10
3.20789718205273
20
18.7200000000107
30
-6.35759999999999
 70
     32
  0
VERTEX
  8
MY3DLAYER
10
3.19995125092284
20
18.7096446609513
30
-6.35759999999999
 70
     32
  0
VERTEX
  8
MY3DLAYER
10
3.18959591186351
20
18.7016987298215
30
-6.35759999999999
 70
     32
  0
VERTEX
  8
MY3DLAYER
10
3.17753686411863
20
18.6967037086962
30
-6.35759999999999
 70
     32
  0
VERTEX
  8
MY3DLAYER
10
3.1645959118635
20
18.6950000000107
30
-6.35759999999999
 70
     32
  0
VERTEX
  8
MY3DLAYER
10
3.15165495960838
20
18.6967037086962
30
-6.35759999999999
 70
     32
  0
VERTEX
  8
MY3DLAYER
10
3.13959591186351
20
18.7016987298214
30
-6.35759999999999
 70
     32
  0
VERTEX
  8
MY3DLAYER
10
3.12924057280418
20
18.7096446609513
30
-6.35759999999999
 70
     32
  0
VERTEX
  8
MY3DLAYER
10
3.12129464167428
20
18.7200000000107
30
-6.35759999999999
 70
     32
  0
VERTEX
  8
MY3DLAYER
10
2.76622422611866
20
18.5150000000103
30
-6.35759999999999
 70
     32
  0
VERTEX
  8
MY3DLAYER
10
2.7712192472438
20
18.5029409522654
30
-6.35759999999999
 70
     32
  0
VERTEX
  8
MY3DLAYER
10
2.77292295592924
20
18.4900000000102
30
-6.35759999999999
 70
     32
  0
VERTEX
  8
MY3DLAYER
10
2.77121924724358
20
18.4770590477552
30
-6.35759999999999
 70
     32
  0
VERTEX
  8
MY3DLAYER
10
2.76622422611825
20
18.4650000000103
30
-6.35759999999999
 70
     32
  0
VERTEX
  8
MY3DLAYER
10
2.75827829498827
20
18.454644660951
30
-6.35759999999999
 70
     32
  0
VERTEX
  8
MY3DLAYER
10
2.74792295592889
20
18.4466987298213
30
-6.35759999999999
 70
     32
  0
VERTEX
  8
MY3DLAYER
10
2.73586390818396
20
18.4417037086961
30
-6.35759999999999
 70
     32
  0
VERTEX
  8
MY3DLAYER
10
2.72292295592883
20
18.4400000000107
30
-6.35759999999999
 70
     32
  0
VERTEX
  8
MY3DLAYER
10
2.70998200367371
20
18.4417037086963
30
-6.35759999999999
 70
     32
  0
VERTEX
  8
MY3DLAYER
10
2.69792295592887
20
18.4466987298217
30
-6.3576
 70
     32
  0
VERTEX
  8
MY3DLAYER
10
2.68756761686961
20
18.4546446609516
30
-6.3576
 70
     32
  0
VERTEX
  8
MY3DLAYER
10
2.6796216857398
20
18.465000000011
30
-6.3576
 70
     32
  0
VERTEX
  8
MY3DLAYER
10
2.67462666461467
20
18.4770590477559
30
-6.3576
 70
     32
  0
VERTEX
  8
MY3DLAYER
10
2.67292295592922
20
18.4900000000111
30
-6.3576
 70
     32
  0
VERTEX
  8
MY3DLAYER
10
2.67462666461488
20
18.5029409522662
30
-6.3576
 70
     32
  0
VERTEX
  8
MY3DLAYER
10
2.67962168574022
20
18.515000000011
30
-6.3576
 70
     32
  0
VERTEX
  8
MY3DLAYER
10
2.32455127018797
20
18.7200000000172
30
-6.3576
 70
     32
  0
VERTEX
  8
MY3DLAYER
10
2.31660533905791
20
18.709644660958
30
-6.3576
 70
     32
  0
VERTEX
  8
MY3DLAYER
10
2.30624999999845
20
18.7016987298283
30
-6.3576
 70
     32
  0
VERTEX
  8
MY3DLAYER
10
2.29419095225349
20
18.6967037087033
30
-6.3576
 70
     32
  0
VERTEX
  8
MY3DLAYER
10
2.28124999999834
20
18.695000000018
30
-6.3576
 70
     32
  0
VERTEX
  8
MY3DLAYER
10
2.26830904774324
20
18.6967037087037
30
-6.3576
 70
     32
  0
VERTEX
  8
MY3DLAYER
10
2.25624999999845
20
18.7016987298291
30
-6.3576
 70
     32
  0
VERTEX
  8
MY3DLAYER
10
2.24589466093925
20
18.7096446609592
30
-6.3576
 70
     32
  0
VERTEX
  8
MY3DLAYER
10
2.23794872980953
20
18.7200000000187
30
-6.3576
 70
     32
  0
VERTEX
  8
MY3DLAYER
10
2.2329537086845
20
18.7320590477636
30
-6.3576
 70
     32
  0
VERTEX
  8
MY3DLAYER
10
2.23124999999916
20
18.7450000000188
30
-6.3576
 70
     32
  0
VERTEX
  8
MY3DLAYER
10
2.23295370868492
20
18.7579409522739
30
-6.3576
 70
     32
  0
VERTEX
  8
MY3DLAYER
10
2.23794872981036
20
18.7700000000187
30
-6.3576
 70
     32
  0
VERTEX
  8
MY3DLAYER
10
2.24589466094042
20
18.7803553390779
30
-6.3576
 70
     32
  0
VERTEX
  8
MY3DLAYER
10
2.25624999999987
20
18.7883012702076
30
-6.3576
 70
     32
  0
VERTEX
  8
MY3DLAYER
10
2.26830904774483
20
18.7932962913326
30
-6.3576
 70
     32
  0
VERTEX
  8
MY3DLAYER
10
2.28124999999999
20
18.795000000018
30
-6.35759999999999
 70
     32
  0
VERTEX
  8
MY3DLAYER
10
2.28125000000846
20
19.2050000000216
30
-6.35759999999999
 70
     32
  0
VERTEX
  8
MY3DLAYER
10
2.26830904775338
20
19.2067037087075
30
-6.35759999999999
 70
     32
  0
VERTEX
  8
MY3DLAYER
10
2.25625000000863
20
19.211698729833
30
-6.35759999999999
 70
     32
  0
VERTEX
  8
MY3DLAYER
10
2.2458946609495
20
19.2196446609631
30
-6.35759999999999
 70
     32
  0
VERTEX
  8
MY3DLAYER
10
2.23794872981986
20
19.2300000000227
30
-6.35759999999999
 70
     32
  0
VERTEX
  8
MY3DLAYER
10
2.23295370869492
20
19.2420590477677
30
-6.35759999999999
 70
     32
  0
VERTEX
  8
MY3DLAYER
10
2.2312500000097
20
19.2550000000228
30
-6.35759999999999
 70
     32
  0
VERTEX
  8
MY3DLAYER
10
2.23295370869556
20
19.2679409522779
30
-6.35759999999999
 70
     32
  0
VERTEX
  8
MY3DLAYER
10
2.23794872982109
20
19.2800000000227
30
-6.35759999999999
 70
     32
  0
VERTEX
  8
MY3DLAYER
10
2.24589466095124
20
19.2903553390818
30
-6.35759999999999
 70
     32
  0
VERTEX
  8
MY3DLAYER
10
2.25625000001076
20
19.2983012702115
30
-6.35759999999999
 70
     32
  0
VERTEX
  8
MY3DLAYER
10
2.26830904775576
20
19.3032962913364
30
-6.35759999999999
 70
     32
  0
VERTEX
  8
MY3DLAYER
10
2.28125000001094
20
19.3050000000216
30
-6.35759999999999
 70
     32
  0
VERTEX
  8
MY3DLAYER
10
2.29419095226602
20
19.3032962913357
30
-6.3576
 70
     32
  0
VERTEX
  8
MY3DLAYER
10
2.30625000001077
20
19.2983012702102
30
-6.3576
 70
     32
  0
VERTEX
  8
MY3DLAYER
10
2.31660533906991
20
19.2903553390801
30
-6.3576
 70
     32
  0
VERTEX
  8
MY3DLAYER
10
2.32455127019954
20
19.2800000000206
30
-6.3576
 70
     32
  0
VERTEX
  8
MY3DLAYER
10
2.67962168576025
20
19.4850000000121
30
-6.35759999999999
 70
     32
  0
VERTEX
  8
MY3DLAYER
10
2.6746266646354
20
19.4970590477571
30
-6.35759999999999
 70
     32
  0
VERTEX
  8
MY3DLAYER
10
2.67292295595028
20
19.5100000000123
30
-6.35759999999999
 70
     32
  0
VERTEX
  8
MY3DLAYER
10
2.67462666463626
20
19.5229409522674
30
-6.35759999999999
 70
     32
  0
VERTEX
  8
MY3DLAYER
10
2.67962168576189
20
19.5350000000121
30
-6.35759999999999
 70
     32
  0
VERTEX
  8
MY3DLAYER
10
2.68756761689212
20
19.5453553390712
30
-6.35759999999999
 70
     32
  0
VERTEX
  8
MY3DLAYER
10
2.69792295595171
20
19.5533012702007
30
-6.35759999999999
 70
     32
  0
VERTEX
  8
MY3DLAYER
10
2.70998200369676
20
19.5582962913256
30
-6.35759999999999
 70
     32
  0
SEQEND
  0
POLYLINE
 8
Layer0
 66
     1
70
    8
 10
0.0
 20
 0.0
 30
0.0
  0
VERTEX
  8
MY3DLAYER
10
4.88287831425474
20
15.749999999975
30
-6.35759999999999
 70
     32
  0
VERTEX
  8
MY3DLAYER
10
4.87493238312476
20
15.7396446609157
30
-6.35759999999999
 70
     32
  0
VERTEX
  8
MY3DLAYER
10
4.86457704406537
20
15.7316987297859
30
-6.35759999999999
 70
     32
  0
VERTEX
  8
MY3DLAYER
10
4.85251799632045
20
15.7267037086608
30
-6.35759999999999
 70
     32
  0
VERTEX
  8
MY3DLAYER
10
4.83957704406532
20
15.7249999999754
30
-6.35759999999999
 70
     32
  0
VERTEX
  8
MY3DLAYER
10
4.8266360918102
20
15.726703708661
30
-6.35759999999999
 70
     32
  0
VERTEX
  8
MY3DLAYER
10
4.81457704406536
20
15.7316987297863
30
-6.35759999999999
 70
     32
  0
VERTEX
  8
MY3DLAYER
10
4.8042217050061
20
15.7396446609163
30
-6.35759999999999
 70
     32
  0
VERTEX
  8
MY3DLAYER
10
4.79627577387629
20
15.7499999999757
30
-6.35759999999999
 70
     32
  0
VERTEX
  8
MY3DLAYER
10
4.79128075275116
20
15.7620590477206
30
-6.35759999999999
 70
     32
  0
VERTEX
  8
MY3DLAYER
10
4.78957704406571
20
15.7749999999758
30
-6.35759999999999
 70
     32
  0
VERTEX
  8
MY3DLAYER
10
4.79128075275137
20
15.7879409522309
30
-6.35759999999999
 70
     32
  0
VERTEX
  8
MY3DLAYER
10
4.79627577387671
20
15.7999999999757
30
-6.35759999999999
 70
     32
  0
VERTEX
  8
MY3DLAYER
10
4.44120535832446
20
16.0049999999819
30
-6.35759999999999
 70
     32
  0
VERTEX
  8
MY3DLAYER
10
4.4332594271944
20
15.9946446609227
30
-6.35759999999999
 70
     32
  0
VERTEX
  8
MY3DLAYER
10
4.42290408813494
20
15.986698729793
30
-6.35759999999999
 70
     32
  0
VERTEX
  8
MY3DLAYER
10
4.41084504038998
20
15.981703708668
30
-6.35759999999999
 70
     32
  0
VERTEX
  8
MY3DLAYER
10
4.39790408813483
20
15.9799999999827
30
-6.35759999999999
 70
     32
  0
VERTEX
  8
MY3DLAYER
10
4.38496313587973
20
15.9817037086684
30
-6.35759999999999
 70
     32
  0
VERTEX
  8
MY3DLAYER
10
4.37290408813493
20
15.9866987297938
30
-6.35759999999999
 70
     32
  0
VERTEX
  8
MY3DLAYER
10
4.36254874907574
20
15.9946446609239
30
-6.35759999999999
 70
     32
  0
VERTEX
  8
MY3DLAYER
10
4.35460281794602
20
16.0049999999833
30
-6.35759999999999
 70
     32
  0
VERTEX
  8
MY3DLAYER
10
4.34960779682099
20
16.0170590477283
30
-6.35759999999999
 70
     32
  0
VERTEX
  8
MY3DLAYER
10
4.34790408813564
20
16.0299999999834
30
-6.35759999999999
 70
     32
  0
VERTEX
  8
MY3DLAYER
10
4.3496077968214
20
16.0429409522386
30
-6.35759999999999
 70
     32
  0
VERTEX
  8
MY3DLAYER
10
4.35460281794684
20
16.0549999999834
30
-6.35759999999999
 70
     32
  0
VERTEX
  8
MY3DLAYER
10
4.3625487490769
20
16.0653553390425
30
-6.35759999999999
 70
     32
  0
VERTEX
  8
MY3DLAYER
10
4.37290408813636
20
16.0733012701723
30
-6.35759999999999
 70
     32
  0
VERTEX
  8
MY3DLAYER
10
4.38496313588131
20
16.0782962912973
30
-6.35759999999999
 70
     32
  0
VERTEX
  8
MY3DLAYER
10
4.39790408813647
20
16.0799999999826
30
-6.35759999999999
 70
     32
  0
VERTEX
  8
MY3DLAYER
10
4.39790408814495
20
16.4899999999863
30
-6.35759999999999
 70
     32
  0
VERTEX
  8
MY3DLAYER
10
4.38496313588986
20
16.4917037086722
30
-6.35759999999999
 70
     32
  0
VERTEX
  8
MY3DLAYER
10
4.37290408814511
20
16.4966987297977
30
-6.35759999999999
 70
     32
  0
VERTEX
  8
MY3DLAYER
10
4.36254874908598
20
16.5046446609278
30
-6.35759999999999
 70
     32
  0
VERTEX
  8
MY3DLAYER
10
4.35460281795634
20
16.5149999999874
30
-6.35759999999999
 70
     32
  0
VERTEX
  8
MY3DLAYER
10
4.3496077968314
20
16.5270590477324
30
-6.35759999999999
 70
     32
  0
VERTEX
  8
MY3DLAYER
10
4.34790408814618
20
16.5399999999875
30
-6.35759999999999
 70
     32
  0
VERTEX
  8
MY3DLAYER
10
4.34960779683204
20
16.5529409522426
30
-6.35759999999999
 70
     32
  0
VERTEX
  8
MY3DLAYER
10
4.35460281795757
20
16.5649999999874
30
-6.35759999999999
 70
     32
  0
VERTEX
  8
MY3DLAYER
10
4.36254874908773
20
16.5753553390465
30
-6.35759999999999
 70
     32
  0
VERTEX
  8
MY3DLAYER
10
4.37290408814725
20
16.5833012701761
30
-6.35759999999999
 70
     32
  0
VERTEX
  8
MY3DLAYER
10
4.38496313589225
20
16.5882962913011
30
-6.35759999999999
 70
     32
  0
VERTEX
  8
MY3DLAYER
10
4.39790408814742
20
16.5899999999863
30
-6.35759999999999
 70
     32
  0
VERTEX
  8
MY3DLAYER
10
4.4108450404025
20
16.5882962913004
30
-6.35759999999999
 70
     32
  0
VERTEX
  8
MY3DLAYER
10
4.42290408814725
20
16.5833012701749
30
-6.35759999999999
 70
     32
  0
VERTEX
  8
MY3DLAYER
10
4.43325942720639
20
16.5753553390447
30
-6.35759999999999
 70
     32
  0
VERTEX
  8
MY3DLAYER
10
4.44120535833602
20
16.5649999999852
30
-6.35759999999999
 70
     32
  0
VERTEX
  8
MY3DLAYER
10
4.79627577389673
20
16.7699999999768
30
-6.35759999999999
 70
     32
  0
VERTEX
  8
MY3DLAYER
10
4.79128075277189
20
16.7820590477218
30
-6.35759999999999
 70
     32
  0
VERTEX
  8
MY3DLAYER
10
4.78957704408676
20
16.794999999977
30
-6.35759999999999
 70
     32
  0
VERTEX
  8
MY3DLAYER
10
4.79128075277275
20
16.8079409522321
30
-6.35759999999999
 70
     32
  0
VERTEX
  8
MY3DLAYER
10
4.79627577389838
20
16.8199999999768
30
-6.35759999999999
 70
     32
  0
VERTEX
  8
MY3DLAYER
10
4.8042217050286
20
16.8303553390358
30
-6.35759999999999
 70
     32
  0
VERTEX
  8
MY3DLAYER
10
4.81457704408819
20
16.8383012701654
30
-6.35759999999999
 70
     32
  0
VERTEX
  8
MY3DLAYER
10
4.82663609183324
20
16.8432962912902
30
-6.35759999999999
 70
     32
  0
VERTEX
  8
MY3DLAYER
10
4.83957704408842
20
16.8449999999753
30
-6.35759999999999
 70
     32
  0
VERTEX
  8
MY3DLAYER
10
4.85251799634348
20
16.8432962912893
30
-6.35759999999999
 70
     32
  0
VERTEX
  8
MY3DLAYER
10
4.8645770440882
20
16.8383012701637
30
-6.35759999999999
 70
     32
  0
VERTEX
  8
MY3DLAYER
10
4.87493238314727
20
16.8303553390335
30
-6.35759999999999
 70
     32
  0
VERTEX
  8
MY3DLAYER
10
4.88287831427681
20
16.8199999999739
30
-6.35759999999999
 70
     32
  0
VERTEX
  8
MY3DLAYER
10
4.88787333540166
20
16.8079409522289
30
-6.35759999999999
 70
     32
  0
VERTEX
  8
MY3DLAYER
10
4.88957704408677
20
16.7949999999737
30
-6.35759999999999
 70
     32
  0
VERTEX
  8
MY3DLAYER
10
4.8878733354008
20
16.7820590477186
30
-6.35759999999999
 70
     32
  0
VERTEX
  8
MY3DLAYER
10
4.88287831427517
20
16.7699999999739
30
-6.35759999999999
 70
     32
  0
VERTEX
  8
MY3DLAYER
10
5.23794872982233
20
16.5649999999589
30
-6.35759999999999
 70
     32
  0
VERTEX
  8
MY3DLAYER
10
5.24589466095264
20
16.5753553390179
30
-6.35759999999999
 70
     32
  0
VERTEX
  8
MY3DLAYER
10
5.2562500000123
20
16.5833012701474
30
-6.35759999999999
 70
     32
  0
VERTEX
  8
MY3DLAYER
10
5.26830904775739
20
16.5882962912721
30
-6.35759999999999
 70
     32
  0
VERTEX
  8
MY3DLAYER
10
5.28125000001258
20
16.5899999999571
30
-6.35759999999999
 70
     32
  0
VERTEX
  8
MY3DLAYER
10
5.29419095226764
20
16.588296291271
30
-6.35759999999999
 70
     32
  0
VERTEX
  8
MY3DLAYER
10
5.30625000001231
20
16.5833012701453
30
-6.35759999999999
 70
     32
  0
VERTEX
  8
MY3DLAYER
10
5.3166053390713
20
16.575355339015
30
-6.35759999999999
 70
     32
  0
VERTEX
  8
MY3DLAYER
10
5.32455127020078
20
16.5649999999554
30
-6.35759999999999
 70
     32
  0
VERTEX
  8
MY3DLAYER
10
5.32954629132551
20
16.5529409522103
30
-6.35759999999999
 70
     32
  0
VERTEX
  8
MY3DLAYER
10
5.33125000001053
20
16.5399999999551
30
-6.35759999999999
 70
     32
  0
VERTEX
  8
MY3DLAYER
10
5.32954629132445
20
16.5270590477
30
-6.35759999999999
 70
     32
  0
VERTEX
  8
MY3DLAYER
10
5.32455127019871
20
16.5149999999554
30
-6.35759999999999
 70
     32
  0
VERTEX
  8
MY3DLAYER
10
5.3166053390684
20
16.5046446608963
30
-6.35759999999999
 70
     32
  0
VERTEX
  8
MY3DLAYER
10
5.30625000000874
20
16.4966987297669
30
-6.35759999999999
 70
     32
  0
VERTEX
  8
MY3DLAYER
10
5.29419095226366
20
16.4917037086421
30
-6.35759999999999
 70
     32
  0
VERTEX
  8
MY3DLAYER
10
5.28125000000846
20
16.4899999999571
30
-6.35759999999999
 70
     32
  0
VERTEX
  8
MY3DLAYER
10
5.28124999999999
20
16.0799999999753
30
-6.35759999999999
 70
     32
  0
VERTEX
  8
MY3DLAYER
10
5.29419095225512
20
16.0782962912898
30
-6.35759999999999
 70
     32
  0
VERTEX
  8
MY3DLAYER
10
5.30625
20
16.0733012701646
30
-6.35759999999999
 70
     32
  0
VERTEX
  8
MY3DLAYER
10
5.31660533905932
20
16.0653553390347
30
-6.35759999999999
 70
     32
  0
VERTEX
  8
MY3DLAYER
10
5.32455127018921
20
16.0549999999753
30
-6.35759999999999
 70
     32
  0
VERTEX
  8
MY3DLAYER
10
5.32954629131445
20
16.0429409522305
30
-6.35759999999999
 70
     32
  0
VERTEX
  8
MY3DLAYER
10
5.33125
20
16.0299999999754
30
-6.35759999999999
 70
     32
  0
VERTEX
  8
MY3DLAYER
10
5.32954629131445
20
16.0170590477202
30
-6.35759999999999
 70
     32
  0
VERTEX
  8
MY3DLAYER
10
5.32455127018922
20
16.0049999999754
30
-6.35759999999999
 70
     32
  0
VERTEX
  8
MY3DLAYER
10
5.31660533905933
20
15.994644660916
30
-6.35759999999999
 70
     32
  0
VERTEX
  8
MY3DLAYER
10
5.30625
20
15.9866987297861
30
-6.35759999999999
 70
     32
  0
VERTEX
  8
MY3DLAYER
10
5.29419095225512
20
15.9817037086609
30
-6.35759999999999
 70
     32
  0
VERTEX
  8
MY3DLAYER
10
5.28125
20
15.9799999999753
30
-6.35759999999999
 70
     32
  0
VERTEX
  8
MY3DLAYER
10
5.26830904774488
20
15.9817037086609
30
-6.35759999999999
 70
     32
  0
VERTEX
  8
MY3DLAYER
10
5.25624999999999
20
15.9866987297861
30
-6.35759999999999
 70
     32
  0
VERTEX
  8
MY3DLAYER
10
5.24589466094067
20
15.994644660916
30
-6.35759999999999
 70
     32
  0
VERTEX
  8
MY3DLAYER
10
5.23794872981077
20
16.0049999999753
30
-6.35759999999999
 70
     32
  0
VERTEX
  8
MY3DLAYER
10
4.88287831425515
20
15.799999999975
30
-6.35759999999999
 70
     32
  0
VERTEX
  8
MY3DLAYER
10
4.88787333538029
20
15.7879409522301
30
-6.35759999999999
 70
     32
  0
VERTEX
  8
MY3DLAYER
10
4.88957704406572
20
15.7749999999749
30
-6.35759999999999
 70
     32
  0
VERTEX
  8
MY3DLAYER
10
4.88787333538007
20
15.7620590477199
30
-6.35759999999999
 70
     32
  0
VERTEX
  8
MY3DLAYER
10
4.88287831425474
20
15.749999999975
30
-6.35759999999999
 70
     32
  0
SEQEND
  0
POLYLINE
 8
Layer0
 66
     1
70
    8
 10
0.0
 20
 0.0
 30
0.0
  0
VERTEX
  8
MY3DLAYER
10
2.28124999999834
20
15.9800000000089
30
-6.3576
 70
     32
  0
VERTEX
  8
MY3DLAYER
10
2.26830904774324
20
15.9817037086946
30
-6.3576
 70
     32
  0
VERTEX
  8
MY3DLAYER
10
2.25624999999845
20
15.98669872982
30
-6.3576
 70
     32
  0
VERTEX
  8
MY3DLAYER
10
2.24589466093925
20
15.9946446609501
30
-6.3576
 70
     32
  0
VERTEX
  8
MY3DLAYER
10
2.23794872980953
20
16.0050000000095
30
-6.3576
 70
     32
  0
VERTEX
  8
MY3DLAYER
10
2.2329537086845
20
16.0170590477545
30
-6.3576
 70
     32
  0
VERTEX
  8
MY3DLAYER
10
2.23124999999916
20
16.0300000000096
30
-6.3576
 70
     32
  0
VERTEX
  8
MY3DLAYER
10
2.23295370868492
20
16.0429409522647
30
-6.3576
 70
     32
  0
VERTEX
  8
MY3DLAYER
10
2.23794872981036
20
16.0550000000095
30
-6.3576
 70
     32
  0
VERTEX
  8
MY3DLAYER
10
2.24589466094042
20
16.0653553390687
30
-6.3576
 70
     32
  0
VERTEX
  8
MY3DLAYER
10
2.25624999999987
20
16.0733012701984
30
-6.3576
 70
     32
  0
VERTEX
  8
MY3DLAYER
10
2.26830904774483
20
16.0782962913235
30
-6.3576
 70
     32
  0
VERTEX
  8
MY3DLAYER
10
2.28124999999999
20
16.0800000000088
30
-6.3576
 70
     32
  0
VERTEX
  8
MY3DLAYER
10
2.28125000000846
20
16.4900000000125
30
-6.3576
 70
     32
  0
VERTEX
  8
MY3DLAYER
10
2.26830904775337
20
16.4917037086983
30
-6.3576
 70
     32
  0
VERTEX
  8
MY3DLAYER
10
2.25625000000862
20
16.4966987298239
30
-6.3576
 70
     32
  0
VERTEX
  8
MY3DLAYER
10
2.24589466094949
20
16.504644660954
30
-6.3576
 70
     32
  0
VERTEX
  8
MY3DLAYER
10
2.23794872981986
20
16.5150000000136
30
-6.3576
 70
     32
  0
VERTEX
  8
MY3DLAYER
10
2.23295370869491
20
16.5270590477585
30
-6.3576
 70
     32
  0
VERTEX
  8
MY3DLAYER
10
2.23125000000969
20
16.5400000000137
30
-6.3576
 70
     32
  0
VERTEX
  8
MY3DLAYER
10
2.23295370869556
20
16.5529409522688
30
-6.3576
 70
     32
  0
VERTEX
  8
MY3DLAYER
10
2.23794872982108
20
16.5650000000135
30
-6.3576
 70
     32
  0
VERTEX
  8
MY3DLAYER
10
2.24589466095124
20
16.5753553390727
30
-6.3576
 70
     32
  0
VERTEX
  8
MY3DLAYER
10
2.25625000001076
20
16.5833012702023
30
-6.3576
 70
     32
  0
VERTEX
  8
MY3DLAYER
10
2.26830904775576
20
16.5882962913273
30
-6.3576
 70
     32
  0
VERTEX
  8
MY3DLAYER
10
2.28125000001093
20
16.5900000000125
30
-6.3576
 70
     32
  0
VERTEX
  8
MY3DLAYER
10
2.29419095226601
20
16.5882962913266
30
-6.3576
 70
     32
  0
VERTEX
  8
MY3DLAYER
10
2.30625000001077
20
16.5833012702011
30
-6.3576
 70
     32
  0
VERTEX
  8
MY3DLAYER
10
2.3166053390699
20
16.5753553390709
30
-6.3576
 70
     32
  0
VERTEX
  8
MY3DLAYER
10
2.32455127019953
20
16.5650000000114
30
-6.3576
 70
     32
  0
VERTEX
  8
MY3DLAYER
10
2.67962168576025
20
16.770000000003
30
-6.35759999999999
 70
     32
  0
VERTEX
  8
MY3DLAYER
10
2.6746266646354
20
16.782059047748
30
-6.35759999999999
 70
     32
  0
VERTEX
  8
MY3DLAYER
10
2.67292295595027
20
16.7950000000032
30
-6.35759999999999
 70
     32
  0
VERTEX
  8
MY3DLAYER
10
2.67462666463626
20
16.8079409522583
30
-6.35759999999999
 70
     32
  0
VERTEX
  8
MY3DLAYER
10
2.67962168576189
20
16.8200000000029
30
-6.35759999999999
 70
     32
  0
VERTEX
  8
MY3DLAYER
10
2.68756761689212
20
16.830355339062
30
-6.35759999999999
 70
     32
  0
VERTEX
  8
MY3DLAYER
10
2.69792295595171
20
16.8383012701916
30
-6.35759999999999
 70
     32
  0
VERTEX
  8
MY3DLAYER
10
2.70998200369675
20
16.8432962913164
30
-6.35759999999999
 70
     32
  0
VERTEX
  8
MY3DLAYER
10
2.72292295595193
20
16.8450000000015
30
-6.35759999999999
 70
     32
  0
VERTEX
  8
MY3DLAYER
10
2.735863908207
20
16.8432962913155
30
-6.35759999999999
 70
     32
  0
VERTEX
  8
MY3DLAYER
10
2.74792295595171
20
16.8383012701899
30
-6.35759999999999
 70
     32
  0
VERTEX
  8
MY3DLAYER
10
2.75827829501078
20
16.8303553390597
30
-6.35759999999999
 70
     32
  0
VERTEX
  8
MY3DLAYER
10
2.76622422614033
20
16.8200000000001
30
-6.35759999999999
 70
     32
  0
VERTEX
  8
MY3DLAYER
10
2.77121924726517
20
16.8079409522551
30
-6.35759999999999
 70
     32
  0
VERTEX
  8
MY3DLAYER
10
2.77292295595029
20
16.7949999999999
30
-6.35759999999999
 70
     32
  0
VERTEX
  8
MY3DLAYER
10
2.77121924726431
20
16.7820590477448
30
-6.35759999999999
 70
     32
  0
VERTEX
  8
MY3DLAYER
10
2.76622422613868
20
16.7700000000001
30
-6.35759999999999
 70
     32
  0
VERTEX
  8
MY3DLAYER
10
3.12129464168584
20
16.5649999999851
30
-6.35759999999999
 70
     32
  0
VERTEX
  8
MY3DLAYER
10
3.12924057281615
20
16.5753553390441
30
-6.35759999999999
 70
     32
  0
VERTEX
  8
MY3DLAYER
10
3.13959591187582
20
16.5833012701736
30
-6.35759999999999
 70
     32
  0
VERTEX
  8
MY3DLAYER
10
3.1516549596209
20
16.5882962912983
30
-6.35759999999999
 70
     32
  0
VERTEX
  8
MY3DLAYER
10
3.16459591187609
20
16.5899999999833
30
-6.35759999999999
 70
     32
  0
VERTEX
  8
MY3DLAYER
10
3.17753686413115
20
16.5882962912972
30
-6.35759999999999
 70
     32
  0
VERTEX
  8
MY3DLAYER
10
3.18959591187582
20
16.5833012701715
30
-6.35759999999999
 70
     32
  0
VERTEX
  8
MY3DLAYER
10
3.19995125093481
20
16.5753553390412
30
-6.35759999999999
 70
     32
  0
VERTEX
  8
MY3DLAYER
10
3.20789718206429
20
16.5649999999815
30
-6.35759999999999
 70
     32
  0
VERTEX
  8
MY3DLAYER
10
3.21289220318902
20
16.5529409522364
30
-6.35759999999999
 70
     32
  0
VERTEX
  8
MY3DLAYER
10
3.21459591187404
20
16.5399999999813
30
-6.35759999999999
 70
     32
  0
VERTEX
  8
MY3DLAYER
10
3.21289220318796
20
16.5270590477262
30
-6.35759999999999
 70
     32
  0
VERTEX
  8
MY3DLAYER
10
3.20789718206222
20
16.5149999999815
30
-6.35759999999999
 70
     32
  0
VERTEX
  8
MY3DLAYER
10
3.19995125093191
20
16.5046446609225
30
-6.35759999999999
 70
     32
  0
VERTEX
  8
MY3DLAYER
10
3.18959591187225
20
16.4966987297931
30
-6.35759999999999
 70
     32
  0
VERTEX
  8
MY3DLAYER
10
3.17753686412717
20
16.4917037086683
30
-6.35759999999999
 70
     32
  0
VERTEX
  8
MY3DLAYER
10
3.16459591187198
20
16.4899999999833
30
-6.35759999999999
 70
     32
  0
VERTEX
  8
MY3DLAYER
10
3.1645959118635
20
16.0800000000015
30
-6.35759999999999
 70
     32
  0
VERTEX
  8
MY3DLAYER
10
3.17753686411863
20
16.078296291316
30
-6.35759999999999
 70
     32
  0
VERTEX
  8
MY3DLAYER
10
3.18959591186351
20
16.0733012701908
30
-6.35759999999999
 70
     32
  0
VERTEX
  8
MY3DLAYER
10
3.19995125092284
20
16.0653553390609
30
-6.35759999999999
 70
     32
  0
VERTEX
  8
MY3DLAYER
10
3.20789718205273
20
16.0550000000015
30
-6.35759999999999
 70
     32
  0
VERTEX
  8
MY3DLAYER
10
3.21289220317796
20
16.0429409522567
30
-6.35759999999999
 70
     32
  0
VERTEX
  8
MY3DLAYER
10
3.21459591186351
20
16.0300000000015
30
-6.35759999999999
 70
     32
  0
VERTEX
  8
MY3DLAYER
10
3.21289220317796
20
16.0170590477464
30
-6.35759999999999
 70
     32
  0
VERTEX
  8
MY3DLAYER
10
3.20789718205273
20
16.0050000000016
30
-6.35759999999999
 70
     32
  0
VERTEX
  8
MY3DLAYER
10
3.19995125092284
20
15.9946446609422
30
-6.35759999999999
 70
     32
  0
VERTEX
  8
MY3DLAYER
10
3.18959591186351
20
15.9866987298123
30
-6.35759999999999
 70
     32
  0
VERTEX
  8
MY3DLAYER
10
3.17753686411863
20
15.9817037086871
30
-6.35759999999999
 70
     32
  0
VERTEX
  8
MY3DLAYER
10
3.16459591186351
20
15.9800000000015
30
-6.3576
 70
     32
  0
VERTEX
  8
MY3DLAYER
10
3.15165495960838
20
15.9817037086871
30
-6.3576
 70
     32
  0
VERTEX
  8
MY3DLAYER
10
3.13959591186351
20
15.9866987298123
30
-6.3576
 70
     32
  0
VERTEX
  8
MY3DLAYER
10
3.12924057280418
20
15.9946446609422
30
-6.3576
 70
     32
  0
VERTEX
  8
MY3DLAYER
10
3.12129464167428
20
16.0050000000015
30
-6.3576
 70
     32
  0
VERTEX
  8
MY3DLAYER
10
2.76622422611866
20
15.8000000000012
30
-6.35759999999999
 70
     32
  0
VERTEX
  8
MY3DLAYER
10
2.7712192472438
20
15.7879409522563
30
-6.35759999999999
 70
     32
  0
VERTEX
  8
MY3DLAYER
10
2.77292295592924
20
15.7750000000011
30
-6.35759999999999
 70
     32
  0
VERTEX
  8
MY3DLAYER
10
2.77121924724358
20
15.762059047746
30
-6.35759999999999
 70
     32
  0
VERTEX
  8
MY3DLAYER
10
2.76622422611825
20
15.7500000000012
30
-6.35759999999999
 70
     32
  0
VERTEX
  8
MY3DLAYER
10
2.75827829498827
20
15.7396446609419
30
-6.35759999999999
 70
     32
  0
VERTEX
  8
MY3DLAYER
10
2.74792295592889
20
15.7316987298121
30
-6.35759999999999
 70
     32
  0
VERTEX
  8
MY3DLAYER
10
2.73586390818396
20
15.726703708687
30
-6.35759999999999
 70
     32
  0
VERTEX
  8
MY3DLAYER
10
2.72292295592883
20
15.7250000000015
30
-6.35759999999999
 70
     32
  0
VERTEX
  8
MY3DLAYER
10
2.70998200367371
20
15.7267037086872
30
-6.35759999999999
 70
     32
  0
VERTEX
  8
MY3DLAYER
10
2.69792295592887
20
15.7316987298125
30
-6.35759999999999
 70
     32
  0
VERTEX
  8
MY3DLAYER
10
2.68756761686961
20
15.7396446609425
30
-6.35759999999999
 70
     32
  0
VERTEX
  8
MY3DLAYER
10
2.6796216857398
20
15.7500000000019
30
-6.35759999999999
 70
     32
  0
VERTEX
  8
MY3DLAYER
10
2.67462666461467
20
15.7620590477468
30
-6.35759999999999
 70
     32
  0
VERTEX
  8
MY3DLAYER
10
2.67292295592922
20
15.7750000000019
30
-6.35759999999999
 70
     32
  0
VERTEX
  8
MY3DLAYER
10
2.67462666461488
20
15.787940952257
30
-6.35759999999999
 70
     32
  0
VERTEX
  8
MY3DLAYER
10
2.67962168574022
20
15.8000000000019
30
-6.35759999999999
 70
     32
  0
VERTEX
  8
MY3DLAYER
10
2.32455127018797
20
16.0050000000081
30
-6.3576
 70
     32
  0
VERTEX
  8
MY3DLAYER
10
2.31660533905791
20
15.9946446609489
30
-6.3576
 70
     32
  0
VERTEX
  8
MY3DLAYER
10
2.30624999999845
20
15.9866987298192
30
-6.3576
 70
     32
  0
VERTEX
  8
MY3DLAYER
10
2.29419095225349
20
15.9817037086941
30
-6.3576
 70
     32
  0
VERTEX
  8
MY3DLAYER
10
2.28124999999834
20
15.9800000000089
30
-6.3576
 70
     32
  0
SEQEND
  0
POLYLINE
 8
Layer0
 66
     1
70
    8
 10
0.0
 20
 0.0
 30
0.0
  0
VERTEX
  8
MY3DLAYER
10
5.29419095225512
20
13.3632962912807
30
-6.3576
 70
     32
  0
VERTEX
  8
MY3DLAYER
10
5.30625
20
13.3583012701554
30
-6.3576
 70
     32
  0
VERTEX
  8
MY3DLAYER
10
5.31660533905933
20
13.3503553390256
30
-6.3576
 70
     32
  0
VERTEX
  8
MY3DLAYER
10
5.32455127018922
20
13.3399999999662
30
-6.3576
 70
     32
  0
VERTEX
  8
MY3DLAYER
10
5.32954629131445
20
13.3279409522213
30
-6.3576
 70
     32
  0
VERTEX
  8
MY3DLAYER
10
5.33125
20
13.3149999999662
30
-6.3576
 70
     32
  0
VERTEX
  8
MY3DLAYER
10
5.32954629131445
20
13.3020590477111
30
-6.3576
 70
     32
  0
VERTEX
  8
MY3DLAYER
10
5.32455127018923
20
13.2899999999662
30
-6.3576
 70
     32
  0
VERTEX
  8
MY3DLAYER
10
5.31660533905933
20
13.2796446609069
30
-6.3576
 70
     32
  0
VERTEX
  8
MY3DLAYER
10
5.30625
20
13.271698729777
30
-6.3576
 70
     32
  0
VERTEX
  8
MY3DLAYER
10
5.29419095225512
20
13.2667037086518
30
-6.3576
 70
     32
  0
VERTEX
  8
MY3DLAYER
10
5.28125
20
13.2649999999662
30
-6.35759999999999
 70
     32
  0
VERTEX
  8
MY3DLAYER
10
5.26830904774488
20
13.2667037086518
30
-6.35759999999999
 70
     32
  0
VERTEX
  8
MY3DLAYER
10
5.25625
20
13.271698729777
30
-6.35759999999999
 70
     32
  0
VERTEX
  8
MY3DLAYER
10
5.24589466094067
20
13.2796446609069
30
-6.35759999999999
 70
     32
  0
VERTEX
  8
MY3DLAYER
10
5.23794872981077
20
13.2899999999662
30
-6.35759999999999
 70
     32
  0
VERTEX
  8
MY3DLAYER
10
4.88287831425515
20
13.0849999999659
30
-6.35759999999999
 70
     32
  0
VERTEX
  8
MY3DLAYER
10
4.88787333538029
20
13.0729409522209
30
-6.35759999999999
 70
     32
  0
VERTEX
  8
MY3DLAYER
10
4.88957704406573
20
13.0599999999658
30
-6.35759999999999
 70
     32
  0
VERTEX
  8
MY3DLAYER
10
4.88787333538007
20
13.0470590477107
30
-6.35759999999999
 70
     32
  0
VERTEX
  8
MY3DLAYER
10
4.88287831425474
20
13.0349999999659
30
-6.35759999999999
 70
     32
  0
VERTEX
  8
MY3DLAYER
10
4.87493238312476
20
13.0246446609066
30
-6.35759999999999
 70
     32
  0
VERTEX
  8
MY3DLAYER
10
4.86457704406538
20
13.0166987297768
30
-6.35759999999999
 70
     32
  0
VERTEX
  8
MY3DLAYER
10
4.85251799632045
20
13.0117037086516
30
-6.35759999999999
 70
     32
  0
VERTEX
  8
MY3DLAYER
10
4.83957704406533
20
13.0099999999662
30
-6.35759999999999
 70
     32
  0
VERTEX
  8
MY3DLAYER
10
4.8266360918102
20
13.0117037086519
30
-6.35759999999999
 70
     32
  0
VERTEX
  8
MY3DLAYER
10
4.81457704406536
20
13.0166987297772
30
-6.35759999999999
 70
     32
  0
VERTEX
  8
MY3DLAYER
10
4.8042217050061
20
13.0246446609072
30
-6.35759999999999
 70
     32
  0
VERTEX
  8
MY3DLAYER
10
4.79627577387629
20
13.0349999999666
30
-6.35759999999999
 70
     32
  0
VERTEX
  8
MY3DLAYER
10
4.79128075275116
20
13.0470590477115
30
-6.35759999999999
 70
     32
  0
VERTEX
  8
MY3DLAYER
10
4.78957704406571
20
13.0599999999666
30
-6.35759999999999
 70
     32
  0
VERTEX
  8
MY3DLAYER
10
4.79128075275137
20
13.0729409522217
30
-6.35759999999999
 70
     32
  0
VERTEX
  8
MY3DLAYER
10
4.79627577387671
20
13.0849999999666
30
-6.35759999999999
 70
     32
  0
VERTEX
  8
MY3DLAYER
10
4.44120535832446
20
13.2899999999728
30
-6.35759999999999
 70
     32
  0
VERTEX
  8
MY3DLAYER
10
4.4332594271944
20
13.2796446609136
30
-6.35759999999999
 70
     32
  0
VERTEX
  8
MY3DLAYER
10
4.42290408813494
20
13.2716987297839
30
-6.35759999999999
 70
     32
  0
VERTEX
  8
MY3DLAYER
10
4.41084504038999
20
13.2667037086588
30
-6.35759999999999
 70
     32
  0
VERTEX
  8
MY3DLAYER
10
4.39790408813483
20
13.2649999999735
30
-6.35759999999999
 70
     32
  0
VERTEX
  8
MY3DLAYER
10
4.38496313587973
20
13.2667037086593
30
-6.35759999999999
 70
     32
  0
VERTEX
  8
MY3DLAYER
10
4.37290408813494
20
13.2716987297847
30
-6.35759999999999
 70
     32
  0
VERTEX
  8
MY3DLAYER
10
4.36254874907574
20
13.2796446609148
30
-6.35759999999999
 70
     32
  0
VERTEX
  8
MY3DLAYER
10
4.35460281794603
20
13.2899999999742
30
-6.35759999999999
 70
     32
  0
VERTEX
  8
MY3DLAYER
10
4.34960779682099
20
13.3020590477192
30
-6.35759999999999
 70
     32
  0
VERTEX
  8
MY3DLAYER
10
4.34790408813565
20
13.3149999999743
30
-6.35759999999999
 70
     32
  0
VERTEX
  8
MY3DLAYER
10
4.34960779682141
20
13.3279409522294
30
-6.35759999999999
 70
     32
  0
VERTEX
  8
MY3DLAYER
10
4.35460281794685
20
13.3399999999742
30
-6.35759999999999
 70
     32
  0
VERTEX
  8
MY3DLAYER
10
4.36254874907691
20
13.3503553390334
30
-6.35759999999999
 70
     32
  0
VERTEX
  8
MY3DLAYER
10
4.37290408813636
20
13.3583012701631
30
-6.35759999999999
 70
     32
  0
VERTEX
  8
MY3DLAYER
10
4.38496313588132
20
13.3632962912882
30
-6.35759999999999
 70
     32
  0
VERTEX
  8
MY3DLAYER
10
4.39790408813648
20
13.3649999999735
30
-6.35759999999999
 70
     32
  0
VERTEX
  8
MY3DLAYER
10
4.39790408814495
20
13.7749999999771
30
-6.35759999999999
 70
     32
  0
VERTEX
  8
MY3DLAYER
10
4.38496313588987
20
13.776703708663
30
-6.35759999999999
 70
     32
  0
VERTEX
  8
MY3DLAYER
10
4.37290408814512
20
13.7816987297886
30
-6.35759999999999
 70
     32
  0
VERTEX
  8
MY3DLAYER
10
4.36254874908598
20
13.7896446609187
30
-6.35759999999999
 70
     32
  0
VERTEX
  8
MY3DLAYER
10
4.35460281795635
20
13.7999999999782
30
-6.35759999999999
 70
     32
  0
VERTEX
  8
MY3DLAYER
10
4.34960779683141
20
13.8120590477232
30
-6.35759999999999
 70
     32
  0
VERTEX
  8
MY3DLAYER
10
4.34790408814618
20
13.8249999999784
30
-6.35759999999999
 70
     32
  0
VERTEX
  8
MY3DLAYER
10
4.34960779683205
20
13.8379409522335
30
-6.35759999999999
 70
     32
  0
VERTEX
  8
MY3DLAYER
10
4.35460281795758
20
13.8499999999782
30
-6.35759999999999
 70
     32
  0
VERTEX
  8
MY3DLAYER
10
4.36254874908773
20
13.8603553390374
30
-6.35759999999999
 70
     32
  0
VERTEX
  8
MY3DLAYER
10
4.37290408814725
20
13.868301270167
30
-6.35759999999999
 70
     32
  0
VERTEX
  8
MY3DLAYER
10
4.38496313589225
20
13.8732962912919
30
-6.35759999999999
 70
     32
  0
VERTEX
  8
MY3DLAYER
10
4.39790408814742
20
13.8749999999772
30
-6.35759999999999
 70
     32
  0
VERTEX
  8
MY3DLAYER
10
4.41084504040251
20
13.8732962912913
30
-6.35759999999999
 70
     32
  0
VERTEX
  8
MY3DLAYER
10
4.42290408814726
20
13.8683012701658
30
-6.35759999999999
 70
     32
  0
VERTEX
  8
MY3DLAYER
10
4.43325942720639
20
13.8603553390356
30
-6.35759999999999
 70
     32
  0
VERTEX
  8
MY3DLAYER
10
4.44120535833602
20
13.8499999999761
30
-6.35759999999999
 70
     32
  0
VERTEX
  8
MY3DLAYER
10
4.79627577389673
20
14.0549999999677
30
-6.35759999999999
 70
     32
  0
VERTEX
  8
MY3DLAYER
10
4.79128075277189
20
14.0670590477127
30
-6.35759999999999
 70
     32
  0
VERTEX
  8
MY3DLAYER
10
4.78957704408676
20
14.0799999999678
30
-6.35759999999999
 70
     32
  0
VERTEX
  8
MY3DLAYER
10
4.79128075277275
20
14.0929409522229
30
-6.35759999999999
 70
     32
  0
VERTEX
  8
MY3DLAYER
10
4.79627577389838
20
14.1049999999676
30
-6.35759999999999
 70
     32
  0
VERTEX
  8
MY3DLAYER
10
4.80422170502861
20
14.1153553390267
30
-6.35759999999999
 70
     32
  0
VERTEX
  8
MY3DLAYER
10
4.8145770440882
20
14.1233012701562
30
-6.35759999999999
 70
     32
  0
VERTEX
  8
MY3DLAYER
10
4.82663609183324
20
14.1282962912811
30
-6.35759999999999
 70
     32
  0
VERTEX
  8
MY3DLAYER
10
4.83957704408842
20
14.1299999999662
30
-6.35759999999999
 70
     32
  0
VERTEX
  8
MY3DLAYER
10
4.85251799634349
20
14.1282962912802
30
-6.35759999999999
 70
     32
  0
VERTEX
  8
MY3DLAYER
10
4.8645770440882
20
14.1233012701546
30
-6.35759999999999
 70
     32
  0
VERTEX
  8
MY3DLAYER
10
4.87493238314727
20
14.1153553390244
30
-6.35759999999999
 70
     32
  0
VERTEX
  8
MY3DLAYER
10
4.88287831427682
20
14.1049999999648
30
-6.35759999999999
 70
     32
  0
VERTEX
  8
MY3DLAYER
10
4.88787333540166
20
14.0929409522198
30
-6.35759999999999
 70
     32
  0
VERTEX
  8
MY3DLAYER
10
4.88957704408678
20
14.0799999999646
30
-6.35759999999999
 70
     32
  0
VERTEX
  8
MY3DLAYER
10
4.8878733354008
20
14.0670590477095
30
-6.35759999999999
 70
     32
  0
VERTEX
  8
MY3DLAYER
10
4.88287831427517
20
14.0549999999648
30
-6.35759999999999
 70
     32
  0
VERTEX
  8
MY3DLAYER
10
5.23794872982234
20
13.8499999999498
30
-6.35759999999999
 70
     32
  0
VERTEX
  8
MY3DLAYER
10
5.24589466095264
20
13.8603553390088
30
-6.35759999999999
 70
     32
  0
VERTEX
  8
MY3DLAYER
10
5.25625000001231
20
13.8683012701382
30
-6.35759999999999
 70
     32
  0
VERTEX
  8
MY3DLAYER
10
5.26830904775739
20
13.873296291263
30
-6.35759999999999
 70
     32
  0
VERTEX
  8
MY3DLAYER
10
5.28125000001258
20
13.874999999948
30
-6.35759999999999
 70
     32
  0
VERTEX
  8
MY3DLAYER
10
5.29419095226764
20
13.8732962912619
30
-6.35759999999999
 70
     32
  0
VERTEX
  8
MY3DLAYER
10
5.30625000001231
20
13.8683012701362
30
-6.3576
 70
     32
  0
VERTEX
  8
MY3DLAYER
10
5.31660533907131
20
13.8603553390059
30
-6.3576
 70
     32
  0
VERTEX
  8
MY3DLAYER
10
5.32455127020079
20
13.8499999999462
30
-6.3576
 70
     32
  0
VERTEX
  8
MY3DLAYER
10
5.32954629132552
20
13.8379409522011
30
-6.3576
 70
     32
  0
VERTEX
  8
MY3DLAYER
10
5.33125000001053
20
13.8249999999459
30
-6.3576
 70
     32
  0
VERTEX
  8
MY3DLAYER
10
5.32954629132445
20
13.8120590476909
30
-6.3576
 70
     32
  0
VERTEX
  8
MY3DLAYER
10
5.32455127019871
20
13.7999999999462
30
-6.3576
 70
     32
  0
VERTEX
  8
MY3DLAYER
10
5.3166053390684
20
13.7896446608872
30
-6.3576
 70
     32
  0
VERTEX
  8
MY3DLAYER
10
5.30625000000875
20
13.7816987297577
30
-6.3576
 70
     32
  0
VERTEX
  8
MY3DLAYER
10
5.29419095226366
20
13.776703708633
30
-6.35759999999999
 70
     32
  0
VERTEX
  8
MY3DLAYER
10
5.28125000000847
20
13.774999999948
30
-6.35759999999999
 70
     32
  0
VERTEX
  8
MY3DLAYER
10
5.28124999999999
20
13.3649999999662
30
-6.35759999999999
 70
     32
  0
VERTEX
  8
MY3DLAYER
10
5.29419095225512
20
13.3632962912807
30
-6.3576
 70
     32
  0
SEQEND
  0
POLYLINE
 8
Layer0
 66
     1
70
    8
 10
0.0
 20
 0.0
 30
0.0
  0
VERTEX
  8
MY3DLAYER
10
3.1516549596209
20
13.8732962912892
30
-6.3576
 70
     32
  0
VERTEX
  8
MY3DLAYER
10
3.16459591187609
20
13.8749999999742
30
-6.3576
 70
     32
  0
VERTEX
  8
MY3DLAYER
10
3.17753686413116
20
13.8732962912881
30
-6.3576
 70
     32
  0
VERTEX
  8
MY3DLAYER
10
3.18959591187582
20
13.8683012701624
30
-6.3576
 70
     32
  0
VERTEX
  8
MY3DLAYER
10
3.19995125093482
20
13.860355339032
30
-6.35759999999999
 70
     32
  0
VERTEX
  8
MY3DLAYER
10
3.2078971820643
20
13.8499999999724
30
-6.35759999999999
 70
     32
  0
VERTEX
  8
MY3DLAYER
10
3.21289220318903
20
13.8379409522273
30
-6.35759999999999
 70
     32
  0
VERTEX
  8
MY3DLAYER
10
3.21459591187405
20
13.8249999999721
30
-6.35759999999999
 70
     32
  0
VERTEX
  8
MY3DLAYER
10
3.21289220318797
20
13.8120590477171
30
-6.35759999999999
 70
     32
  0
VERTEX
  8
MY3DLAYER
10
3.20789718206223
20
13.7999999999724
30
-6.35759999999999
 70
     32
  0
VERTEX
  8
MY3DLAYER
10
3.19995125093191
20
13.7896446609134
30
-6.35759999999999
 70
     32
  0
VERTEX
  8
MY3DLAYER
10
3.18959591187226
20
13.7816987297839
30
-6.35759999999999
 70
     32
  0
VERTEX
  8
MY3DLAYER
10
3.17753686412718
20
13.7767037086592
30
-6.35759999999999
 70
     32
  0
VERTEX
  8
MY3DLAYER
10
3.16459591187198
20
13.7749999999742
30
-6.35759999999999
 70
     32
  0
VERTEX
  8
MY3DLAYER
10
3.1645959118635
20
13.3649999999924
30
-6.35759999999999
 70
     32
  0
VERTEX
  8
MY3DLAYER
10
3.17753686411863
20
13.3632962913068
30
-6.35759999999999
 70
     32
  0
VERTEX
  8
MY3DLAYER
10
3.18959591186352
20
13.3583012701816
30
-6.35759999999999
 70
     32
  0
VERTEX
  8
MY3DLAYER
10
3.19995125092284
20
13.3503553390517
30
-6.35759999999999
 70
     32
  0
VERTEX
  8
MY3DLAYER
10
3.20789718205273
20
13.3399999999924
30
-6.35759999999999
 70
     32
  0
VERTEX
  8
MY3DLAYER
10
3.21289220317796
20
13.3279409522475
30
-6.35759999999999
 70
     32
  0
VERTEX
  8
MY3DLAYER
10
3.21459591186352
20
13.3149999999924
30
-6.35759999999999
 70
     32
  0
VERTEX
  8
MY3DLAYER
10
3.21289220317797
20
13.3020590477373
30
-6.35759999999999
 70
     32
  0
VERTEX
  8
MY3DLAYER
10
3.20789718205274
20
13.2899999999924
30
-6.35759999999999
 70
     32
  0
VERTEX
  8
MY3DLAYER
10
3.19995125092284
20
13.2796446609331
30
-6.35759999999999
 70
     32
  0
VERTEX
  8
MY3DLAYER
10
3.18959591186351
20
13.2716987298032
30
-6.35759999999999
 70
     32
  0
VERTEX
  8
MY3DLAYER
10
3.17753686411864
20
13.2667037086779
30
-6.35759999999999
 70
     32
  0
VERTEX
  8
MY3DLAYER
10
3.16459591186351
20
13.2649999999924
30
-6.35759999999999
 70
     32
  0
VERTEX
  8
MY3DLAYER
10
3.15165495960839
20
13.2667037086779
30
-6.35759999999999
 70
     32
  0
VERTEX
  8
MY3DLAYER
10
3.13959591186351
20
13.2716987298032
30
-6.35759999999999
 70
     32
  0
VERTEX
  8
MY3DLAYER
10
3.12924057280418
20
13.2796446609331
30
-6.35759999999999
 70
     32
  0
VERTEX
  8
MY3DLAYER
10
3.12129464167429
20
13.2899999999924
30
-6.35759999999999
 70
     32
  0
VERTEX
  8
MY3DLAYER
10
2.76622422611866
20
13.084999999992
30
-6.35759999999999
 70
     32
  0
VERTEX
  8
MY3DLAYER
10
2.7712192472438
20
13.0729409522471
30
-6.35759999999999
 70
     32
  0
VERTEX
  8
MY3DLAYER
10
2.77292295592924
20
13.059999999992
30
-6.35759999999999
 70
     32
  0
VERTEX
  8
MY3DLAYER
10
2.77121924724358
20
13.0470590477369
30
-6.35759999999999
 70
     32
  0
VERTEX
  8
MY3DLAYER
10
2.76622422611826
20
13.034999999992
30
-6.35759999999999
 70
     32
  0
VERTEX
  8
MY3DLAYER
10
2.75827829498827
20
13.0246446609328
30
-6.35759999999999
 70
     32
  0
VERTEX
  8
MY3DLAYER
10
2.74792295592889
20
13.016698729803
30
-6.35759999999999
 70
     32
  0
VERTEX
  8
MY3DLAYER
10
2.73586390818397
20
13.0117037086778
30
-6.35759999999999
 70
     32
  0
VERTEX
  8
MY3DLAYER
10
2.72292295592884
20
13.0099999999924
30
-6.35759999999999
 70
     32
  0
VERTEX
  8
MY3DLAYER
10
2.70998200367372
20
13.011703708678
30
-6.35759999999999
 70
     32
  0
VERTEX
  8
MY3DLAYER
10
2.69792295592887
20
13.0166987298034
30
-6.35759999999999
 70
     32
  0
VERTEX
  8
MY3DLAYER
10
2.68756761686961
20
13.0246446609333
30
-6.35759999999999
 70
     32
  0
VERTEX
  8
MY3DLAYER
10
2.6796216857398
20
13.0349999999927
30
-6.35759999999999
 70
     32
  0
VERTEX
  8
MY3DLAYER
10
2.67462666461467
20
13.0470590477377
30
-6.35759999999999
 70
     32
  0
VERTEX
  8
MY3DLAYER
10
2.67292295592922
20
13.0599999999928
30
-6.35759999999999
 70
     32
  0
VERTEX
  8
MY3DLAYER
10
2.67462666461488
20
13.0729409522479
30
-6.35759999999999
 70
     32
  0
VERTEX
  8
MY3DLAYER
10
2.67962168574022
20
13.0849999999928
30
-6.35759999999999
 70
     32
  0
VERTEX
  8
MY3DLAYER
10
2.32455127018797
20
13.289999999999
30
-6.3576
 70
     32
  0
VERTEX
  8
MY3DLAYER
10
2.31660533905792
20
13.2796446609398
30
-6.3576
 70
     32
  0
VERTEX
  8
MY3DLAYER
10
2.30624999999845
20
13.2716987298101
30
-6.3576
 70
     32
  0
VERTEX
  8
MY3DLAYER
10
2.2941909522535
20
13.266703708685
30
-6.3576
 70
     32
  0
VERTEX
  8
MY3DLAYER
10
2.28124999999834
20
13.2649999999997
30
-6.35759999999999
 70
     32
  0
VERTEX
  8
MY3DLAYER
10
2.26830904774325
20
13.2667037086854
30
-6.35759999999999
 70
     32
  0
VERTEX
  8
MY3DLAYER
10
2.25624999999845
20
13.2716987298108
30
-6.35759999999999
 70
     32
  0
VERTEX
  8
MY3DLAYER
10
2.24589466093926
20
13.2796446609409
30
-6.35759999999999
 70
     32
  0
VERTEX
  8
MY3DLAYER
10
2.23794872980954
20
13.2900000000004
30
-6.35759999999999
 70
     32
  0
VERTEX
  8
MY3DLAYER
10
2.23295370868451
20
13.3020590477453
30
-6.35759999999999
 70
     32
  0
VERTEX
  8
MY3DLAYER
10
2.23124999999916
20
13.3150000000005
30
-6.35759999999999
 70
     32
  0
VERTEX
  8
MY3DLAYER
10
2.23295370868492
20
13.3279409522556
30
-6.35759999999999
 70
     32
  0
VERTEX
  8
MY3DLAYER
10
2.23794872981036
20
13.3400000000004
30
-6.35759999999999
 70
     32
  0
VERTEX
  8
MY3DLAYER
10
2.24589466094042
20
13.3503553390596
30
-6.35759999999999
 70
     32
  0
VERTEX
  8
MY3DLAYER
10
2.25624999999987
20
13.3583012701893
30
-6.35759999999999
 70
     32
  0
VERTEX
  8
MY3DLAYER
10
2.26830904774483
20
13.3632962913143
30
-6.35759999999999
 70
     32
  0
VERTEX
  8
MY3DLAYER
10
2.28124999999999
20
13.3649999999997
30
-6.35759999999999
 70
     32
  0
VERTEX
  8
MY3DLAYER
10
2.28125000000846
20
13.7750000000033
30
-6.35759999999999
 70
     32
  0
VERTEX
  8
MY3DLAYER
10
2.26830904775338
20
13.7767037086892
30
-6.35759999999999
 70
     32
  0
VERTEX
  8
MY3DLAYER
10
2.25625000000863
20
13.7816987298147
30
-6.35759999999999
 70
     32
  0
VERTEX
  8
MY3DLAYER
10
2.2458946609495
20
13.7896446609449
30
-6.35759999999999
 70
     32
  0
VERTEX
  8
MY3DLAYER
10
2.23794872981986
20
13.8000000000044
30
-6.35759999999999
 70
     32
  0
VERTEX
  8
MY3DLAYER
10
2.23295370869492
20
13.8120590477494
30
-6.35759999999999
 70
     32
  0
VERTEX
  8
MY3DLAYER
10
2.2312500000097
20
13.8250000000046
30
-6.35759999999999
 70
     32
  0
VERTEX
  8
MY3DLAYER
10
2.23295370869556
20
13.8379409522597
30
-6.35759999999999
 70
     32
  0
VERTEX
  8
MY3DLAYER
10
2.23794872982109
20
13.8500000000044
30
-6.35759999999999
 70
     32
  0
VERTEX
  8
MY3DLAYER
10
2.24589466095124
20
13.8603553390635
30
-6.35759999999999
 70
     32
  0
VERTEX
  8
MY3DLAYER
10
2.25625000001076
20
13.8683012701932
30
-6.3576
 70
     32
  0
VERTEX
  8
MY3DLAYER
10
2.26830904775576
20
13.8732962913181
30
-6.3576
 70
     32
  0
VERTEX
  8
MY3DLAYER
10
2.28125000001094
20
13.8750000000033
30
-6.3576
 70
     32
  0
VERTEX
  8
MY3DLAYER
10
2.29419095226602
20
13.8732962913175
30
-6.3576
 70
     32
  0
VERTEX
  8
MY3DLAYER
10
2.30625000001077
20
13.8683012701919
30
-6.3576
 70
     32
  0
VERTEX
  8
MY3DLAYER
10
2.31660533906991
20
13.8603553390618
30
-6.3576
 70
     32
  0
VERTEX
  8
MY3DLAYER
10
2.32455127019954
20
13.8500000000023
30
-6.3576
 70
     32
  0
VERTEX
  8
MY3DLAYER
10
2.67962168576025
20
14.0549999999938
30
-6.3576
 70
     32
  0
VERTEX
  8
MY3DLAYER
10
2.6746266646354
20
14.0670590477389
30
-6.3576
 70
     32
  0
VERTEX
  8
MY3DLAYER
10
2.67292295595028
20
14.079999999994
30
-6.3576
 70
     32
  0
VERTEX
  8
MY3DLAYER
10
2.67462666463626
20
14.0929409522491
30
-6.3576
 70
     32
  0
VERTEX
  8
MY3DLAYER
10
2.67962168576189
20
14.1049999999938
30
-6.3576
 70
     32
  0
VERTEX
  8
MY3DLAYER
10
2.68756761689212
20
14.1153553390529
30
-6.3576
 70
     32
  0
VERTEX
  8
MY3DLAYER
10
2.69792295595171
20
14.1233012701824
30
-6.3576
 70
     32
  0
VERTEX
  8
MY3DLAYER
10
2.70998200369676
20
14.1282962913073
30
-6.3576
 70
     32
  0
VERTEX
  8
MY3DLAYER
10
2.72292295595193
20
14.1299999999924
30
-6.3576
 70
     32
  0
VERTEX
  8
MY3DLAYER
10
2.735863908207
20
14.1282962913064
30
-6.3576
 70
     32
  0
VERTEX
  8
MY3DLAYER
10
2.74792295595171
20
14.1233012701808
30
-6.3576
 70
     32
  0
VERTEX
  8
MY3DLAYER
10
2.75827829501079
20
14.1153553390505
30
-6.3576
 70
     32
  0
VERTEX
  8
MY3DLAYER
10
2.76622422614033
20
14.104999999991
30
-6.3576
 70
     32
  0
VERTEX
  8
MY3DLAYER
10
2.77121924726518
20
14.0929409522459
30
-6.3576
 70
     32
  0
VERTEX
  8
MY3DLAYER
10
2.77292295595029
20
14.0799999999908
30
-6.3576
 70
     32
  0
VERTEX
  8
MY3DLAYER
10
2.77121924726432
20
14.0670590477357
30
-6.3576
 70
     32
  0
VERTEX
  8
MY3DLAYER
10
2.76622422613869
20
14.054999999991
30
-6.3576
 70
     32
  0
VERTEX
  8
MY3DLAYER
10
3.12129464168585
20
13.8499999999759
30
-6.35759999999999
 70
     32
  0
VERTEX
  8
MY3DLAYER
10
3.12924057281615
20
13.8603553390349
30
-6.35759999999999
 70
     32
  0
VERTEX
  8
MY3DLAYER
10
3.13959591187582
20
13.8683012701644
30
-6.3576
 70
     32
  0
VERTEX
  8
MY3DLAYER
10
3.1516549596209
20
13.8732962912892
30
-6.3576
 70
     32
  0
SEQEND
  0
POLYLINE
 8
Layer0
 66
     1
70
    8
 10
0.0
 20
 0.0
 30
0.0
  0
VERTEX
  8
MY3DLAYER
10
2.68756761689212
20
11.4003553390437
30
-6.35759999999999
 70
     32
  0
VERTEX
  8
MY3DLAYER
10
2.69792295595171
20
11.4083012701733
30
-6.35759999999999
 70
     32
  0
VERTEX
  8
MY3DLAYER
10
2.70998200369676
20
11.4132962912982
30
-6.35759999999999
 70
     32
  0
VERTEX
  8
MY3DLAYER
10
2.72292295595193
20
11.4149999999833
30
-6.35759999999999
 70
     32
  0
VERTEX
  8
MY3DLAYER
10
2.735863908207
20
11.4132962912973
30
-6.35759999999999
 70
     32
  0
VERTEX
  8
MY3DLAYER
10
2.74792295595171
20
11.4083012701716
30
-6.35759999999999
 70
     32
  0
VERTEX
  8
MY3DLAYER
10
2.75827829501079
20
11.4003553390414
30
-6.35759999999999
 70
     32
  0
VERTEX
  8
MY3DLAYER
10
2.76622422614033
20
11.3899999999818
30
-6.35759999999999
 70
     32
  0
VERTEX
  8
MY3DLAYER
10
2.77121924726518
20
11.3779409522368
30
-6.35759999999999
 70
     32
  0
VERTEX
  8
MY3DLAYER
10
2.77292295595029
20
11.3649999999816
30
-6.35759999999999
 70
     32
  0
VERTEX
  8
MY3DLAYER
10
2.77121924726432
20
11.3520590477265
30
-6.35759999999999
 70
     32
  0
VERTEX
  8
MY3DLAYER
10
2.76622422613869
20
11.3399999999818
30
-6.35759999999999
 70
     32
  0
VERTEX
  8
MY3DLAYER
10
3.12129464168585
20
11.1349999999668
30
-6.35759999999999
 70
     32
  0
VERTEX
  8
MY3DLAYER
10
3.12924057281615
20
11.1453553390258
30
-6.35759999999999
 70
     32
  0
VERTEX
  8
MY3DLAYER
10
3.13959591187582
20
11.1533012701553
30
-6.35759999999999
 70
     32
  0
VERTEX
  8
MY3DLAYER
10
3.1516549596209
20
11.15829629128
30
-6.35759999999999
 70
     32
  0
VERTEX
  8
MY3DLAYER
10
3.16459591187609
20
11.159999999965
30
-6.35759999999999
 70
     32
  0
VERTEX
  8
MY3DLAYER
10
3.17753686413116
20
11.158296291279
30
-6.35759999999999
 70
     32
  0
VERTEX
  8
MY3DLAYER
10
3.18959591187582
20
11.1533012701532
30
-6.35759999999999
 70
     32
  0
VERTEX
  8
MY3DLAYER
10
3.19995125093482
20
11.1453553390229
30
-6.35759999999999
 70
     32
  0
VERTEX
  8
MY3DLAYER
10
3.2078971820643
20
11.1349999999633
30
-6.35759999999999
 70
     32
  0
VERTEX
  8
MY3DLAYER
10
3.21289220318903
20
11.1229409522182
30
-6.35759999999999
 70
     32
  0
VERTEX
  8
MY3DLAYER
10
3.21459591187405
20
11.109999999963
30
-6.35759999999999
 70
     32
  0
VERTEX
  8
MY3DLAYER
10
3.21289220318797
20
11.097059047708
30
-6.35759999999999
 70
     32
  0
VERTEX
  8
MY3DLAYER
10
3.20789718206223
20
11.0849999999633
30
-6.35759999999999
 70
     32
  0
VERTEX
  8
MY3DLAYER
10
3.19995125093191
20
11.0746446609042
30
-6.35759999999999
 70
     32
  0
VERTEX
  8
MY3DLAYER
10
3.18959591187226
20
11.0666987297748
30
-6.35759999999999
 70
     32
  0
VERTEX
  8
MY3DLAYER
10
3.17753686412718
20
11.06170370865
30
-6.35759999999999
 70
     32
  0
VERTEX
  8
MY3DLAYER
10
3.16459591187198
20
11.059999999965
30
-6.35759999999999
 70
     32
  0
VERTEX
  8
MY3DLAYER
10
3.1645959118635
20
10.6499999999833
30
-6.35759999999999
 70
     32
  0
VERTEX
  8
MY3DLAYER
10
3.17753686411863
20
10.6482962912977
30
-6.35759999999999
 70
     32
  0
VERTEX
  8
MY3DLAYER
10
3.18959591186351
20
10.6433012701725
30
-6.35759999999999
 70
     32
  0
VERTEX
  8
MY3DLAYER
10
3.19995125092283
20
10.6353553390426
30
-6.35759999999999
 70
     32
  0
VERTEX
  8
MY3DLAYER
10
3.20789718205273
20
10.6249999999832
30
-6.35759999999999
 70
     32
  0
VERTEX
  8
MY3DLAYER
10
3.21289220317796
20
10.6129409522384
30
-6.35759999999999
 70
     32
  0
VERTEX
  8
MY3DLAYER
10
3.21459591186351
20
10.5999999999833
30
-6.35759999999999
 70
     32
  0
VERTEX
  8
MY3DLAYER
10
3.21289220317796
20
10.5870590477281
30
-6.35759999999999
 70
     32
  0
VERTEX
  8
MY3DLAYER
10
3.20789718205273
20
10.5749999999833
30
-6.35759999999999
 70
     32
  0
VERTEX
  8
MY3DLAYER
10
3.19995125092284
20
10.5646446609239
30
-6.35759999999999
 70
     32
  0
VERTEX
  8
MY3DLAYER
10
3.18959591186351
20
10.5566987297941
30
-6.35759999999999
 70
     32
  0
VERTEX
  8
MY3DLAYER
10
3.17753686411863
20
10.5517037086688
30
-6.35759999999999
 70
     32
  0
VERTEX
  8
MY3DLAYER
10
3.16459591186351
20
10.5499999999833
30
-6.35759999999999
 70
     32
  0
VERTEX
  8
MY3DLAYER
10
3.15165495960838
20
10.5517037086688
30
-6.35759999999999
 70
     32
  0
VERTEX
  8
MY3DLAYER
10
3.1395959118635
20
10.556698729794
30
-6.35759999999999
 70
     32
  0
VERTEX
  8
MY3DLAYER
10
3.12924057280418
20
10.5646446609239
30
-6.35759999999999
 70
     32
  0
VERTEX
  8
MY3DLAYER
10
3.12129464167428
20
10.5749999999833
30
-6.35759999999999
 70
     32
  0
VERTEX
  8
MY3DLAYER
10
2.76622422611866
20
10.3699999999829
30
-6.35759999999999
 70
     32
  0
VERTEX
  8
MY3DLAYER
10
2.7712192472438
20
10.357940952238
30
-6.35759999999999
 70
     32
  0
VERTEX
  8
MY3DLAYER
10
2.77292295592924
20
10.3449999999828
30
-6.35759999999999
 70
     32
  0
VERTEX
  8
MY3DLAYER
10
2.77121924724358
20
10.3320590477278
30
-6.35759999999999
 70
     32
  0
VERTEX
  8
MY3DLAYER
10
2.76622422611825
20
10.3199999999829
30
-6.35759999999999
 70
     32
  0
VERTEX
  8
MY3DLAYER
10
2.75827829498827
20
10.3096446609236
30
-6.3576
 70
     32
  0
VERTEX
  8
MY3DLAYER
10
2.74792295592889
20
10.3016987297939
30
-6.3576
 70
     32
  0
VERTEX
  8
MY3DLAYER
10
2.73586390818396
20
10.2967037086687
30
-6.3576
 70
     32
  0
VERTEX
  8
MY3DLAYER
10
2.72292295592883
20
10.2949999999833
30
-6.3576
 70
     32
  0
VERTEX
  8
MY3DLAYER
10
2.70998200367371
20
10.2967037086689
30
-6.3576
 70
     32
  0
VERTEX
  8
MY3DLAYER
10
2.69792295592887
20
10.3016987297943
30
-6.3576
 70
     32
  0
VERTEX
  8
MY3DLAYER
10
2.68756761686961
20
10.3096446609242
30
-6.3576
 70
     32
  0
VERTEX
  8
MY3DLAYER
10
2.6796216857398
20
10.3199999999836
30
-6.3576
 70
     32
  0
VERTEX
  8
MY3DLAYER
10
2.67462666461467
20
10.3320590477285
30
-6.3576
 70
     32
  0
VERTEX
  8
MY3DLAYER
10
2.67292295592922
20
10.3449999999837
30
-6.3576
 70
     32
  0
VERTEX
  8
MY3DLAYER
10
2.67462666461488
20
10.3579409522388
30
-6.3576
 70
     32
  0
VERTEX
  8
MY3DLAYER
10
2.67962168574022
20
10.3699999999836
30
-6.3576
 70
     32
  0
VERTEX
  8
MY3DLAYER
10
2.32455127018797
20
10.5749999999898
30
-6.3576
 70
     32
  0
VERTEX
  8
MY3DLAYER
10
2.31660533905791
20
10.5646446609306
30
-6.3576
 70
     32
  0
VERTEX
  8
MY3DLAYER
10
2.30624999999845
20
10.5566987298009
30
-6.3576
 70
     32
  0
VERTEX
  8
MY3DLAYER
10
2.29419095225349
20
10.5517037086759
30
-6.3576
 70
     32
  0
VERTEX
  8
MY3DLAYER
10
2.28124999999834
20
10.5499999999906
30
-6.3576
 70
     32
  0
VERTEX
  8
MY3DLAYER
10
2.26830904774324
20
10.5517037086763
30
-6.3576
 70
     32
  0
VERTEX
  8
MY3DLAYER
10
2.25624999999845
20
10.5566987298017
30
-6.3576
 70
     32
  0
VERTEX
  8
MY3DLAYER
10
2.24589466093925
20
10.5646446609318
30
-6.3576
 70
     32
  0
VERTEX
  8
MY3DLAYER
10
2.23794872980953
20
10.5749999999913
30
-6.3576
 70
     32
  0
VERTEX
  8
MY3DLAYER
10
2.2329537086845
20
10.5870590477362
30
-6.3576
 70
     32
  0
VERTEX
  8
MY3DLAYER
10
2.23124999999916
20
10.5999999999914
30
-6.3576
 70
     32
  0
VERTEX
  8
MY3DLAYER
10
2.23295370868492
20
10.6129409522465
30
-6.3576
 70
     32
  0
VERTEX
  8
MY3DLAYER
10
2.23794872981036
20
10.6249999999913
30
-6.3576
 70
     32
  0
VERTEX
  8
MY3DLAYER
10
2.24589466094042
20
10.6353553390505
30
-6.3576
 70
     32
  0
VERTEX
  8
MY3DLAYER
10
2.25624999999987
20
10.6433012701802
30
-6.3576
 70
     32
  0
VERTEX
  8
MY3DLAYER
10
2.26830904774483
20
10.6482962913052
30
-6.3576
 70
     32
  0
VERTEX
  8
MY3DLAYER
10
2.28124999999999
20
10.6499999999905
30
-6.3576
 70
     32
  0
VERTEX
  8
MY3DLAYER
10
2.28125000000846
20
11.0599999999942
30
-6.35759999999999
 70
     32
  0
VERTEX
  8
MY3DLAYER
10
2.26830904775338
20
11.0617037086801
30
-6.35759999999999
 70
     32
  0
VERTEX
  8
MY3DLAYER
10
2.25625000000863
20
11.0666987298056
30
-6.3576
 70
     32
  0
VERTEX
  8
MY3DLAYER
10
2.2458946609495
20
11.0746446609357
30
-6.3576
 70
     32
  0
VERTEX
  8
MY3DLAYER
10
2.23794872981986
20
11.0849999999953
30
-6.3576
 70
     32
  0
VERTEX
  8
MY3DLAYER
10
2.23295370869492
20
11.0970590477403
30
-6.3576
 70
     32
  0
VERTEX
  8
MY3DLAYER
10
2.2312500000097
20
11.1099999999954
30
-6.3576
 70
     32
  0
VERTEX
  8
MY3DLAYER
10
2.23295370869556
20
11.1229409522505
30
-6.3576
 70
     32
  0
VERTEX
  8
MY3DLAYER
10
2.23794872982109
20
11.1349999999953
30
-6.3576
 70
     32
  0
VERTEX
  8
MY3DLAYER
10
2.24589466095124
20
11.1453553390544
30
-6.35759999999999
 70
     32
  0
VERTEX
  8
MY3DLAYER
10
2.25625000001076
20
11.1533012701841
30
-6.35759999999999
 70
     32
  0
VERTEX
  8
MY3DLAYER
10
2.26830904775576
20
11.158296291309
30
-6.35759999999999
 70
     32
  0
VERTEX
  8
MY3DLAYER
10
2.28125000001094
20
11.1599999999942
30
-6.35759999999999
 70
     32
  0
VERTEX
  8
MY3DLAYER
10
2.29419095226602
20
11.1582962913083
30
-6.3576
 70
     32
  0
VERTEX
  8
MY3DLAYER
10
2.30625000001077
20
11.1533012701828
30
-6.3576
 70
     32
  0
VERTEX
  8
MY3DLAYER
10
2.31660533906991
20
11.1453553390527
30
-6.3576
 70
     32
  0
VERTEX
  8
MY3DLAYER
10
2.32455127019954
20
11.1349999999931
30
-6.3576
 70
     32
  0
VERTEX
  8
MY3DLAYER
10
2.67962168576025
20
11.3399999999847
30
-6.35759999999999
 70
     32
  0
VERTEX
  8
MY3DLAYER
10
2.6746266646354
20
11.3520590477297
30
-6.35759999999999
 70
     32
  0
VERTEX
  8
MY3DLAYER
10
2.67292295595028
20
11.3649999999849
30
-6.35759999999999
 70
     32
  0
VERTEX
  8
MY3DLAYER
10
2.67462666463626
20
11.37794095224
30
-6.35759999999999
 70
     32
  0
VERTEX
  8
MY3DLAYER
10
2.67962168576189
20
11.3899999999847
30
-6.35759999999999
 70
     32
  0
VERTEX
  8
MY3DLAYER
10
2.68756761689212
20
11.4003553390437
30
-6.35759999999999
 70
     32
  0
SEQEND
  0
POLYLINE
 8
Layer0
 66
     1
70
    8
 10
0.0
 20
 0.0
 30
0.0
  0
VERTEX
  8
MY3DLAYER
10
5.23794872982234
20
11.1349999999406
30
-6.35759999999999
 70
     32
  0
VERTEX
  8
MY3DLAYER
10
5.24589466095264
20
11.1453553389996
30
-6.35759999999999
 70
     32
  0
VERTEX
  8
MY3DLAYER
10
5.25625000001231
20
11.1533012701291
30
-6.3576
 70
     32
  0
VERTEX
  8
MY3DLAYER
10
5.26830904775739
20
11.1582962912538
30
-6.3576
 70
     32
  0
VERTEX
  8
MY3DLAYER
10
5.28125000001258
20
11.1599999999389
30
-6.3576
 70
     32
  0
VERTEX
  8
MY3DLAYER
10
5.29419095226764
20
11.1582962912528
30
-6.3576
 70
     32
  0
VERTEX
  8
MY3DLAYER
10
5.30625000001231
20
11.1533012701271
30
-6.3576
 70
     32
  0
VERTEX
  8
MY3DLAYER
10
5.31660533907131
20
11.1453553389967
30
-6.3576
 70
     32
  0
VERTEX
  8
MY3DLAYER
10
5.32455127020079
20
11.1349999999371
30
-6.3576
 70
     32
  0
VERTEX
  8
MY3DLAYER
10
5.32954629132552
20
11.122940952192
30
-6.3576
 70
     32
  0
VERTEX
  8
MY3DLAYER
10
5.33125000001054
20
11.1099999999368
30
-6.3576
 70
     32
  0
VERTEX
  8
MY3DLAYER
10
5.32954629132446
20
11.0970590476818
30
-6.3576
 70
     32
  0
VERTEX
  8
MY3DLAYER
10
5.32455127019871
20
11.0849999999371
30
-6.3576
 70
     32
  0
VERTEX
  8
MY3DLAYER
10
5.3166053390684
20
11.0746446608781
30
-6.3576
 70
     32
  0
VERTEX
  8
MY3DLAYER
10
5.30625000000875
20
11.0666987297486
30
-6.3576
 70
     32
  0
VERTEX
  8
MY3DLAYER
10
5.29419095226366
20
11.0617037086239
30
-6.3576
 70
     32
  0
VERTEX
  8
MY3DLAYER
10
5.28125000000847
20
11.0599999999389
30
-6.3576
 70
     32
  0
VERTEX
  8
MY3DLAYER
10
5.28124999999999
20
10.6499999999571
30
-6.3576
 70
     32
  0
VERTEX
  8
MY3DLAYER
10
5.29419095225512
20
10.6482962912715
30
-6.3576
 70
     32
  0
VERTEX
  8
MY3DLAYER
10
5.30625
20
10.6433012701463
30
-6.3576
 70
     32
  0
VERTEX
  8
MY3DLAYER
10
5.31660533905932
20
10.6353553390164
30
-6.3576
 70
     32
  0
VERTEX
  8
MY3DLAYER
10
5.32455127018921
20
10.6249999999571
30
-6.3576
 70
     32
  0
VERTEX
  8
MY3DLAYER
10
5.32954629131445
20
10.6129409522122
30
-6.3576
 70
     32
  0
VERTEX
  8
MY3DLAYER
10
5.33125
20
10.5999999999571
30
-6.3576
 70
     32
  0
VERTEX
  8
MY3DLAYER
10
5.32954629131445
20
10.587059047702
30
-6.3576
 70
     32
  0
VERTEX
  8
MY3DLAYER
10
5.32455127018922
20
10.5749999999571
30
-6.3576
 70
     32
  0
VERTEX
  8
MY3DLAYER
10
5.31660533905933
20
10.5646446608978
30
-6.3576
 70
     32
  0
VERTEX
  8
MY3DLAYER
10
5.30625
20
10.5566987297679
30
-6.3576
 70
     32
  0
VERTEX
  8
MY3DLAYER
10
5.29419095225512
20
10.5517037086426
30
-6.3576
 70
     32
  0
VERTEX
  8
MY3DLAYER
10
5.28124999999999
20
10.5499999999571
30
-6.3576
 70
     32
  0
VERTEX
  8
MY3DLAYER
10
5.26830904774487
20
10.5517037086426
30
-6.3576
 70
     32
  0
VERTEX
  8
MY3DLAYER
10
5.25624999999999
20
10.5566987297679
30
-6.3576
 70
     32
  0
VERTEX
  8
MY3DLAYER
10
5.24589466094067
20
10.5646446608978
30
-6.3576
 70
     32
  0
VERTEX
  8
MY3DLAYER
10
5.23794872981077
20
10.5749999999571
30
-6.35759999999999
 70
     32
  0
VERTEX
  8
MY3DLAYER
10
4.88287831425514
20
10.3699999999567
30
-6.35759999999999
 70
     32
  0
VERTEX
  8
MY3DLAYER
10
4.88787333538029
20
10.3579409522118
30
-6.35759999999999
 70
     32
  0
VERTEX
  8
MY3DLAYER
10
4.88957704406572
20
10.3449999999567
30
-6.35759999999999
 70
     32
  0
VERTEX
  8
MY3DLAYER
10
4.88787333538007
20
10.3320590477016
30
-6.35759999999999
 70
     32
  0
VERTEX
  8
MY3DLAYER
10
4.88287831425474
20
10.3199999999567
30
-6.35759999999999
 70
     32
  0
VERTEX
  8
MY3DLAYER
10
4.87493238312476
20
10.3096446608975
30
-6.35759999999999
 70
     32
  0
VERTEX
  8
MY3DLAYER
10
4.86457704406537
20
10.3016987297677
30
-6.35759999999999
 70
     32
  0
VERTEX
  8
MY3DLAYER
10
4.85251799632045
20
10.2967037086425
30
-6.35759999999999
 70
     32
  0
VERTEX
  8
MY3DLAYER
10
4.83957704406532
20
10.2949999999571
30
-6.35759999999999
 70
     32
  0
VERTEX
  8
MY3DLAYER
10
4.8266360918102
20
10.2967037086427
30
-6.35759999999999
 70
     32
  0
VERTEX
  8
MY3DLAYER
10
4.81457704406536
20
10.3016987297681
30
-6.35759999999999
 70
     32
  0
VERTEX
  8
MY3DLAYER
10
4.80422170500609
20
10.309644660898
30
-6.35759999999999
 70
     32
  0
VERTEX
  8
MY3DLAYER
10
4.79627577387629
20
10.3199999999574
30
-6.35759999999999
 70
     32
  0
VERTEX
  8
MY3DLAYER
10
4.79128075275115
20
10.3320590477023
30
-6.35759999999999
 70
     32
  0
VERTEX
  8
MY3DLAYER
10
4.7895770440657
20
10.3449999999575
30
-6.35759999999999
 70
     32
  0
VERTEX
  8
MY3DLAYER
10
4.79128075275136
20
10.3579409522126
30
-6.35759999999999
 70
     32
  0
VERTEX
  8
MY3DLAYER
10
4.79627577387671
20
10.3699999999575
30
-6.35759999999999
 70
     32
  0
VERTEX
  8
MY3DLAYER
10
4.44120535832446
20
10.5749999999637
30
-6.35759999999999
 70
     32
  0
VERTEX
  8
MY3DLAYER
10
4.4332594271944
20
10.5646446609045
30
-6.35759999999999
 70
     32
  0
VERTEX
  8
MY3DLAYER
10
4.42290408813494
20
10.5566987297747
30
-6.35759999999999
 70
     32
  0
VERTEX
  8
MY3DLAYER
10
4.41084504038998
20
10.5517037086497
30
-6.35759999999999
 70
     32
  0
VERTEX
  8
MY3DLAYER
10
4.39790408813483
20
10.5499999999644
30
-6.35759999999999
 70
     32
  0
VERTEX
  8
MY3DLAYER
10
4.38496313587973
20
10.5517037086501
30
-6.35759999999999
 70
     32
  0
VERTEX
  8
MY3DLAYER
10
4.37290408813493
20
10.5566987297755
30
-6.35759999999999
 70
     32
  0
VERTEX
  8
MY3DLAYER
10
4.36254874907574
20
10.5646446609056
30
-6.35759999999999
 70
     32
  0
VERTEX
  8
MY3DLAYER
10
4.35460281794602
20
10.5749999999651
30
-6.35759999999999
 70
     32
  0
VERTEX
  8
MY3DLAYER
10
4.34960779682099
20
10.58705904771
30
-6.35759999999999
 70
     32
  0
VERTEX
  8
MY3DLAYER
10
4.34790408813564
20
10.5999999999652
30
-6.35759999999999
 70
     32
  0
VERTEX
  8
MY3DLAYER
10
4.3496077968214
20
10.6129409522203
30
-6.35759999999999
 70
     32
  0
VERTEX
  8
MY3DLAYER
10
4.35460281794684
20
10.6249999999651
30
-6.35759999999999
 70
     32
  0
VERTEX
  8
MY3DLAYER
10
4.3625487490769
20
10.6353553390243
30
-6.35759999999999
 70
     32
  0
VERTEX
  8
MY3DLAYER
10
4.37290408813636
20
10.643301270154
30
-6.35759999999999
 70
     32
  0
VERTEX
  8
MY3DLAYER
10
4.38496313588131
20
10.648296291279
30
-6.35759999999999
 70
     32
  0
VERTEX
  8
MY3DLAYER
10
4.39790408813647
20
10.6499999999644
30
-6.35759999999999
 70
     32
  0
VERTEX
  8
MY3DLAYER
10
4.39790408814495
20
11.059999999968
30
-6.35759999999999
 70
     32
  0
VERTEX
  8
MY3DLAYER
10
4.38496313588987
20
11.0617037086539
30
-6.35759999999999
 70
     32
  0
VERTEX
  8
MY3DLAYER
10
4.37290408814512
20
11.0666987297794
30
-6.35759999999999
 70
     32
  0
VERTEX
  8
MY3DLAYER
10
4.36254874908598
20
11.0746446609096
30
-6.35759999999999
 70
     32
  0
VERTEX
  8
MY3DLAYER
10
4.35460281795635
20
11.0849999999691
30
-6.35759999999999
 70
     32
  0
VERTEX
  8
MY3DLAYER
10
4.34960779683141
20
11.0970590477141
30
-6.35759999999999
 70
     32
  0
VERTEX
  8
MY3DLAYER
10
4.34790408814619
20
11.1099999999692
30
-6.35759999999999
 70
     32
  0
VERTEX
  8
MY3DLAYER
10
4.34960779683205
20
11.1229409522243
30
-6.35759999999999
 70
     32
  0
VERTEX
  8
MY3DLAYER
10
4.35460281795758
20
11.1349999999691
30
-6.35759999999999
 70
     32
  0
VERTEX
  8
MY3DLAYER
10
4.36254874908773
20
11.1453553390282
30
-6.35759999999999
 70
     32
  0
VERTEX
  8
MY3DLAYER
10
4.37290408814725
20
11.1533012701579
30
-6.35759999999999
 70
     32
  0
VERTEX
  8
MY3DLAYER
10
4.38496313589225
20
11.1582962912828
30
-6.35759999999999
 70
     32
  0
VERTEX
  8
MY3DLAYER
10
4.39790408814742
20
11.159999999968
30
-6.35759999999999
 70
     32
  0
VERTEX
  8
MY3DLAYER
10
4.41084504040251
20
11.1582962912822
30
-6.35759999999999
 70
     32
  0
VERTEX
  8
MY3DLAYER
10
4.42290408814726
20
11.1533012701566
30
-6.35759999999999
 70
     32
  0
VERTEX
  8
MY3DLAYER
10
4.43325942720639
20
11.1453553390265
30
-6.35759999999999
 70
     32
  0
VERTEX
  8
MY3DLAYER
10
4.44120535833603
20
11.134999999967
30
-6.35759999999999
 70
     32
  0
VERTEX
  8
MY3DLAYER
10
4.79627577389674
20
11.3399999999585
30
-6.35759999999999
 70
     32
  0
VERTEX
  8
MY3DLAYER
10
4.79128075277189
20
11.3520590477035
30
-6.35759999999999
 70
     32
  0
VERTEX
  8
MY3DLAYER
10
4.78957704408677
20
11.3649999999587
30
-6.35759999999999
 70
     32
  0
VERTEX
  8
MY3DLAYER
10
4.79128075277275
20
11.3779409522138
30
-6.35759999999999
 70
     32
  0
VERTEX
  8
MY3DLAYER
10
4.79627577389838
20
11.3899999999585
30
-6.35759999999999
 70
     32
  0
VERTEX
  8
MY3DLAYER
10
4.80422170502861
20
11.4003553390176
30
-6.35759999999999
 70
     32
  0
VERTEX
  8
MY3DLAYER
10
4.8145770440882
20
11.4083012701471
30
-6.35759999999999
 70
     32
  0
VERTEX
  8
MY3DLAYER
10
4.82663609183324
20
11.413296291272
30
-6.35759999999999
 70
     32
  0
VERTEX
  8
MY3DLAYER
10
4.83957704408842
20
11.4149999999571
30
-6.35759999999999
 70
     32
  0
VERTEX
  8
MY3DLAYER
10
4.85251799634349
20
11.4132962912711
30
-6.35759999999999
 70
     32
  0
VERTEX
  8
MY3DLAYER
10
4.8645770440882
20
11.4083012701455
30
-6.35759999999999
 70
     32
  0
VERTEX
  8
MY3DLAYER
10
4.87493238314728
20
11.4003553390152
30
-6.35759999999999
 70
     32
  0
VERTEX
  8
MY3DLAYER
10
4.88287831427682
20
11.3899999999556
30
-6.35759999999999
 70
     32
  0
VERTEX
  8
MY3DLAYER
10
4.88787333540166
20
11.3779409522106
30
-6.35759999999999
 70
     32
  0
VERTEX
  8
MY3DLAYER
10
4.88957704408678
20
11.3649999999554
30
-6.35759999999999
 70
     32
  0
VERTEX
  8
MY3DLAYER
10
4.88787333540081
20
11.3520590477004
30
-6.35759999999999
 70
     32
  0
VERTEX
  8
MY3DLAYER
10
4.88287831427517
20
11.3399999999557
30
-6.35759999999999
 70
     32
  0
VERTEX
  8
MY3DLAYER
10
5.23794872982234
20
11.1349999999406
30
-6.35759999999999
 70
     32
  0
SEQEND
  0
POLYLINE
 8
Layer0
 66
     1
70
    8
 10
0.0
 20
 0.0
 30
0.0
  0
VERTEX
  8
MY3DLAYER
10
4.4332594271944
20
7.84964466089533
30
-6.35759999999999
 70
     32
  0
VERTEX
  8
MY3DLAYER
10
4.42290408813494
20
7.84169872976561
30
-6.35759999999999
 70
     32
  0
VERTEX
  8
MY3DLAYER
10
4.41084504038998
20
7.83670370864056
30
-6.35759999999999
 70
     32
  0
VERTEX
  8
MY3DLAYER
10
4.39790408813483
20
7.83499999995527
30
-6.35759999999999
 70
     32
  0
VERTEX
  8
MY3DLAYER
10
4.38496313587973
20
7.83670370864099
30
-6.35759999999999
 70
     32
  0
VERTEX
  8
MY3DLAYER
10
4.37290408813494
20
7.84169872976639
30
-6.35759999999999
 70
     32
  0
VERTEX
  8
MY3DLAYER
10
4.36254874907574
20
7.84964466089649
30
-6.35759999999999
 70
     32
  0
VERTEX
  8
MY3DLAYER
10
4.35460281794603
20
7.85999999995594
30
-6.35759999999999
 70
     32
  0
VERTEX
  8
MY3DLAYER
10
4.34960779682099
20
7.87205904770089
30
-6.35759999999999
 70
     32
  0
VERTEX
  8
MY3DLAYER
10
4.34790408813565
20
7.88499999995604
30
-6.35759999999999
 70
     32
  0
VERTEX
  8
MY3DLAYER
10
4.3496077968214
20
7.89794095221115
30
-6.35759999999999
 70
     32
  0
VERTEX
  8
MY3DLAYER
10
4.35460281794685
20
7.90999999995595
30
-6.35759999999999
 70
     32
  0
VERTEX
  8
MY3DLAYER
10
4.36254874907691
20
7.92035533901514
30
-6.35759999999999
 70
     32
  0
VERTEX
  8
MY3DLAYER
10
4.37290408813636
20
7.92830127014486
30
-6.35759999999999
 70
     32
  0
VERTEX
  8
MY3DLAYER
10
4.38496313588132
20
7.93329629126989
30
-6.35759999999999
 70
     32
  0
VERTEX
  8
MY3DLAYER
10
4.39790408813648
20
7.93499999995523
30
-6.35759999999999
 70
     32
  0
VERTEX
  8
MY3DLAYER
10
4.39790408814495
20
8.34499999995888
30
-6.35759999999999
 70
     32
  0
VERTEX
  8
MY3DLAYER
10
4.38496313588986
20
8.34670370864476
30
-6.35759999999999
 70
     32
  0
VERTEX
  8
MY3DLAYER
10
4.37290408814511
20
8.35169872977029
30
-6.35759999999999
 70
     32
  0
VERTEX
  8
MY3DLAYER
10
4.36254874908598
20
8.35964466090043
30
-6.35759999999999
 70
     32
  0
VERTEX
  8
MY3DLAYER
10
4.35460281795634
20
8.36999999995997
30
-6.35759999999999
 70
     32
  0
VERTEX
  8
MY3DLAYER
10
4.3496077968314
20
8.38205904770495
30
-6.35759999999999
 70
     32
  0
VERTEX
  8
MY3DLAYER
10
4.34790408814618
20
8.39499999996011
30
-6.35759999999999
 70
     32
  0
VERTEX
  8
MY3DLAYER
10
4.34960779683204
20
8.40794095221521
30
-6.35759999999999
 70
     32
  0
VERTEX
  8
MY3DLAYER
10
4.35460281795757
20
8.41999999995995
30
-6.35759999999999
 70
     32
  0
VERTEX
  8
MY3DLAYER
10
4.36254874908773
20
8.43035533901909
30
-6.35759999999999
 70
     32
  0
VERTEX
  8
MY3DLAYER
10
4.37290408814725
20
8.43830127014874
30
-6.35759999999999
 70
     32
  0
VERTEX
  8
MY3DLAYER
10
4.38496313589225
20
8.44329629127368
30
-6.35759999999999
 70
     32
  0
VERTEX
  8
MY3DLAYER
10
4.39790408814742
20
8.44499999995889
30
-6.35759999999999
 70
     32
  0
VERTEX
  8
MY3DLAYER
10
4.4108450404025
20
8.44329629127303
30
-6.35759999999999
 70
     32
  0
VERTEX
  8
MY3DLAYER
10
4.42290408814725
20
8.43830127014748
30
-6.35759999999999
 70
     32
  0
VERTEX
  8
MY3DLAYER
10
4.43325942720639
20
8.43035533901735
30
-6.35759999999999
 70
     32
  0
VERTEX
  8
MY3DLAYER
10
4.44120535833602
20
8.41999999995783
30
-6.35759999999999
 70
     32
  0
VERTEX
  8
MY3DLAYER
10
4.79627577389673
20
8.6249999999494
30
-6.35759999999999
 70
     32
  0
VERTEX
  8
MY3DLAYER
10
4.79128075277189
20
8.63705904769441
30
-6.35759999999999
 70
     32
  0
VERTEX
  8
MY3DLAYER
10
4.78957704408676
20
8.64999999994957
30
-6.35759999999999
 70
     32
  0
VERTEX
  8
MY3DLAYER
10
4.79128075277275
20
8.66294095220468
30
-6.35759999999999
 70
     32
  0
VERTEX
  8
MY3DLAYER
10
4.79627577389838
20
8.67499999994936
30
-6.35759999999999
 70
     32
  0
VERTEX
  8
MY3DLAYER
10
4.8042217050286
20
8.68535533900843
30
-6.35759999999999
 70
     32
  0
VERTEX
  8
MY3DLAYER
10
4.81457704408819
20
8.69330127013798
30
-6.35759999999999
 70
     32
  0
VERTEX
  8
MY3DLAYER
10
4.82663609183324
20
8.69829629126284
30
-6.35759999999999
 70
     32
  0
VERTEX
  8
MY3DLAYER
10
4.83957704408842
20
8.69999999994794
30
-6.35759999999999
 70
     32
  0
VERTEX
  8
MY3DLAYER
10
4.85251799634348
20
8.69829629126195
30
-6.35759999999999
 70
     32
  0
VERTEX
  8
MY3DLAYER
10
4.8645770440882
20
8.69330127013633
30
-6.35759999999999
 70
     32
  0
VERTEX
  8
MY3DLAYER
10
4.87493238314727
20
8.68535533900609
30
-6.35759999999999
 70
     32
  0
VERTEX
  8
MY3DLAYER
10
4.88287831427681
20
8.67499999994651
30
-6.35759999999999
 70
     32
  0
VERTEX
  8
MY3DLAYER
10
4.88787333540166
20
8.66294095220149
30
-6.35759999999999
 70
     32
  0
VERTEX
  8
MY3DLAYER
10
4.88957704408677
20
8.64999999994631
30
-6.35759999999999
 70
     32
  0
VERTEX
  8
MY3DLAYER
10
4.8878733354008
20
8.63705904769122
30
-6.35759999999999
 70
     32
  0
VERTEX
  8
MY3DLAYER
10
4.88287831427517
20
8.62499999994652
30
-6.35759999999999
 70
     32
  0
VERTEX
  8
MY3DLAYER
10
5.23794872982233
20
8.41999999993149
30
-6.3576
 70
     32
  0
VERTEX
  8
MY3DLAYER
10
5.24589466095264
20
8.43035533899049
30
-6.3576
 70
     32
  0
VERTEX
  8
MY3DLAYER
10
5.2562500000123
20
8.43830127011998
30
-6.3576
 70
     32
  0
VERTEX
  8
MY3DLAYER
10
5.26830904775739
20
8.44329629124471
30
-6.3576
 70
     32
  0
VERTEX
  8
MY3DLAYER
10
5.28125000001258
20
8.44499999992972
30
-6.3576
 70
     32
  0
VERTEX
  8
MY3DLAYER
10
5.29419095226764
20
8.44329629124365
30
-6.3576
 70
     32
  0
VERTEX
  8
MY3DLAYER
10
5.30625000001231
20
8.43830127011792
30
-6.3576
 70
     32
  0
VERTEX
  8
MY3DLAYER
10
5.3166053390713
20
8.4303553389876
30
-6.3576
 70
     32
  0
VERTEX
  8
MY3DLAYER
10
5.32455127020078
20
8.41999999992795
30
-6.3576
 70
     32
  0
VERTEX
  8
MY3DLAYER
10
5.32954629132551
20
8.40794095218286
30
-6.3576
 70
     32
  0
VERTEX
  8
MY3DLAYER
10
5.33125000001053
20
8.39499999992768
30
-6.3576
 70
     32
  0
VERTEX
  8
MY3DLAYER
10
5.32954629132445
20
8.38205904767263
30
-6.3576
 70
     32
  0
VERTEX
  8
MY3DLAYER
10
5.32455127019871
20
8.36999999992796
30
-6.3576
 70
     32
  0
VERTEX
  8
MY3DLAYER
10
5.3166053390684
20
8.35964466086892
30
-6.3576
 70
     32
  0
VERTEX
  8
MY3DLAYER
10
5.30625000000874
20
8.35169872973948
30
-6.3576
 70
     32
  0
VERTEX
  8
MY3DLAYER
10
5.29419095226366
20
8.34670370861473
30
-6.3576
 70
     32
  0
VERTEX
  8
MY3DLAYER
10
5.28125000000846
20
8.34499999992973
30
-6.3576
 70
     32
  0
VERTEX
  8
MY3DLAYER
10
5.28124999999999
20
7.93499999994793
30
-6.3576
 70
     32
  0
VERTEX
  8
MY3DLAYER
10
5.29419095225512
20
7.93329629126239
30
-6.3576
 70
     32
  0
VERTEX
  8
MY3DLAYER
10
5.30625
20
7.92830127013718
30
-6.3576
 70
     32
  0
VERTEX
  8
MY3DLAYER
10
5.31660533905933
20
7.92035533900729
30
-6.3576
 70
     32
  0
VERTEX
  8
MY3DLAYER
10
5.32455127018922
20
7.90999999994792
30
-6.3576
 70
     32
  0
VERTEX
  8
MY3DLAYER
10
5.32954629131445
20
7.89794095220308
30
-6.3576
 70
     32
  0
VERTEX
  8
MY3DLAYER
10
5.33125
20
7.88499999994796
30
-6.3576
 70
     32
  0
VERTEX
  8
MY3DLAYER
10
5.32954629131445
20
7.87205904769282
30
-6.3576
 70
     32
  0
VERTEX
  8
MY3DLAYER
10
5.32455127018922
20
7.85999999994797
30
-6.3576
 70
     32
  0
VERTEX
  8
MY3DLAYER
10
5.31660533905933
20
7.84964466088862
30
-6.3576
 70
     32
  0
VERTEX
  8
MY3DLAYER
10
5.30625
20
7.84169872975875
30
-6.3576
 70
     32
  0
VERTEX
  8
MY3DLAYER
10
5.29419095225512
20
7.83670370863349
30
-6.3576
 70
     32
  0
VERTEX
  8
MY3DLAYER
10
5.28124999999999
20
7.83499999994795
30
-6.3576
 70
     32
  0
VERTEX
  8
MY3DLAYER
10
5.26830904774487
20
7.83670370863349
30
-6.3576
 70
     32
  0
VERTEX
  8
MY3DLAYER
10
5.25625
20
7.84169872975873
30
-6.3576
 70
     32
  0
VERTEX
  8
MY3DLAYER
10
5.24589466094067
20
7.84964466088862
30
-6.3576
 70
     32
  0
VERTEX
  8
MY3DLAYER
10
5.23794872981077
20
7.85999999994795
30
-6.3576
 70
     32
  0
VERTEX
  8
MY3DLAYER
10
4.88287831425515
20
7.6549999999476
30
-6.35759999999999
 70
     32
  0
VERTEX
  8
MY3DLAYER
10
4.88787333538029
20
7.64294095220267
30
-6.35759999999999
 70
     32
  0
VERTEX
  8
MY3DLAYER
10
4.88957704406573
20
7.62999999994752
30
-6.35759999999999
 70
     32
  0
VERTEX
  8
MY3DLAYER
10
4.88787333538007
20
7.61705904769245
30
-6.35759999999999
 70
     32
  0
VERTEX
  8
MY3DLAYER
10
4.88287831425474
20
7.60499999994759
30
-6.35759999999999
 70
     32
  0
VERTEX
  8
MY3DLAYER
10
4.87493238312476
20
7.59464466088833
30
-6.35759999999999
 70
     32
  0
VERTEX
  8
MY3DLAYER
10
4.86457704406538
20
7.58669872975854
30
-6.35759999999999
 70
     32
  0
VERTEX
  8
MY3DLAYER
10
4.85251799632045
20
7.58170370863338
30
-6.35759999999999
 70
     32
  0
VERTEX
  8
MY3DLAYER
10
4.83957704406532
20
7.57999999994795
30
-6.35759999999999
 70
     32
  0
VERTEX
  8
MY3DLAYER
10
4.8266360918102
20
7.58170370863358
30
-6.35759999999999
 70
     32
  0
VERTEX
  8
MY3DLAYER
10
4.81457704406536
20
7.58669872975894
30
-6.35759999999999
 70
     32
  0
VERTEX
  8
MY3DLAYER
10
4.80422170500609
20
7.5946446608889
30
-6.35759999999999
 70
     32
  0
VERTEX
  8
MY3DLAYER
10
4.79627577387629
20
7.60499999994829
30
-6.35759999999999
 70
     32
  0
VERTEX
  8
MY3DLAYER
10
4.79128075275115
20
7.61705904769321
30
-6.35759999999999
 70
     32
  0
VERTEX
  8
MY3DLAYER
10
4.78957704406571
20
7.62999999994836
30
-6.35759999999999
 70
     32
  0
VERTEX
  8
MY3DLAYER
10
4.79128075275137
20
7.64294095220346
30
-6.35759999999999
 70
     32
  0
VERTEX
  8
MY3DLAYER
10
4.79627577387671
20
7.65499999994832
30
-6.35759999999999
 70
     32
  0
VERTEX
  8
MY3DLAYER
10
4.44120535832446
20
7.85999999995452
30
-6.35759999999999
 70
     32
  0
VERTEX
  8
MY3DLAYER
10
4.4332594271944
20
7.84964466089533
30
-6.35759999999999
 70
     32
  0
SEQEND
  0
POLYLINE
 8
Layer0
 66
     1
70
    8
 10
0.0
 20
 0.0
 30
0.0
  0
VERTEX
  8
MY3DLAYER
10
2.77292295592924
20
7.62999999997371
30
-6.35759999999999
 70
     32
  0
VERTEX
  8
MY3DLAYER
10
2.77121924724358
20
7.61705904771863
30
-6.35759999999999
 70
     32
  0
VERTEX
  8
MY3DLAYER
10
2.76622422611825
20
7.60499999997377
30
-6.35759999999999
 70
     32
  0
VERTEX
  8
MY3DLAYER
10
2.75827829498827
20
7.59464466091451
30
-6.35759999999999
 70
     32
  0
VERTEX
  8
MY3DLAYER
10
2.74792295592889
20
7.58669872978472
30
-6.35759999999999
 70
     32
  0
VERTEX
  8
MY3DLAYER
10
2.73586390818396
20
7.58170370865956
30
-6.35759999999999
 70
     32
  0
VERTEX
  8
MY3DLAYER
10
2.72292295592883
20
7.57999999997413
30
-6.35759999999999
 70
     32
  0
VERTEX
  8
MY3DLAYER
10
2.70998200367371
20
7.58170370865977
30
-6.35759999999999
 70
     32
  0
VERTEX
  8
MY3DLAYER
10
2.69792295592887
20
7.58669872978512
30
-6.35759999999999
 70
     32
  0
VERTEX
  8
MY3DLAYER
10
2.68756761686961
20
7.59464466091508
30
-6.35759999999999
 70
     32
  0
VERTEX
  8
MY3DLAYER
10
2.6796216857398
20
7.60499999997447
30
-6.35759999999999
 70
     32
  0
VERTEX
  8
MY3DLAYER
10
2.67462666461467
20
7.61705904771939
30
-6.35759999999999
 70
     32
  0
VERTEX
  8
MY3DLAYER
10
2.67292295592922
20
7.62999999997454
30
-6.35759999999999
 70
     32
  0
VERTEX
  8
MY3DLAYER
10
2.67462666461488
20
7.64294095222964
30
-6.35759999999999
 70
     32
  0
VERTEX
  8
MY3DLAYER
10
2.67962168574022
20
7.65499999997451
30
-6.35759999999999
 70
     32
  0
VERTEX
  8
MY3DLAYER
10
2.32455127018797
20
7.8599999999807
30
-6.3576
 70
     32
  0
VERTEX
  8
MY3DLAYER
10
2.31660533905791
20
7.84964466092151
30
-6.3576
 70
     32
  0
VERTEX
  8
MY3DLAYER
10
2.30624999999845
20
7.84169872979179
30
-6.3576
 70
     32
  0
VERTEX
  8
MY3DLAYER
10
2.29419095225349
20
7.83670370866675
30
-6.3576
 70
     32
  0
VERTEX
  8
MY3DLAYER
10
2.28124999999834
20
7.83499999998145
30
-6.35759999999999
 70
     32
  0
VERTEX
  8
MY3DLAYER
10
2.26830904774324
20
7.83670370866717
30
-6.35759999999999
 70
     32
  0
VERTEX
  8
MY3DLAYER
10
2.25624999999845
20
7.84169872979257
30
-6.35759999999999
 70
     32
  0
VERTEX
  8
MY3DLAYER
10
2.24589466093925
20
7.84964466092268
30
-6.35759999999999
 70
     32
  0
VERTEX
  8
MY3DLAYER
10
2.23794872980953
20
7.85999999998212
30
-6.35759999999999
 70
     32
  0
VERTEX
  8
MY3DLAYER
10
2.2329537086845
20
7.87205904772707
30
-6.35759999999999
 70
     32
  0
VERTEX
  8
MY3DLAYER
10
2.23124999999916
20
7.88499999998223
30
-6.35759999999999
 70
     32
  0
VERTEX
  8
MY3DLAYER
10
2.23295370868492
20
7.89794095223733
30
-6.35759999999999
 70
     32
  0
VERTEX
  8
MY3DLAYER
10
2.23794872981036
20
7.90999999998213
30
-6.35759999999999
 70
     32
  0
VERTEX
  8
MY3DLAYER
10
2.24589466094042
20
7.92035533904132
30
-6.35759999999999
 70
     32
  0
VERTEX
  8
MY3DLAYER
10
2.25624999999987
20
7.92830127017105
30
-6.35759999999999
 70
     32
  0
VERTEX
  8
MY3DLAYER
10
2.26830904774483
20
7.93329629129607
30
-6.35759999999999
 70
     32
  0
VERTEX
  8
MY3DLAYER
10
2.28124999999999
20
7.93499999998141
30
-6.35759999999999
 70
     32
  0
VERTEX
  8
MY3DLAYER
10
2.28125000000846
20
8.34499999998506
30
-6.3576
 70
     32
  0
VERTEX
  8
MY3DLAYER
10
2.26830904775337
20
8.34670370867094
30
-6.3576
 70
     32
  0
VERTEX
  8
MY3DLAYER
10
2.25625000000862
20
8.35169872979647
30
-6.3576
 70
     32
  0
VERTEX
  8
MY3DLAYER
10
2.24589466094949
20
8.35964466092661
30
-6.3576
 70
     32
  0
VERTEX
  8
MY3DLAYER
10
2.23794872981986
20
8.36999999998616
30
-6.3576
 70
     32
  0
VERTEX
  8
MY3DLAYER
10
2.23295370869491
20
8.38205904773113
30
-6.3576
 70
     32
  0
VERTEX
  8
MY3DLAYER
10
2.23125000000969
20
8.3949999999863
30
-6.3576
 70
     32
  0
VERTEX
  8
MY3DLAYER
10
2.23295370869556
20
8.40794095224139
30
-6.3576
 70
     32
  0
VERTEX
  8
MY3DLAYER
10
2.23794872982108
20
8.41999999998613
30
-6.3576
 70
     32
  0
VERTEX
  8
MY3DLAYER
10
2.24589466095124
20
8.43035533904528
30
-6.3576
 70
     32
  0
VERTEX
  8
MY3DLAYER
10
2.25625000001076
20
8.43830127017493
30
-6.3576
 70
     32
  0
VERTEX
  8
MY3DLAYER
10
2.26830904775576
20
8.44329629129986
30
-6.3576
 70
     32
  0
VERTEX
  8
MY3DLAYER
10
2.28125000001093
20
8.44499999998507
30
-6.3576
 70
     32
  0
VERTEX
  8
MY3DLAYER
10
2.29419095226601
20
8.44329629129921
30
-6.3576
 70
     32
  0
VERTEX
  8
MY3DLAYER
10
2.30625000001077
20
8.43830127017367
30
-6.3576
 70
     32
  0
VERTEX
  8
MY3DLAYER
10
2.3166053390699
20
8.43035533904353
30
-6.3576
 70
     32
  0
VERTEX
  8
MY3DLAYER
10
2.32455127019953
20
8.41999999998401
30
-6.3576
 70
     32
  0
VERTEX
  8
MY3DLAYER
10
2.67962168576025
20
8.62499999997558
30
-6.3576
 70
     32
  0
VERTEX
  8
MY3DLAYER
10
2.6746266646354
20
8.6370590477206
30
-6.3576
 70
     32
  0
VERTEX
  8
MY3DLAYER
10
2.67292295595027
20
8.64999999997575
30
-6.3576
 70
     32
  0
VERTEX
  8
MY3DLAYER
10
2.67462666463626
20
8.66294095223086
30
-6.3576
 70
     32
  0
VERTEX
  8
MY3DLAYER
10
2.67962168576189
20
8.67499999997555
30
-6.3576
 70
     32
  0
VERTEX
  8
MY3DLAYER
10
2.68756761689212
20
8.68535533903461
30
-6.3576
 70
     32
  0
VERTEX
  8
MY3DLAYER
10
2.69792295595171
20
8.69330127016416
30
-6.3576
 70
     32
  0
VERTEX
  8
MY3DLAYER
10
2.70998200369675
20
8.69829629128902
30
-6.35759999999999
 70
     32
  0
VERTEX
  8
MY3DLAYER
10
2.72292295595193
20
8.69999999997412
30
-6.35759999999999
 70
     32
  0
VERTEX
  8
MY3DLAYER
10
2.735863908207
20
8.69829629128813
30
-6.35759999999999
 70
     32
  0
VERTEX
  8
MY3DLAYER
10
2.74792295595171
20
8.69330127016251
30
-6.35759999999999
 70
     32
  0
VERTEX
  8
MY3DLAYER
10
2.75827829501078
20
8.68535533903227
30
-6.35759999999999
 70
     32
  0
VERTEX
  8
MY3DLAYER
10
2.76622422614033
20
8.67499999997269
30
-6.35759999999999
 70
     32
  0
VERTEX
  8
MY3DLAYER
10
2.77121924726517
20
8.66294095222767
30
-6.35759999999999
 70
     32
  0
VERTEX
  8
MY3DLAYER
10
2.77292295595029
20
8.64999999997249
30
-6.35759999999999
 70
     32
  0
VERTEX
  8
MY3DLAYER
10
2.77121924726431
20
8.63705904771741
30
-6.35759999999999
 70
     32
  0
VERTEX
  8
MY3DLAYER
10
2.76622422613868
20
8.62499999997271
30
-6.35759999999999
 70
     32
  0
VERTEX
  8
MY3DLAYER
10
3.12129464168584
20
8.41999999995767
30
-6.35759999999999
 70
     32
  0
VERTEX
  8
MY3DLAYER
10
3.12924057281615
20
8.43035533901668
30
-6.35759999999999
 70
     32
  0
VERTEX
  8
MY3DLAYER
10
3.13959591187582
20
8.43830127014616
30
-6.35759999999999
 70
     32
  0
VERTEX
  8
MY3DLAYER
10
3.1516549596209
20
8.44329629127089
30
-6.35759999999999
 70
     32
  0
VERTEX
  8
MY3DLAYER
10
3.16459591187609
20
8.4449999999559
30
-6.35759999999999
 70
     32
  0
VERTEX
  8
MY3DLAYER
10
3.17753686413115
20
8.44329629126983
30
-6.35759999999999
 70
     32
  0
VERTEX
  8
MY3DLAYER
10
3.18959591187582
20
8.4383012701441
30
-6.35759999999999
 70
     32
  0
VERTEX
  8
MY3DLAYER
10
3.19995125093481
20
8.43035533901378
30
-6.35759999999999
 70
     32
  0
VERTEX
  8
MY3DLAYER
10
3.20789718206429
20
8.41999999995414
30
-6.35759999999999
 70
     32
  0
VERTEX
  8
MY3DLAYER
10
3.21289220318902
20
8.40794095220904
30
-6.35759999999999
 70
     32
  0
VERTEX
  8
MY3DLAYER
10
3.21459591187404
20
8.39499999995386
30
-6.35759999999999
 70
     32
  0
VERTEX
  8
MY3DLAYER
10
3.21289220318796
20
8.38205904769882
30
-6.35759999999999
 70
     32
  0
VERTEX
  8
MY3DLAYER
10
3.20789718206222
20
8.36999999995415
30
-6.35759999999999
 70
     32
  0
VERTEX
  8
MY3DLAYER
10
3.19995125093191
20
8.35964466089511
30
-6.35759999999999
 70
     32
  0
VERTEX
  8
MY3DLAYER
10
3.18959591187225
20
8.35169872976567
30
-6.35759999999999
 70
     32
  0
VERTEX
  8
MY3DLAYER
10
3.17753686412717
20
8.34670370864091
30
-6.35759999999999
 70
     32
  0
VERTEX
  8
MY3DLAYER
10
3.16459591187198
20
8.34499999995591
30
-6.35759999999999
 70
     32
  0
VERTEX
  8
MY3DLAYER
10
3.1645959118635
20
7.93499999997412
30
-6.35759999999999
 70
     32
  0
VERTEX
  8
MY3DLAYER
10
3.17753686411863
20
7.93329629128858
30
-6.35759999999999
 70
     32
  0
VERTEX
  8
MY3DLAYER
10
3.18959591186351
20
7.92830127016336
30
-6.35759999999999
 70
     32
  0
VERTEX
  8
MY3DLAYER
10
3.19995125092284
20
7.92035533903348
30
-6.35759999999999
 70
     32
  0
VERTEX
  8
MY3DLAYER
10
3.20789718205273
20
7.9099999999741
30
-6.35759999999999
 70
     32
  0
VERTEX
  8
MY3DLAYER
10
3.21289220317796
20
7.89794095222926
30
-6.35759999999999
 70
     32
  0
VERTEX
  8
MY3DLAYER
10
3.21459591186351
20
7.88499999997414
30
-6.35759999999999
 70
     32
  0
VERTEX
  8
MY3DLAYER
10
3.21289220317796
20
7.87205904771901
30
-6.35759999999999
 70
     32
  0
VERTEX
  8
MY3DLAYER
10
3.20789718205273
20
7.85999999997415
30
-6.35759999999999
 70
     32
  0
VERTEX
  8
MY3DLAYER
10
3.19995125092284
20
7.84964466091481
30
-6.35759999999999
 70
     32
  0
VERTEX
  8
MY3DLAYER
10
3.18959591186351
20
7.84169872978493
30
-6.35759999999999
 70
     32
  0
VERTEX
  8
MY3DLAYER
10
3.17753686411863
20
7.83670370865967
30
-6.35759999999999
 70
     32
  0
VERTEX
  8
MY3DLAYER
10
3.16459591186351
20
7.83499999997413
30
-6.35759999999999
 70
     32
  0
VERTEX
  8
MY3DLAYER
10
3.15165495960838
20
7.83670370865967
30
-6.35759999999999
 70
     32
  0
VERTEX
  8
MY3DLAYER
10
3.13959591186351
20
7.84169872978491
30
-6.35759999999999
 70
     32
  0
VERTEX
  8
MY3DLAYER
10
3.12924057280418
20
7.84964466091481
30
-6.35759999999999
 70
     32
  0
VERTEX
  8
MY3DLAYER
10
3.12129464167428
20
7.85999999997413
30
-6.35759999999999
 70
     32
  0
VERTEX
  8
MY3DLAYER
10
2.76622422611866
20
7.65499999997378
30
-6.35759999999999
 70
     32
  0
VERTEX
  8
MY3DLAYER
10
2.7712192472438
20
7.64294095222886
30
-6.35759999999999
 70
     32
  0
VERTEX
  8
MY3DLAYER
10
2.77292295592924
20
7.62999999997371
30
-6.35759999999999
 70
     32
  0
SEQEND
  0
POLYLINE
 8
Layer0
 66
     1
70
    8
 10
0.0
 20
 0.0
 30
0.0
  0
VERTEX
  8
MY3DLAYER
10
4.78957704406571
20
4.91499999993923
30
-6.35759999999999
 70
     32
  0
VERTEX
  8
MY3DLAYER
10
4.79128075275137
20
4.92794095219433
30
-6.35759999999999
 70
     32
  0
VERTEX
  8
MY3DLAYER
10
4.79627577387671
20
4.93999999993919
30
-6.35759999999999
 70
     32
  0
VERTEX
  8
MY3DLAYER
10
4.44120535832446
20
5.14499999994538
30
-6.35759999999999
 70
     32
  0
VERTEX
  8
MY3DLAYER
10
4.43325942719441
20
5.1346446608862
30
-6.35759999999999
 70
     32
  0
VERTEX
  8
MY3DLAYER
10
4.42290408813494
20
5.12669872975648
30
-6.35759999999999
 70
     32
  0
VERTEX
  8
MY3DLAYER
10
4.41084504038998
20
5.12170370863143
30
-6.35759999999999
 70
     32
  0
VERTEX
  8
MY3DLAYER
10
4.39790408813483
20
5.11999999994613
30
-6.35759999999999
 70
     32
  0
VERTEX
  8
MY3DLAYER
10
4.38496313587973
20
5.12170370863186
30
-6.35759999999999
 70
     32
  0
VERTEX
  8
MY3DLAYER
10
4.37290408813494
20
5.12669872975725
30
-6.35759999999999
 70
     32
  0
VERTEX
  8
MY3DLAYER
10
4.36254874907574
20
5.13464466088736
30
-6.35759999999999
 70
     32
  0
VERTEX
  8
MY3DLAYER
10
4.35460281794603
20
5.1449999999468
30
-6.35759999999999
 70
     32
  0
VERTEX
  8
MY3DLAYER
10
4.34960779682099
20
5.15705904769175
30
-6.35759999999999
 70
     32
  0
VERTEX
  8
MY3DLAYER
10
4.34790408813565
20
5.16999999994691
30
-6.35759999999999
 70
     32
  0
VERTEX
  8
MY3DLAYER
10
4.34960779682141
20
5.18294095220202
30
-6.35759999999999
 70
     32
  0
VERTEX
  8
MY3DLAYER
10
4.35460281794685
20
5.19499999994682
30
-6.35759999999999
 70
     32
  0
VERTEX
  8
MY3DLAYER
10
4.36254874907691
20
5.205355339006
30
-6.35759999999999
 70
     32
  0
VERTEX
  8
MY3DLAYER
10
4.37290408813636
20
5.21330127013573
30
-6.35759999999999
 70
     32
  0
VERTEX
  8
MY3DLAYER
10
4.38496313588132
20
5.21829629126076
30
-6.35759999999999
 70
     32
  0
VERTEX
  8
MY3DLAYER
10
4.39790408813648
20
5.2199999999461
30
-6.35759999999999
 70
     32
  0
VERTEX
  8
MY3DLAYER
10
4.39790408814495
20
5.62999999994975
30
-6.35759999999999
 70
     32
  0
VERTEX
  8
MY3DLAYER
10
4.38496313588987
20
5.63170370863563
30
-6.35759999999999
 70
     32
  0
VERTEX
  8
MY3DLAYER
10
4.37290408814511
20
5.63669872976116
30
-6.35759999999999
 70
     32
  0
VERTEX
  8
MY3DLAYER
10
4.36254874908598
20
5.6446446608913
30
-6.35759999999999
 70
     32
  0
VERTEX
  8
MY3DLAYER
10
4.35460281795635
20
5.65499999995084
30
-6.35759999999999
 70
     32
  0
VERTEX
  8
MY3DLAYER
10
4.34960779683141
20
5.66705904769582
30
-6.35759999999999
 70
     32
  0
VERTEX
  8
MY3DLAYER
10
4.34790408814619
20
5.67999999995098
30
-6.35759999999999
 70
     32
  0
VERTEX
  8
MY3DLAYER
10
4.34960779683205
20
5.69294095220607
30
-6.35759999999999
 70
     32
  0
VERTEX
  8
MY3DLAYER
10
4.35460281795758
20
5.70499999995081
30
-6.35759999999999
 70
     32
  0
VERTEX
  8
MY3DLAYER
10
4.36254874908773
20
5.71535533900996
30
-6.35759999999999
 70
     32
  0
VERTEX
  8
MY3DLAYER
10
4.37290408814725
20
5.72330127013961
30
-6.35759999999999
 70
     32
  0
VERTEX
  8
MY3DLAYER
10
4.38496313589225
20
5.72829629126454
30
-6.35759999999999
 70
     32
  0
VERTEX
  8
MY3DLAYER
10
4.39790408814742
20
5.72999999994975
30
-6.35759999999999
 70
     32
  0
VERTEX
  8
MY3DLAYER
10
4.4108450404025
20
5.7282962912639
30
-6.35759999999999
 70
     32
  0
VERTEX
  8
MY3DLAYER
10
4.42290408814726
20
5.72330127013835
30
-6.35759999999999
 70
     32
  0
VERTEX
  8
MY3DLAYER
10
4.43325942720639
20
5.71535533900821
30
-6.35759999999999
 70
     32
  0
VERTEX
  8
MY3DLAYER
10
4.44120535833603
20
5.7049999999487
30
-6.35759999999999
 70
     32
  0
VERTEX
  8
MY3DLAYER
10
4.79627577389674
20
5.90999999994026
30
-6.35759999999999
 70
     32
  0
VERTEX
  8
MY3DLAYER
10
4.79128075277189
20
5.92205904768528
30
-6.35759999999999
 70
     32
  0
VERTEX
  8
MY3DLAYER
10
4.78957704408676
20
5.93499999994044
30
-6.35759999999999
 70
     32
  0
VERTEX
  8
MY3DLAYER
10
4.79128075277275
20
5.94794095219554
30
-6.35759999999999
 70
     32
  0
VERTEX
  8
MY3DLAYER
10
4.79627577389838
20
5.95999999994023
30
-6.35759999999999
 70
     32
  0
VERTEX
  8
MY3DLAYER
10
4.80422170502861
20
5.9703553389993
30
-6.35759999999999
 70
     32
  0
VERTEX
  8
MY3DLAYER
10
4.8145770440882
20
5.97830127012885
30
-6.35759999999999
 70
     32
  0
VERTEX
  8
MY3DLAYER
10
4.82663609183324
20
5.9832962912537
30
-6.35759999999999
 70
     32
  0
VERTEX
  8
MY3DLAYER
10
4.83957704408842
20
5.98499999993881
30
-6.35759999999999
 70
     32
  0
VERTEX
  8
MY3DLAYER
10
4.85251799634349
20
5.98329629125281
30
-6.35759999999999
 70
     32
  0
VERTEX
  8
MY3DLAYER
10
4.8645770440882
20
5.9783012701272
30
-6.35759999999999
 70
     32
  0
VERTEX
  8
MY3DLAYER
10
4.87493238314727
20
5.97035533899695
30
-6.35759999999999
 70
     32
  0
VERTEX
  8
MY3DLAYER
10
4.88287831427682
20
5.95999999993737
30
-6.35759999999999
 70
     32
  0
VERTEX
  8
MY3DLAYER
10
4.88787333540166
20
5.94794095219235
30
-6.35759999999999
 70
     32
  0
VERTEX
  8
MY3DLAYER
10
4.88957704408678
20
5.93499999993718
30
-6.35759999999999
 70
     32
  0
VERTEX
  8
MY3DLAYER
10
4.88787333540081
20
5.92205904768209
30
-6.35759999999999
 70
     32
  0
VERTEX
  8
MY3DLAYER
10
4.88287831427517
20
5.90999999993739
30
-6.35759999999999
 70
     32
  0
VERTEX
  8
MY3DLAYER
10
5.23794872982234
20
5.70499999992236
30
-6.3576
 70
     32
  0
VERTEX
  8
MY3DLAYER
10
5.24589466095264
20
5.71535533898136
30
-6.3576
 70
     32
  0
VERTEX
  8
MY3DLAYER
10
5.25625000001231
20
5.72330127011084
30
-6.3576
 70
     32
  0
VERTEX
  8
MY3DLAYER
10
5.26830904775739
20
5.72829629123557
30
-6.3576
 70
     32
  0
VERTEX
  8
MY3DLAYER
10
5.28125000001258
20
5.72999999992059
30
-6.3576
 70
     32
  0
VERTEX
  8
MY3DLAYER
10
5.29419095226764
20
5.72829629123451
30
-6.3576
 70
     32
  0
VERTEX
  8
MY3DLAYER
10
5.30625000001231
20
5.72330127010878
30
-6.3576
 70
     32
  0
VERTEX
  8
MY3DLAYER
10
5.31660533907131
20
5.71535533897846
30
-6.3576
 70
     32
  0
VERTEX
  8
MY3DLAYER
10
5.32455127020078
20
5.70499999991882
30
-6.3576
 70
     32
  0
VERTEX
  8
MY3DLAYER
10
5.32954629132552
20
5.69294095217372
30
-6.3576
 70
     32
  0
VERTEX
  8
MY3DLAYER
10
5.33125000001054
20
5.67999999991854
30
-6.3576
 70
     32
  0
VERTEX
  8
MY3DLAYER
10
5.32954629132446
20
5.6670590476635
30
-6.3576
 70
     32
  0
VERTEX
  8
MY3DLAYER
10
5.32455127019871
20
5.65499999991883
30
-6.3576
 70
     32
  0
VERTEX
  8
MY3DLAYER
10
5.3166053390684
20
5.64464466085979
30
-6.3576
 70
     32
  0
VERTEX
  8
MY3DLAYER
10
5.30625000000874
20
5.63669872973035
30
-6.3576
 70
     32
  0
VERTEX
  8
MY3DLAYER
10
5.29419095226366
20
5.63170370860559
30
-6.3576
 70
     32
  0
VERTEX
  8
MY3DLAYER
10
5.28125000000847
20
5.62999999992059
30
-6.3576
 70
     32
  0
VERTEX
  8
MY3DLAYER
10
5.28124999999999
20
5.2199999999388
30
-6.3576
 70
     32
  0
VERTEX
  8
MY3DLAYER
10
5.29419095225512
20
5.21829629125326
30
-6.3576
 70
     32
  0
VERTEX
  8
MY3DLAYER
10
5.30625
20
5.21330127012804
30
-6.3576
 70
     32
  0
VERTEX
  8
MY3DLAYER
10
5.31660533905933
20
5.20535533899816
30
-6.3576
 70
     32
  0
VERTEX
  8
MY3DLAYER
10
5.32455127018922
20
5.19499999993879
30
-6.3576
 70
     32
  0
VERTEX
  8
MY3DLAYER
10
5.32954629131445
20
5.18294095219395
30
-6.3576
 70
     32
  0
VERTEX
  8
MY3DLAYER
10
5.33125
20
5.16999999993882
30
-6.3576
 70
     32
  0
VERTEX
  8
MY3DLAYER
10
5.32954629131445
20
5.15705904768369
30
-6.3576
 70
     32
  0
VERTEX
  8
MY3DLAYER
10
5.32455127018922
20
5.14499999993883
30
-6.3576
 70
     32
  0
VERTEX
  8
MY3DLAYER
10
5.31660533905933
20
5.13464466087949
30
-6.3576
 70
     32
  0
VERTEX
  8
MY3DLAYER
10
5.30625
20
5.12669872974961
30
-6.3576
 70
     32
  0
VERTEX
  8
MY3DLAYER
10
5.29419095225512
20
5.12170370862435
30
-6.3576
 70
     32
  0
VERTEX
  8
MY3DLAYER
10
5.28125
20
5.11999999993881
30
-6.3576
 70
     32
  0
VERTEX
  8
MY3DLAYER
10
5.26830904774488
20
5.12170370862435
30
-6.3576
 70
     32
  0
VERTEX
  8
MY3DLAYER
10
5.25625
20
5.12669872974959
30
-6.3576
 70
     32
  0
VERTEX
  8
MY3DLAYER
10
5.24589466094067
20
5.13464466087949
30
-6.3576
 70
     32
  0
VERTEX
  8
MY3DLAYER
10
5.23794872981077
20
5.14499999993881
30
-6.3576
 70
     32
  0
VERTEX
  8
MY3DLAYER
10
4.88287831425515
20
4.93999999993846
30
-6.35759999999999
 70
     32
  0
VERTEX
  8
MY3DLAYER
10
4.88787333538029
20
4.92794095219354
30
-6.35759999999999
 70
     32
  0
VERTEX
  8
MY3DLAYER
10
4.88957704406573
20
4.91499999993839
30
-6.35759999999999
 70
     32
  0
VERTEX
  8
MY3DLAYER
10
4.88787333538007
20
4.90205904768332
30
-6.35759999999999
 70
     32
  0
VERTEX
  8
MY3DLAYER
10
4.88287831425474
20
4.88999999993845
30
-6.35759999999999
 70
     32
  0
VERTEX
  8
MY3DLAYER
10
4.87493238312476
20
4.87964466087919
30
-6.35759999999999
 70
     32
  0
VERTEX
  8
MY3DLAYER
10
4.86457704406538
20
4.8716987297494
30
-6.35759999999999
 70
     32
  0
VERTEX
  8
MY3DLAYER
10
4.85251799632046
20
4.86670370862424
30
-6.35759999999999
 70
     32
  0
VERTEX
  8
MY3DLAYER
10
4.83957704406532
20
4.86499999993882
30
-6.35759999999999
 70
     32
  0
VERTEX
  8
MY3DLAYER
10
4.8266360918102
20
4.86670370862445
30
-6.35759999999999
 70
     32
  0
VERTEX
  8
MY3DLAYER
10
4.81457704406536
20
4.8716987297498
30
-6.35759999999999
 70
     32
  0
VERTEX
  8
MY3DLAYER
10
4.8042217050061
20
4.87964466087976
30
-6.35759999999999
 70
     32
  0
VERTEX
  8
MY3DLAYER
10
4.79627577387629
20
4.88999999993916
30
-6.35759999999999
 70
     32
  0
VERTEX
  8
MY3DLAYER
10
4.79128075275116
20
4.90205904768408
30
-6.35759999999999
 70
     32
  0
VERTEX
  8
MY3DLAYER
10
4.78957704406571
20
4.91499999993923
30
-6.35759999999999
 70
     32
  0
SEQEND
  0
POLYLINE
 8
Layer0
 66
     1
70
    8
 10
0.0
 20
 0.0
 30
0.0
  0
VERTEX
  8
MY3DLAYER
10
2.28124999999834
20
5.11999999997231
30
-6.35759999999999
 70
     32
  0
VERTEX
  8
MY3DLAYER
10
2.26830904774325
20
5.12170370865804
30
-6.3576
 70
     32
  0
VERTEX
  8
MY3DLAYER
10
2.25624999999845
20
5.12669872978343
30
-6.3576
 70
     32
  0
VERTEX
  8
MY3DLAYER
10
2.24589466093926
20
5.13464466091354
30
-6.3576
 70
     32
  0
VERTEX
  8
MY3DLAYER
10
2.23794872980954
20
5.14499999997299
30
-6.3576
 70
     32
  0
VERTEX
  8
MY3DLAYER
10
2.23295370868451
20
5.15705904771794
30
-6.3576
 70
     32
  0
VERTEX
  8
MY3DLAYER
10
2.23124999999916
20
5.16999999997309
30
-6.3576
 70
     32
  0
VERTEX
  8
MY3DLAYER
10
2.23295370868492
20
5.1829409522282
30
-6.3576
 70
     32
  0
VERTEX
  8
MY3DLAYER
10
2.23794872981036
20
5.194999999973
30
-6.3576
 70
     32
  0
VERTEX
  8
MY3DLAYER
10
2.24589466094042
20
5.20535533903219
30
-6.3576
 70
     32
  0
VERTEX
  8
MY3DLAYER
10
2.25624999999987
20
5.21330127016191
30
-6.35759999999999
 70
     32
  0
VERTEX
  8
MY3DLAYER
10
2.26830904774483
20
5.21829629128694
30
-6.35759999999999
 70
     32
  0
VERTEX
  8
MY3DLAYER
10
2.28124999999999
20
5.21999999997228
30
-6.35759999999999
 70
     32
  0
VERTEX
  8
MY3DLAYER
10
2.28125000000846
20
5.62999999997593
30
-6.35759999999999
 70
     32
  0
VERTEX
  8
MY3DLAYER
10
2.26830904775338
20
5.63170370866181
30
-6.35759999999999
 70
     32
  0
VERTEX
  8
MY3DLAYER
10
2.25625000000863
20
5.63669872978734
30
-6.35759999999999
 70
     32
  0
VERTEX
  8
MY3DLAYER
10
2.2458946609495
20
5.64464466091748
30
-6.35759999999999
 70
     32
  0
VERTEX
  8
MY3DLAYER
10
2.23794872981986
20
5.65499999997702
30
-6.35759999999999
 70
     32
  0
VERTEX
  8
MY3DLAYER
10
2.23295370869492
20
5.667059047722
30
-6.35759999999999
 70
     32
  0
VERTEX
  8
MY3DLAYER
10
2.2312500000097
20
5.67999999997716
30
-6.35759999999999
 70
     32
  0
VERTEX
  8
MY3DLAYER
10
2.23295370869556
20
5.69294095223226
30
-6.35759999999999
 70
     32
  0
VERTEX
  8
MY3DLAYER
10
2.23794872982109
20
5.704999999977
30
-6.35759999999999
 70
     32
  0
VERTEX
  8
MY3DLAYER
10
2.24589466095124
20
5.71535533903614
30
-6.35759999999999
 70
     32
  0
VERTEX
  8
MY3DLAYER
10
2.25625000001076
20
5.72330127016579
30
-6.35759999999999
 70
     32
  0
VERTEX
  8
MY3DLAYER
10
2.26830904775576
20
5.72829629129073
30
-6.35759999999999
 70
     32
  0
VERTEX
  8
MY3DLAYER
10
2.28125000001094
20
5.72999999997594
30
-6.35759999999999
 70
     32
  0
VERTEX
  8
MY3DLAYER
10
2.29419095226602
20
5.72829629129008
30
-6.3576
 70
     32
  0
VERTEX
  8
MY3DLAYER
10
2.30625000001077
20
5.72330127016453
30
-6.3576
 70
     32
  0
VERTEX
  8
MY3DLAYER
10
2.31660533906991
20
5.7153553390344
30
-6.3576
 70
     32
  0
VERTEX
  8
MY3DLAYER
10
2.32455127019954
20
5.70499999997488
30
-6.3576
 70
     32
  0
VERTEX
  8
MY3DLAYER
10
2.67962168576025
20
5.90999999996644
30
-6.35759999999999
 70
     32
  0
VERTEX
  8
MY3DLAYER
10
2.6746266646354
20
5.92205904771146
30
-6.35759999999999
 70
     32
  0
VERTEX
  8
MY3DLAYER
10
2.67292295595028
20
5.93499999996662
30
-6.35759999999999
 70
     32
  0
VERTEX
  8
MY3DLAYER
10
2.67462666463626
20
5.94794095222173
30
-6.35759999999999
 70
     32
  0
VERTEX
  8
MY3DLAYER
10
2.67962168576189
20
5.95999999996641
30
-6.35759999999999
 70
     32
  0
VERTEX
  8
MY3DLAYER
10
2.68756761689212
20
5.97035533902548
30
-6.35759999999999
 70
     32
  0
VERTEX
  8
MY3DLAYER
10
2.69792295595171
20
5.97830127015503
30
-6.35759999999999
 70
     32
  0
VERTEX
  8
MY3DLAYER
10
2.70998200369676
20
5.98329629127988
30
-6.35759999999999
 70
     32
  0
VERTEX
  8
MY3DLAYER
10
2.72292295595193
20
5.98499999996499
30
-6.35759999999999
 70
     32
  0
VERTEX
  8
MY3DLAYER
10
2.735863908207
20
5.983296291279
30
-6.35759999999999
 70
     32
  0
VERTEX
  8
MY3DLAYER
10
2.74792295595171
20
5.97830127015338
30
-6.35759999999999
 70
     32
  0
VERTEX
  8
MY3DLAYER
10
2.75827829501079
20
5.97035533902314
30
-6.35759999999999
 70
     32
  0
VERTEX
  8
MY3DLAYER
10
2.76622422614033
20
5.95999999996356
30
-6.35759999999999
 70
     32
  0
VERTEX
  8
MY3DLAYER
10
2.77121924726518
20
5.94794095221854
30
-6.35759999999999
 70
     32
  0
VERTEX
  8
MY3DLAYER
10
2.77292295595029
20
5.93499999996336
30
-6.35759999999999
 70
     32
  0
VERTEX
  8
MY3DLAYER
10
2.77121924726432
20
5.92205904770827
30
-6.35759999999999
 70
     32
  0
VERTEX
  8
MY3DLAYER
10
2.76622422613869
20
5.90999999996357
30
-6.35759999999999
 70
     32
  0
VERTEX
  8
MY3DLAYER
10
3.12129464168585
20
5.70499999994854
30
-6.35759999999999
 70
     32
  0
VERTEX
  8
MY3DLAYER
10
3.12924057281615
20
5.71535533900754
30
-6.35759999999999
 70
     32
  0
VERTEX
  8
MY3DLAYER
10
3.13959591187582
20
5.72330127013703
30
-6.35759999999999
 70
     32
  0
VERTEX
  8
MY3DLAYER
10
3.1516549596209
20
5.72829629126176
30
-6.35759999999999
 70
     32
  0
VERTEX
  8
MY3DLAYER
10
3.16459591187609
20
5.72999999994677
30
-6.35759999999999
 70
     32
  0
VERTEX
  8
MY3DLAYER
10
3.17753686413116
20
5.7282962912607
30
-6.35759999999999
 70
     32
  0
VERTEX
  8
MY3DLAYER
10
3.18959591187582
20
5.72330127013497
30
-6.35759999999999
 70
     32
  0
VERTEX
  8
MY3DLAYER
10
3.19995125093482
20
5.71535533900465
30
-6.35759999999999
 70
     32
  0
VERTEX
  8
MY3DLAYER
10
3.2078971820643
20
5.704999999945
30
-6.35759999999999
 70
     32
  0
VERTEX
  8
MY3DLAYER
10
3.21289220318903
20
5.6929409521999
30
-6.35759999999999
 70
     32
  0
VERTEX
  8
MY3DLAYER
10
3.21459591187405
20
5.67999999994473
30
-6.35759999999999
 70
     32
  0
VERTEX
  8
MY3DLAYER
10
3.21289220318797
20
5.66705904768968
30
-6.35759999999999
 70
     32
  0
VERTEX
  8
MY3DLAYER
10
3.20789718206223
20
5.65499999994501
30
-6.35759999999999
 70
     32
  0
VERTEX
  8
MY3DLAYER
10
3.19995125093191
20
5.64464466088597
30
-6.35759999999999
 70
     32
  0
VERTEX
  8
MY3DLAYER
10
3.18959591187226
20
5.63669872975653
30
-6.35759999999999
 70
     32
  0
VERTEX
  8
MY3DLAYER
10
3.17753686412718
20
5.63170370863178
30
-6.35759999999999
 70
     32
  0
VERTEX
  8
MY3DLAYER
10
3.16459591187198
20
5.62999999994678
30
-6.35759999999999
 70
     32
  0
VERTEX
  8
MY3DLAYER
10
3.1645959118635
20
5.21999999996498
30
-6.35759999999999
 70
     32
  0
VERTEX
  8
MY3DLAYER
10
3.17753686411863
20
5.21829629127944
30
-6.35759999999999
 70
     32
  0
VERTEX
  8
MY3DLAYER
10
3.18959591186352
20
5.21330127015423
30
-6.35759999999999
 70
     32
  0
VERTEX
  8
MY3DLAYER
10
3.19995125092284
20
5.20535533902434
30
-6.35759999999999
 70
     32
  0
VERTEX
  8
MY3DLAYER
10
3.20789718205273
20
5.19499999996497
30
-6.35759999999999
 70
     32
  0
VERTEX
  8
MY3DLAYER
10
3.21289220317796
20
5.18294095222013
30
-6.35759999999999
 70
     32
  0
VERTEX
  8
MY3DLAYER
10
3.21459591186352
20
5.16999999996501
30
-6.35759999999999
 70
     32
  0
VERTEX
  8
MY3DLAYER
10
3.21289220317797
20
5.15705904770987
30
-6.35759999999999
 70
     32
  0
VERTEX
  8
MY3DLAYER
10
3.20789718205274
20
5.14499999996502
30
-6.35759999999999
 70
     32
  0
VERTEX
  8
MY3DLAYER
10
3.19995125092284
20
5.13464466090567
30
-6.35759999999999
 70
     32
  0
VERTEX
  8
MY3DLAYER
10
3.18959591186351
20
5.1266987297758
30
-6.35759999999999
 70
     32
  0
VERTEX
  8
MY3DLAYER
10
3.17753686411864
20
5.12170370865054
30
-6.35759999999999
 70
     32
  0
VERTEX
  8
MY3DLAYER
10
3.16459591186351
20
5.119999999965
30
-6.35759999999999
 70
     32
  0
VERTEX
  8
MY3DLAYER
10
3.15165495960839
20
5.12170370865054
30
-6.35759999999999
 70
     32
  0
VERTEX
  8
MY3DLAYER
10
3.13959591186351
20
5.12669872977578
30
-6.35759999999999
 70
     32
  0
VERTEX
  8
MY3DLAYER
10
3.12924057280418
20
5.13464466090567
30
-6.35759999999999
 70
     32
  0
VERTEX
  8
MY3DLAYER
10
3.12129464167429
20
5.14499999996499
30
-6.35759999999999
 70
     32
  0
VERTEX
  8
MY3DLAYER
10
2.76622422611866
20
4.93999999996465
30
-6.35759999999999
 70
     32
  0
VERTEX
  8
MY3DLAYER
10
2.7712192472438
20
4.92794095221972
30
-6.35759999999999
 70
     32
  0
VERTEX
  8
MY3DLAYER
10
2.77292295592924
20
4.91499999996457
30
-6.35759999999999
 70
     32
  0
VERTEX
  8
MY3DLAYER
10
2.77121924724358
20
4.9020590477095
30
-6.35759999999999
 70
     32
  0
VERTEX
  8
MY3DLAYER
10
2.76622422611826
20
4.88999999996464
30
-6.35759999999999
 70
     32
  0
VERTEX
  8
MY3DLAYER
10
2.75827829498827
20
4.87964466090538
30
-6.35759999999999
 70
     32
  0
VERTEX
  8
MY3DLAYER
10
2.74792295592889
20
4.87169872977559
30
-6.35759999999999
 70
     32
  0
VERTEX
  8
MY3DLAYER
10
2.73586390818397
20
4.86670370865043
30
-6.35759999999999
 70
     32
  0
VERTEX
  8
MY3DLAYER
10
2.72292295592884
20
4.864999999965
30
-6.35759999999999
 70
     32
  0
VERTEX
  8
MY3DLAYER
10
2.70998200367372
20
4.86670370865063
30
-6.35759999999999
 70
     32
  0
VERTEX
  8
MY3DLAYER
10
2.69792295592887
20
4.87169872977599
30
-6.35759999999999
 70
     32
  0
VERTEX
  8
MY3DLAYER
10
2.68756761686961
20
4.87964466090595
30
-6.35759999999999
 70
     32
  0
VERTEX
  8
MY3DLAYER
10
2.6796216857398
20
4.88999999996534
30
-6.35759999999999
 70
     32
  0
VERTEX
  8
MY3DLAYER
10
2.67462666461467
20
4.90205904771026
30
-6.3576
 70
     32
  0
VERTEX
  8
MY3DLAYER
10
2.67292295592922
20
4.91499999996541
30
-6.3576
 70
     32
  0
VERTEX
  8
MY3DLAYER
10
2.67462666461488
20
4.92794095222051
30
-6.35759999999999
 70
     32
  0
VERTEX
  8
MY3DLAYER
10
2.67962168574022
20
4.93999999996537
30
-6.35759999999999
 70
     32
  0
VERTEX
  8
MY3DLAYER
10
2.32455127018797
20
5.14499999997157
30
-6.3576
 70
     32
  0
VERTEX
  8
MY3DLAYER
10
2.31660533905792
20
5.13464466091238
30
-6.3576
 70
     32
  0
VERTEX
  8
MY3DLAYER
10
2.30624999999845
20
5.12669872978266
30
-6.3576
 70
     32
  0
VERTEX
  8
MY3DLAYER
10
2.2941909522535
20
5.12170370865761
30
-6.3576
 70
     32
  0
VERTEX
  8
MY3DLAYER
10
2.28124999999834
20
5.11999999997231
30
-6.35759999999999
 70
     32
  0
SEQEND
  0
POLYLINE
 8
Layer0
 66
     1
70
    8
 10
0.0
 20
 0.0
 30
0.0
  0
VERTEX
  8
MY3DLAYER
10
3.29828708685545
20
40.6205904774681
30
-6.3576
 70
     32
  0
VERTEX
  8
MY3DLAYER
10
3.28124999999999
20
40.7500000000193
30
-6.3576
 70
     32
  0
VERTEX
  8
MY3DLAYER
10
3.28124999999999
20
41.2500000000193
30
-6.35759999999999
 70
     32
  0
VERTEX
  8
MY3DLAYER
10
3.29828708685545
20
41.3794095225706
30
-6.3576
 70
     32
  0
VERTEX
  8
MY3DLAYER
10
3.34823729810777
20
41.5000000000193
30
-6.3576
 70
     32
  0
VERTEX
  8
MY3DLAYER
10
3.42769660940671
20
41.6035533906126
30
-6.3576
 70
     32
  0
VERTEX
  8
MY3DLAYER
10
3.53124999999999
20
41.6830127019116
30
-6.3576
 70
     32
  0
VERTEX
  8
MY3DLAYER
10
3.65184047744873
20
41.7329629131639
30
-6.3576
 70
     32
  0
VERTEX
  8
MY3DLAYER
10
3.78124999999999
20
41.7500000000193
30
-6.3576
 70
     32
  0
VERTEX
  8
MY3DLAYER
10
3.91065952255125
20
41.7329629131639
30
-6.35759999999999
 70
     32
  0
VERTEX
  8
MY3DLAYER
10
4.03124999999999
20
41.6830127019116
30
-6.35759999999999
 70
     32
  0
VERTEX
  8
MY3DLAYER
10
4.13480339059326
20
41.6035533906126
30
-6.35759999999999
 70
     32
  0
VERTEX
  8
MY3DLAYER
10
4.2142627018922
20
41.5000000000193
30
-6.35759999999999
 70
     32
  0
VERTEX
  8
MY3DLAYER
10
4.26421291314452
20
41.3794095225706
30
-6.35759999999999
 70
     32
  0
VERTEX
  8
MY3DLAYER
10
4.28124999999999
20
41.2500000000193
30
-6.35759999999999
 70
     32
  0
VERTEX
  8
MY3DLAYER
10
4.28124999999999
20
40.7500000000193
30
-6.35759999999999
 70
     32
  0
VERTEX
  8
MY3DLAYER
10
4.26421291314452
20
40.6205904774681
30
-6.35759999999999
 70
     32
  0
VERTEX
  8
MY3DLAYER
10
4.21426270189221
20
40.5000000000193
30
-6.35759999999999
 70
     32
  0
VERTEX
  8
MY3DLAYER
10
4.13480339059326
20
40.3964466094261
30
-6.35759999999999
 70
     32
  0
VERTEX
  8
MY3DLAYER
10
4.03124999999999
20
40.3169872981271
30
-6.35759999999999
 70
     32
  0
VERTEX
  8
MY3DLAYER
10
3.91065952255125
20
40.2670370868748
30
-6.35759999999999
 70
     32
  0
VERTEX
  8
MY3DLAYER
10
3.78124999999999
20
40.2500000000193
30
-6.3576
 70
     32
  0
VERTEX
  8
MY3DLAYER
10
3.65184047744873
20
40.2670370868748
30
-6.3576
 70
     32
  0
VERTEX
  8
MY3DLAYER
10
3.53124999999999
20
40.3169872981271
30
-6.3576
 70
     32
  0
VERTEX
  8
MY3DLAYER
10
3.42769660940671
20
40.3964466094261
30
-6.3576
 70
     32
  0
VERTEX
  8
MY3DLAYER
10
3.34823729810777
20
40.5000000000193
30
-6.35759999999999
 70
     32
  0
VERTEX
  8
MY3DLAYER
10
3.29828708685545
20
40.6205904774681
30
-6.3576
 70
     32
  0
SEQEND
  0
POLYLINE
 8
Layer0
 66
     1
70
    8
 10
0.0
 20
 0.0
 30
0.0
  0
VERTEX
  8
MY3DLAYER
10
3.91065952255125
20
-3.73296291312518
30
-6.35759999999999
 70
     32
  0
VERTEX
  8
MY3DLAYER
10
3.78124999999999
20
-3.74999999998064
30
-6.35759999999999
 70
     32
  0
VERTEX
  8
MY3DLAYER
10
3.65184047744873
20
-3.73296291312518
30
-6.35759999999999
 70
     32
  0
VERTEX
  8
MY3DLAYER
10
3.53124999999999
20
-3.68301270187286
30
-6.35759999999999
 70
     32
  0
VERTEX
  8
MY3DLAYER
10
3.42769660940672
20
-3.60355339057392
30
-6.35759999999999
 70
     32
  0
VERTEX
  8
MY3DLAYER
10
3.34823729810777
20
-3.49999999998064
30
-6.35759999999999
 70
     32
  0
VERTEX
  8
MY3DLAYER
10
3.29828708685546
20
-3.37940952253191
30
-6.35759999999999
 70
     32
  0
VERTEX
  8
MY3DLAYER
10
3.28124999999999
20
-3.24999999998065
30
-6.35759999999999
 70
     32
  0
VERTEX
  8
MY3DLAYER
10
3.28124999999999
20
-2.74999999998064
30
-6.35759999999999
 70
     32
  0
VERTEX
  8
MY3DLAYER
10
3.29828708685546
20
-2.62059047742938
30
-6.35759999999999
 70
     32
  0
VERTEX
  8
MY3DLAYER
10
3.34823729810777
20
-2.49999999998064
30
-6.35759999999999
 70
     32
  0
VERTEX
  8
MY3DLAYER
10
3.42769660940672
20
-2.39644660938737
30
-6.35759999999999
 70
     32
  0
VERTEX
  8
MY3DLAYER
10
3.53124999999999
20
-2.31698729808843
30
-6.35759999999999
 70
     32
  0
VERTEX
  8
MY3DLAYER
10
3.65184047744873
20
-2.26703708683611
30
-6.35759999999999
 70
     32
  0
VERTEX
  8
MY3DLAYER
10
3.78124999999999
20
-2.24999999998064
30
-6.35759999999999
 70
     32
  0
VERTEX
  8
MY3DLAYER
10
3.91065952255125
20
-2.26703708683611
30
-6.35759999999999
 70
     32
  0
VERTEX
  8
MY3DLAYER
10
4.03124999999999
20
-2.31698729808843
30
-6.35759999999999
 70
     32
  0
VERTEX
  8
MY3DLAYER
10
4.13480339059327
20
-2.39644660938737
30
-6.35759999999999
 70
     32
  0
VERTEX
  8
MY3DLAYER
10
4.21426270189221
20
-2.49999999998064
30
-6.35759999999999
 70
     32
  0
VERTEX
  8
MY3DLAYER
10
4.26421291314453
20
-2.62059047742938
30
-6.35759999999999
 70
     32
  0
VERTEX
  8
MY3DLAYER
10
4.28124999999999
20
-2.74999999998064
30
-6.35759999999999
 70
     32
  0
VERTEX
  8
MY3DLAYER
10
4.28124999999999
20
-3.24999999998065
30
-6.35759999999999
 70
     32
  0
VERTEX
  8
MY3DLAYER
10
4.26421291314453
20
-3.37940952253191
30
-6.35759999999999
 70
     32
  0
VERTEX
  8
MY3DLAYER
10
4.21426270189221
20
-3.49999999998065
30
-6.35759999999999
 70
     32
  0
VERTEX
  8
MY3DLAYER
10
4.13480339059327
20
-3.60355339057392
30
-6.35759999999999
 70
     32
  0
VERTEX
  8
MY3DLAYER
10
4.03124999999999
20
-3.68301270187286
30
-6.35759999999999
 70
     32
  0
VERTEX
  8
MY3DLAYER
10
3.91065952255125
20
-3.73296291312518
30
-6.35759999999999
 70
     32
  0
SEQEND
  0
POLYLINE
 8
Layer0
 66
     1
70
    8
 10
0.0
 20
 0.0
 30
0.0
  0
VERTEX
  8
MY3DLAYER
10
4.8525179963766
20
32.0167037087417
30
-6.35759999999999
 70
     32
  0
VERTEX
  8
MY3DLAYER
10
4.83957704412147
20
32.0150000000563
30
-6.35759999999999
 70
     32
  0
VERTEX
  8
MY3DLAYER
10
4.82663609186634
20
32.016703708742
30
-6.35759999999999
 70
     32
  0
VERTEX
  8
MY3DLAYER
10
4.8145770441215
20
32.0216987298673
30
-6.35759999999999
 70
     32
  0
VERTEX
  8
MY3DLAYER
10
4.80422170506224
20
32.0296446609973
30
-6.35759999999999
 70
     32
  0
VERTEX
  8
MY3DLAYER
10
4.79627577393243
20
32.0400000000567
30
-6.35759999999999
 70
     32
  0
VERTEX
  8
MY3DLAYER
10
4.7912807528073
20
32.0520590478016
30
-6.35759999999999
 70
     32
  0
VERTEX
  8
MY3DLAYER
10
4.78957704412185
20
32.0650000000567
30
-6.35759999999999
 70
     32
  0
VERTEX
  8
MY3DLAYER
10
4.79128075280751
20
32.0779409523118
30
-6.35759999999999
 70
     32
  0
VERTEX
  8
MY3DLAYER
10
4.79627577393285
20
32.0900000000567
30
-6.35759999999999
 70
     32
  0
VERTEX
  8
MY3DLAYER
10
4.4412053583806
20
32.2950000000629
30
-6.35759999999999
 70
     32
  0
VERTEX
  8
MY3DLAYER
10
4.43325942725055
20
32.2846446610037
30
-6.35759999999999
 70
     32
  0
VERTEX
  8
MY3DLAYER
10
4.42290408819108
20
32.276698729874
30
-6.35759999999999
 70
     32
  0
VERTEX
  8
MY3DLAYER
10
4.41084504044613
20
32.2717037087489
30
-6.35759999999999
 70
     32
  0
VERTEX
  8
MY3DLAYER
10
4.39790408819097
20
32.2700000000636
30
-6.35759999999999
 70
     32
  0
VERTEX
  8
MY3DLAYER
10
4.38496313593587
20
32.2717037087494
30
-6.35759999999999
 70
     32
  0
VERTEX
  8
MY3DLAYER
10
4.37290408819108
20
32.2766987298748
30
-6.35759999999999
 70
     32
  0
VERTEX
  8
MY3DLAYER
10
4.36254874913188
20
32.2846446610049
30
-6.35759999999999
 70
     32
  0
VERTEX
  8
MY3DLAYER
10
4.35460281800217
20
32.2950000000643
30
-6.35759999999999
 70
     32
  0
VERTEX
  8
MY3DLAYER
10
4.34960779687713
20
32.3070590478093
30
-6.35759999999999
 70
     32
  0
VERTEX
  8
MY3DLAYER
10
4.34790408819179
20
32.3200000000644
30
-6.35759999999999
 70
     32
  0
VERTEX
  8
MY3DLAYER
10
4.34960779687755
20
32.3329409523195
30
-6.35759999999999
 70
     32
  0
VERTEX
  8
MY3DLAYER
10
4.35460281800299
20
32.3450000000643
30
-6.35759999999999
 70
     32
  0
VERTEX
  8
MY3DLAYER
10
4.36254874913305
20
32.3553553391235
30
-6.35759999999999
 70
     32
  0
VERTEX
  8
MY3DLAYER
10
4.3729040881925
20
32.3633012702532
30
-6.35759999999999
 70
     32
  0
VERTEX
  8
MY3DLAYER
10
4.38496313593746
20
32.3682962913783
30
-6.35759999999999
 70
     32
  0
VERTEX
  8
MY3DLAYER
10
4.39790408819262
20
32.3700000000636
30
-6.35759999999999
 70
     32
  0
VERTEX
  8
MY3DLAYER
10
4.39790408820109
20
32.7800000000672
30
-6.35759999999999
 70
     32
  0
VERTEX
  8
MY3DLAYER
10
4.38496313594601
20
32.7817037087531
30
-6.35759999999999
 70
     32
  0
VERTEX
  8
MY3DLAYER
10
4.37290408820126
20
32.7866987298787
30
-6.35759999999999
 70
     32
  0
VERTEX
  8
MY3DLAYER
10
4.36254874914212
20
32.7946446610088
30
-6.35759999999999
 70
     32
  0
VERTEX
  8
MY3DLAYER
10
4.35460281801249
20
32.8050000000683
30
-6.35759999999999
 70
     32
  0
VERTEX
  8
MY3DLAYER
10
4.34960779688755
20
32.8170590478133
30
-6.35759999999999
 70
     32
  0
VERTEX
  8
MY3DLAYER
10
4.34790408820233
20
32.8300000000685
30
-6.35759999999999
 70
     32
  0
VERTEX
  8
MY3DLAYER
10
4.34960779688819
20
32.8429409523236
30
-6.35759999999999
 70
     32
  0
VERTEX
  8
MY3DLAYER
10
4.35460281801372
20
32.8550000000683
30
-6.35759999999999
 70
     32
  0
VERTEX
  8
MY3DLAYER
10
4.36254874914387
20
32.8653553391275
30
-6.35759999999999
 70
     32
  0
VERTEX
  8
MY3DLAYER
10
4.37290408820339
20
32.8733012702571
30
-6.35759999999999
 70
     32
  0
VERTEX
  8
MY3DLAYER
10
4.38496313594839
20
32.878296291382
30
-6.35759999999999
 70
     32
  0
VERTEX
  8
MY3DLAYER
10
4.39790408820356
20
32.8800000000673
30
-6.35759999999999
 70
     32
  0
VERTEX
  8
MY3DLAYER
10
4.41084504045865
20
32.8782962913814
30
-6.35759999999999
 70
     32
  0
VERTEX
  8
MY3DLAYER
10
4.4229040882034
20
32.8733012702559
30
-6.35759999999999
 70
     32
  0
VERTEX
  8
MY3DLAYER
10
4.43325942726253
20
32.8653553391257
30
-6.35759999999999
 70
     32
  0
VERTEX
  8
MY3DLAYER
10
4.44120535839217
20
32.8550000000662
30
-6.35759999999999
 70
     32
  0
VERTEX
  8
MY3DLAYER
10
4.79627577395288
20
33.0600000000578
30
-6.35759999999999
 70
     32
  0
VERTEX
  8
MY3DLAYER
10
4.79128075282803
20
33.0720590478028
30
-6.35759999999999
 70
     32
  0
VERTEX
  8
MY3DLAYER
10
4.78957704414291
20
33.0850000000579
30
-6.35759999999999
 70
     32
  0
VERTEX
  8
MY3DLAYER
10
4.79128075282889
20
33.097940952313
30
-6.35759999999999
 70
     32
  0
VERTEX
  8
MY3DLAYER
10
4.79627577395452
20
33.1100000000577
30
-6.35759999999999
 70
     32
  0
VERTEX
  8
MY3DLAYER
10
4.80422170508475
20
33.1203553391168
30
-6.35759999999999
 70
     32
  0
VERTEX
  8
MY3DLAYER
10
4.81457704414434
20
33.1283012702463
30
-6.35759999999999
 70
     32
  0
VERTEX
  8
MY3DLAYER
10
4.82663609188938
20
33.1332962913712
30
-6.35759999999999
 70
     32
  0
VERTEX
  8
MY3DLAYER
10
4.83957704414456
20
33.1350000000563
30
-6.35759999999999
 70
     32
  0
VERTEX
  8
MY3DLAYER
10
4.85251799639963
20
33.1332962913703
30
-6.35759999999999
 70
     32
  0
VERTEX
  8
MY3DLAYER
10
4.86457704414434
20
33.1283012702447
30
-6.35759999999999
 70
     32
  0
VERTEX
  8
MY3DLAYER
10
4.87493238320342
20
33.1203553391145
30
-6.35759999999999
 70
     32
  0
VERTEX
  8
MY3DLAYER
10
4.88287831433296
20
33.1100000000549
30
-6.35759999999999
 70
     32
  0
VERTEX
  8
MY3DLAYER
10
4.8878733354578
20
33.0979409523099
30
-6.35759999999999
 70
     32
  0
VERTEX
  8
MY3DLAYER
10
4.88957704414292
20
33.0850000000547
30
-6.35759999999999
 70
     32
  0
VERTEX
  8
MY3DLAYER
10
4.88787333545695
20
33.0720590477996
30
-6.35759999999999
 70
     32
  0
VERTEX
  8
MY3DLAYER
10
4.88287831433131
20
33.0600000000549
30
-6.35759999999999
 70
     32
  0
VERTEX
  8
MY3DLAYER
10
5.23794872987848
20
32.8550000000399
30
-6.35759999999999
 70
     32
  0
VERTEX
  8
MY3DLAYER
10
5.24589466100878
20
32.8653553390989
30
-6.35759999999999
 70
     32
  0
VERTEX
  8
MY3DLAYER
10
5.25625000006845
20
32.8733012702283
30
-6.35759999999999
 70
     32
  0
VERTEX
  8
MY3DLAYER
10
5.26830904781353
20
32.8782962913531
30
-6.35759999999999
 70
     32
  0
VERTEX
  8
MY3DLAYER
10
5.28125000006872
20
32.8800000000381
30
-6.35759999999999
 70
     32
  0
VERTEX
  8
MY3DLAYER
10
5.29419095232378
20
32.878296291352
30
-6.35759999999999
 70
     32
  0
VERTEX
  8
MY3DLAYER
10
5.30625000006845
20
32.8733012702263
30
-6.35759999999999
 70
     32
  0
VERTEX
  8
MY3DLAYER
10
5.31660533912745
20
32.865355339096
30
-6.35759999999999
 70
     32
  0
VERTEX
  8
MY3DLAYER
10
5.32455127025693
20
32.8550000000363
30
-6.35759999999999
 70
     32
  0
VERTEX
  8
MY3DLAYER
10
5.32954629138166
20
32.8429409522912
30
-6.35759999999999
 70
     32
  0
VERTEX
  8
MY3DLAYER
10
5.33125000006668
20
32.830000000036
30
-6.35759999999999
 70
     32
  0
VERTEX
  8
MY3DLAYER
10
5.3295462913806
20
32.817059047781
30
-6.35759999999999
 70
     32
  0
VERTEX
  8
MY3DLAYER
10
5.32455127025485
20
32.8050000000363
30
-6.35759999999999
 70
     32
  0
VERTEX
  8
MY3DLAYER
10
5.31660533912454
20
32.7946446609773
30
-6.35759999999999
 70
     32
  0
VERTEX
  8
MY3DLAYER
10
5.30625000006489
20
32.7866987298478
30
-6.35759999999999
 70
     32
  0
VERTEX
  8
MY3DLAYER
10
5.2941909523198
20
32.7817037087231
30
-6.35759999999999
 70
     32
  0
VERTEX
  8
MY3DLAYER
10
5.28125000006461
20
32.7800000000381
30
-6.35759999999999
 70
     32
  0
VERTEX
  8
MY3DLAYER
10
5.28125000005613
20
32.3700000000563
30
-6.35759999999999
 70
     32
  0
VERTEX
  8
MY3DLAYER
10
5.29419095231126
20
32.3682962913708
30
-6.35759999999999
 70
     32
  0
VERTEX
  8
MY3DLAYER
10
5.30625000005614
20
32.3633012702455
30
-6.35759999999999
 70
     32
  0
VERTEX
  8
MY3DLAYER
10
5.31660533911547
20
32.3553553391157
30
-6.35759999999999
 70
     32
  0
VERTEX
  8
MY3DLAYER
10
5.32455127024536
20
32.3450000000563
30
-6.35759999999999
 70
     32
  0
VERTEX
  8
MY3DLAYER
10
5.32954629137059
20
32.3329409523114
30
-6.35759999999999
 70
     32
  0
VERTEX
  8
MY3DLAYER
10
5.33125000005614
20
32.3200000000563
30
-6.35759999999999
 70
     32
  0
VERTEX
  8
MY3DLAYER
10
5.32954629137059
20
32.3070590478012
30
-6.35759999999999
 70
     32
  0
VERTEX
  8
MY3DLAYER
10
5.32455127024537
20
32.2950000000563
30
-6.35759999999999
 70
     32
  0
VERTEX
  8
MY3DLAYER
10
5.31660533911547
20
32.284644660997
30
-6.35759999999999
 70
     32
  0
VERTEX
  8
MY3DLAYER
10
5.30625000005614
20
32.2766987298671
30
-6.35759999999999
 70
     32
  0
VERTEX
  8
MY3DLAYER
10
5.29419095231126
20
32.2717037087419
30
-6.35759999999999
 70
     32
  0
VERTEX
  8
MY3DLAYER
10
5.28125000005614
20
32.2700000000563
30
-6.35759999999999
 70
     32
  0
VERTEX
  8
MY3DLAYER
10
5.26830904780102
20
32.2717037087419
30
-6.35759999999999
 70
     32
  0
VERTEX
  8
MY3DLAYER
10
5.25625000005614
20
32.2766987298671
30
-6.35759999999999
 70
     32
  0
VERTEX
  8
MY3DLAYER
10
5.24589466099681
20
32.284644660997
30
-6.35759999999999
 70
     32
  0
VERTEX
  8
MY3DLAYER
10
5.23794872986691
20
32.2950000000563
30
-6.35759999999999
 70
     32
  0
VERTEX
  8
MY3DLAYER
10
4.88287831431129
20
32.090000000056
30
-6.35759999999999
 70
     32
  0
VERTEX
  8
MY3DLAYER
10
4.88787333543643
20
32.077940952311
30
-6.35759999999999
 70
     32
  0
VERTEX
  8
MY3DLAYER
10
4.88957704412187
20
32.0650000000559
30
-6.35759999999999
 70
     32
  0
VERTEX
  8
MY3DLAYER
10
4.88787333543621
20
32.0520590478008
30
-6.35759999999999
 70
     32
  0
VERTEX
  8
MY3DLAYER
10
4.88287831431088
20
32.040000000056
30
-6.35759999999999
 70
     32
  0
VERTEX
  8
MY3DLAYER
10
4.8749323831809
20
32.0296446609967
30
-6.35759999999999
 70
     32
  0
VERTEX
  8
MY3DLAYER
10
4.86457704412152
20
32.0216987298669
30
-6.35759999999999
 70
     32
  0
VERTEX
  8
MY3DLAYER
10
4.8525179963766
20
32.0167037087417
30
-6.35759999999999
 70
     32
  0
SEQEND
  0
POLYLINE
 8
Layer0
 66
     1
70
    8
 10
0.0
 20
 0.0
 30
0.0
  0
VERTEX
  8
MY3DLAYER
10
3.91065952255125
20
36.2670370868748
30
-6.35759999999999
 70
     32
  0
VERTEX
  8
MY3DLAYER
10
3.78124999999999
20
36.2500000000193
30
-6.35759999999999
 70
     32
  0
VERTEX
  8
MY3DLAYER
10
3.65184047744873
20
36.2670370868748
30
-6.35759999999999
 70
     32
  0
VERTEX
  8
MY3DLAYER
10
3.53124999999999
20
36.3169872981271
30
-6.35759999999999
 70
     32
  0
VERTEX
  8
MY3DLAYER
10
3.42769660940671
20
36.3964466094261
30
-6.35759999999999
 70
     32
  0
VERTEX
  8
MY3DLAYER
10
3.34823729810777
20
36.5000000000193
30
-6.35759999999999
 70
     32
  0
VERTEX
  8
MY3DLAYER
10
3.29828708685545
20
36.6205904774681
30
-6.3576
 70
     32
  0
VERTEX
  8
MY3DLAYER
10
3.28124999999999
20
36.7500000000193
30
-6.35759999999999
 70
     32
  0
VERTEX
  8
MY3DLAYER
10
3.28124999999999
20
37.2500000000193
30
-6.35759999999999
 70
     32
  0
VERTEX
  8
MY3DLAYER
10
3.29828708685545
20
37.3794095225706
30
-6.35759999999999
 70
     32
  0
VERTEX
  8
MY3DLAYER
10
3.34823729810777
20
37.5000000000193
30
-6.35759999999999
 70
     32
  0
VERTEX
  8
MY3DLAYER
10
3.42769660940671
20
37.6035533906126
30
-6.35759999999999
 70
     32
  0
VERTEX
  8
MY3DLAYER
10
3.53124999999999
20
37.6830127019116
30
-6.35759999999999
 70
     32
  0
VERTEX
  8
MY3DLAYER
10
3.65184047744873
20
37.7329629131639
30
-6.35759999999999
 70
     32
  0
VERTEX
  8
MY3DLAYER
10
3.78124999999999
20
37.7500000000193
30
-6.35759999999999
 70
     32
  0
VERTEX
  8
MY3DLAYER
10
3.91065952255125
20
37.7329629131639
30
-6.35759999999999
 70
     32
  0
VERTEX
  8
MY3DLAYER
10
4.03124999999999
20
37.6830127019116
30
-6.35759999999999
 70
     32
  0
VERTEX
  8
MY3DLAYER
10
4.13480339059326
20
37.6035533906126
30
-6.35759999999999
 70
     32
  0
VERTEX
  8
MY3DLAYER
10
4.21426270189221
20
37.5000000000193
30
-6.35759999999999
 70
     32
  0
VERTEX
  8
MY3DLAYER
10
4.26421291314452
20
37.3794095225706
30
-6.35759999999999
 70
     32
  0
VERTEX
  8
MY3DLAYER
10
4.28124999999999
20
37.2500000000193
30
-6.35759999999999
 70
     32
  0
VERTEX
  8
MY3DLAYER
10
4.28124999999999
20
36.7500000000193
30
-6.35759999999999
 70
     32
  0
VERTEX
  8
MY3DLAYER
10
4.26421291314452
20
36.6205904774681
30
-6.35759999999999
 70
     32
  0
VERTEX
  8
MY3DLAYER
10
4.21426270189221
20
36.5000000000193
30
-6.35759999999999
 70
     32
  0
VERTEX
  8
MY3DLAYER
10
4.13480339059326
20
36.3964466094261
30
-6.35759999999999
 70
     32
  0
VERTEX
  8
MY3DLAYER
10
4.03124999999999
20
36.3169872981271
30
-6.35759999999999
 70
     32
  0
VERTEX
  8
MY3DLAYER
10
3.91065952255125
20
36.2670370868748
30
-6.35759999999999
 70
     32
  0
SEQEND
  0
POLYLINE
 8
Layer0
 66
     1
70
    8
 10
0.0
 20
 0.0
 30
0.0
  0
VERTEX
  8
MY3DLAYER
10
4.28124999999999
20
1.25000000001936
30
-6.35759999999998
 70
     32
  0
VERTEX
  8
MY3DLAYER
10
4.28124999999999
20
0.750000000019355
30
-6.35759999999998
 70
     32
  0
VERTEX
  8
MY3DLAYER
10
4.26421291314452
20
0.620590477468092
30
-6.35759999999998
 70
     32
  0
VERTEX
  8
MY3DLAYER
10
4.21426270189221
20
0.500000000019355
30
-6.35759999999998
 70
     32
  0
VERTEX
  8
MY3DLAYER
10
4.13480339059326
20
0.396446609426079
30
-6.35759999999998
 70
     32
  0
VERTEX
  8
MY3DLAYER
10
4.03124999999999
20
0.316987298127138
30
-6.35759999999998
 70
     32
  0
VERTEX
  8
MY3DLAYER
10
3.91065952255125
20
0.267037086874824
30
-6.35759999999998
 70
     32
  0
VERTEX
  8
MY3DLAYER
10
3.78124999999999
20
0.250000000019355
30
-6.35759999999998
 70
     32
  0
VERTEX
  8
MY3DLAYER
10
3.65184047744873
20
0.267037086874824
30
-6.35759999999998
 70
     32
  0
VERTEX
  8
MY3DLAYER
10
3.53124999999999
20
0.31698729812714
30
-6.35759999999998
 70
     32
  0
VERTEX
  8
MY3DLAYER
10
3.42769660940671
20
0.39644660942608
30
-6.35759999999998
 70
     32
  0
VERTEX
  8
MY3DLAYER
10
3.34823729810777
20
0.500000000019357
30
-6.35759999999998
 70
     32
  0
VERTEX
  8
MY3DLAYER
10
3.29828708685545
20
0.620590477468093
30
-6.35759999999998
 70
     32
  0
VERTEX
  8
MY3DLAYER
10
3.28124999999999
20
0.750000000019357
30
-6.35759999999998
 70
     32
  0
VERTEX
  8
MY3DLAYER
10
3.28124999999999
20
1.25000000001936
30
-6.35759999999998
 70
     32
  0
VERTEX
  8
MY3DLAYER
10
3.29828708685545
20
1.37940952257062
30
-6.35759999999998
 70
     32
  0
VERTEX
  8
MY3DLAYER
10
3.34823729810777
20
1.50000000001936
30
-6.35759999999997
 70
     32
  0
VERTEX
  8
MY3DLAYER
10
3.42769660940672
20
1.60355339061263
30
-6.35759999999998
 70
     32
  0
VERTEX
  8
MY3DLAYER
10
3.53124999999999
20
1.68301270191157
30
-6.35759999999998
 70
     32
  0
VERTEX
  8
MY3DLAYER
10
3.65184047744873
20
1.73296291316389
30
-6.35759999999998
 70
     32
  0
VERTEX
  8
MY3DLAYER
10
3.78124999999999
20
1.75000000001936
30
-6.35759999999998
 70
     32
  0
VERTEX
  8
MY3DLAYER
10
3.91065952255125
20
1.73296291316389
30
-6.35759999999998
 70
     32
  0
VERTEX
  8
MY3DLAYER
10
4.03124999999999
20
1.68301270191157
30
-6.35759999999998
 70
     32
  0
VERTEX
  8
MY3DLAYER
10
4.13480339059327
20
1.60355339061263
30
-6.35759999999998
 70
     32
  0
VERTEX
  8
MY3DLAYER
10
4.21426270189221
20
1.50000000001936
30
-6.35759999999998
 70
     32
  0
VERTEX
  8
MY3DLAYER
10
4.26421291314452
20
1.37940952257062
30
-6.35759999999998
 70
     32
  0
VERTEX
  8
MY3DLAYER
10
4.28124999999999
20
1.25000000001936
30
-6.35759999999998
 70
     32
  0
SEQEND
 0
ENDSEC
 0
EOF
