ISO-10303-21;
HEADER;
FILE_DESCRIPTION (( 'STEP AP203' ),
    '1' );
FILE_NAME ('Spindle.STEP',
    '2012-05-22T00:57:30',
    ( '' ),
    ( '' ),
    'SwSTEP 2.0',
    'SolidWorks 2010',
    '' );
FILE_SCHEMA (( 'CONFIG_CONTROL_DESIGN' ));
ENDSEC;

DATA;
#1 = MANIFOLD_SOLID_BREP ( 'Boss-Extrude1', #153 ) ;
#2 = ADVANCED_BREP_SHAPE_REPRESENTATION ( 'Spindle', ( #1, #50 ), #80 ) ;
#3 = UNCERTAINTY_MEASURE_WITH_UNIT (LENGTH_MEASURE( 1.000000000000000100E-005 ), #108, 'distance_accuracy_value', 'NONE');
#4 = APPROVAL_DATE_TIME ( #17, #55 ) ;
#5 = CALENDAR_DATE ( 2012, 21, 5 ) ;
#6 = PERSON_AND_ORGANIZATION ( #65, #76 ) ;
#7 = CALENDAR_DATE ( 2012, 21, 5 ) ;
#8 = DATE_AND_TIME ( #5, #13 ) ;
#9 = DATE_AND_TIME ( #7, #11 ) ;
#10 = COORDINATED_UNIVERSAL_TIME_OFFSET ( 6, 0, .BEHIND. ) ;
#11 = LOCAL_TIME ( 19, 57, 30.00000000000000000, #10 ) ;
#12 = APPROVAL_PERSON_ORGANIZATION ( #15, #56, #143 ) ;
#13 = LOCAL_TIME ( 19, 57, 30.00000000000000000, #14 ) ;
#14 = COORDINATED_UNIVERSAL_TIME_OFFSET ( 6, 0, .BEHIND. ) ;
#15 = PERSON_AND_ORGANIZATION ( #65, #76 ) ;
#16 = APPROVAL_DATE_TIME ( #75, #35 ) ;
#17 = DATE_AND_TIME ( #23, #21 ) ;
#18 = DATE_AND_TIME ( #25, #26 ) ;
#19 = APPROVAL_PERSON_ORGANIZATION ( #22, #55, #90 ) ;
#20 = COORDINATED_UNIVERSAL_TIME_OFFSET ( 6, 0, .BEHIND. ) ;
#21 = LOCAL_TIME ( 19, 57, 30.00000000000000000, #20 ) ;
#22 = PERSON_AND_ORGANIZATION ( #65, #76 ) ;
#23 = CALENDAR_DATE ( 2012, 21, 5 ) ;
#24 = APPROVAL_DATE_TIME ( #9, #56 ) ;
#25 = CALENDAR_DATE ( 2012, 21, 5 ) ;
#26 = LOCAL_TIME ( 19, 57, 30.00000000000000000, #27 ) ;
#27 = COORDINATED_UNIVERSAL_TIME_OFFSET ( 6, 0, .BEHIND. ) ;
#28 = PERSON_AND_ORGANIZATION ( #65, #76 ) ;
#29 = PERSON_AND_ORGANIZATION ( #65, #76 ) ;
#30 = PERSON_AND_ORGANIZATION ( #65, #76 ) ;
#31 = CC_DESIGN_PERSON_AND_ORGANIZATION_ASSIGNMENT ( #30, #137, ( #42 ) ) ;
#32 = AXIS2_PLACEMENT_3D ( 'NONE', #124, #148, #110 ) ;
#33 = SECURITY_CLASSIFICATION ( '', '', #126 ) ;
#34 = EDGE_CURVE ( 'NONE', #98, #139, #154, .T. ) ;
#35 = APPROVAL ( #145, 'UNSPECIFIED' ) ;
#36 = EDGE_CURVE ( 'NONE', #149, #114, #169, .T. ) ;
#37 = CC_DESIGN_PERSON_AND_ORGANIZATION_ASSIGNMENT ( #29, #95, ( #42 ) ) ;
#38 = PRODUCT_RELATED_PRODUCT_CATEGORY ( 'detail', '', ( #64 ) ) ;
#39 = AXIS2_PLACEMENT_3D ( 'NONE', #94, #147, #150 ) ;
#40 = EDGE_CURVE ( 'NONE', #139, #98, #152, .T. ) ;
#41 = AXIS2_PLACEMENT_3D ( 'NONE', #117, #96, #88 ) ;
#42 = PRODUCT_DEFINITION_FORMATION_WITH_SPECIFIED_SOURCE ( 'ANY', '', #64, .NOT_KNOWN. ) ;
#43 = EDGE_CURVE ( 'NONE', #149, #98, #171, .T. ) ;
#44 = CC_DESIGN_PERSON_AND_ORGANIZATION_ASSIGNMENT ( #28, #113, ( #33 ) ) ;
#45 = PRODUCT_DEFINITION ( 'UNKNOWN', '', #42, #71 ) ;
#46 = AXIS2_PLACEMENT_3D ( 'NONE', #112, #105, #109 ) ;
#47 = EDGE_CURVE ( 'NONE', #114, #139, #157, .T. ) ;
#48 = EDGE_CURVE ( 'NONE', #114, #149, #84, .T. ) ;
#49 = CC_DESIGN_PERSON_AND_ORGANIZATION_ASSIGNMENT ( #73, #103, ( #64 ) ) ;
#50 = AXIS2_PLACEMENT_3D ( 'NONE', #138, #91, #123 ) ;
#51 = CC_DESIGN_APPROVAL ( #35, ( #45 ) ) ;
#52 = CC_DESIGN_PERSON_AND_ORGANIZATION_ASSIGNMENT ( #6, #142, ( #45 ) ) ;
#53 = CC_DESIGN_DATE_AND_TIME_ASSIGNMENT ( #8, #93, ( #45 ) ) ;
#54 = CC_DESIGN_DATE_AND_TIME_ASSIGNMENT ( #18, #125, ( #33 ) ) ;
#55 = APPROVAL ( #141, 'UNSPECIFIED' ) ;
#56 = APPROVAL ( #101, 'UNSPECIFIED' ) ;
#57 = CC_DESIGN_APPROVAL ( #55, ( #33 ) ) ;
#58 = CC_DESIGN_SECURITY_CLASSIFICATION ( #33, ( #42 ) ) ;
#59 = AXIS2_PLACEMENT_3D ( 'NONE', #97, #131, #116 ) ;
#60 = CC_DESIGN_APPROVAL ( #56, ( #42 ) ) ;
#61 = AXIS2_PLACEMENT_3D ( 'NONE', #102, #135, #99 ) ;
#62 = AXIS2_PLACEMENT_3D ( 'NONE', #106, #129, #130 ) ;
#63 = AXIS2_PLACEMENT_3D ( 'NONE', #118, #127, #92 ) ;
#64 = PRODUCT ( 'Spindle', 'Spindle', '', ( #122 ) ) ;
#65 = PERSON ( 'UNSPECIFIED', 'UNSPECIFIED', 'UNSPECIFIED', ('UNSPECIFIED'), ('UNSPECIFIED'), ('UNSPECIFIED') ) ;
#66 = ADVANCED_FACE ( 'NONE', ( #164 ), #115, .F. ) ;
#67 = ADVANCED_FACE ( 'NONE', ( #85 ), #128, .T. ) ;
#68 = ADVANCED_FACE ( 'NONE', ( #83 ), #82, .T. ) ;
#69 = ADVANCED_FACE ( 'NONE', ( #86 ), #87, .T. ) ;
#70 = PRODUCT_DEFINITION_SHAPE ( 'NONE', 'NONE',  #45 ) ;
#71 = DESIGN_CONTEXT ( 'detailed design', #146, 'design' ) ;
#72 = APPROVAL_PERSON_ORGANIZATION ( #74, #35, #111 ) ;
#73 = PERSON_AND_ORGANIZATION ( #65, #76 ) ;
#74 = PERSON_AND_ORGANIZATION ( #65, #76 ) ;
#75 = DATE_AND_TIME ( #77, #81 ) ;
#76 = ORGANIZATION ( 'UNSPECIFIED', 'UNSPECIFIED', '' ) ;
#77 = CALENDAR_DATE ( 2012, 21, 5 ) ;
#78 = COORDINATED_UNIVERSAL_TIME_OFFSET ( 6, 0, .BEHIND. ) ;
#79 = SHAPE_DEFINITION_REPRESENTATION ( #70, #2 ) ;
#80 =( GEOMETRIC_REPRESENTATION_CONTEXT ( 3 ) GLOBAL_UNCERTAINTY_ASSIGNED_CONTEXT ( ( #3 ) ) GLOBAL_UNIT_ASSIGNED_CONTEXT ( ( #108, #133, #134 ) ) REPRESENTATION_CONTEXT ( 'NONE', 'WORKASPACE' ) );
#81 = LOCAL_TIME ( 19, 57, 30.00000000000000000, #78 ) ;
#82 = CYLINDRICAL_SURFACE ( 'NONE', #59, 15.90000000000000000 ) ;
#83 = FACE_OUTER_BOUND ( 'NONE', #151, .T. ) ;
#84 = CIRCLE ( 'NONE', #41, 15.90000000000000000 ) ;
#85 = FACE_OUTER_BOUND ( 'NONE', #175, .T. ) ;
#86 = FACE_OUTER_BOUND ( 'NONE', #174, .T. ) ;
#87 = CYLINDRICAL_SURFACE ( 'NONE', #61, 15.90000000000000000 ) ;
#88 = DIRECTION ( 'NONE',  ( 1.000000000000000000, 0.0000000000000000000, 0.0000000000000000000 ) ) ;
#89 = APPLICATION_PROTOCOL_DEFINITION ( 'international standard', 'config_control_design', 1994, #146 ) ;
#90 = APPROVAL_ROLE ( '' ) ;
#91 = DIRECTION ( 'NONE',  ( 0.0000000000000000000, 0.0000000000000000000, 1.000000000000000000 ) ) ;
#92 = DIRECTION ( 'NONE',  ( 1.000000000000000000, 0.0000000000000000000, -0.0000000000000000000 ) ) ;
#93 = DATE_TIME_ROLE ( 'creation_date' ) ;
#94 = CARTESIAN_POINT ( 'NONE',  ( 0.0000000000000000000, 0.0000000000000000000, 0.0000000000000000000 ) ) ;
#95 = PERSON_AND_ORGANIZATION_ROLE ( 'design_supplier' ) ;
#96 = DIRECTION ( 'NONE',  ( 0.0000000000000000000, 0.0000000000000000000, 1.000000000000000000 ) ) ;
#97 = CARTESIAN_POINT ( 'NONE',  ( 0.0000000000000000000, 0.0000000000000000000, 75.00000000000000000 ) ) ;
#98 = VERTEX_POINT ( 'NONE', #119 ) ;
#99 = DIRECTION ( 'NONE',  ( -1.000000000000000000, 0.0000000000000000000, 0.0000000000000000000 ) ) ;
#100 = APPLICATION_PROTOCOL_DEFINITION ( 'international standard', 'config_control_design', 1994, #121 ) ;
#101 = APPROVAL_STATUS ( 'not_yet_approved' ) ;
#102 = CARTESIAN_POINT ( 'NONE',  ( 0.0000000000000000000, 0.0000000000000000000, 75.00000000000000000 ) ) ;
#103 = PERSON_AND_ORGANIZATION_ROLE ( 'design_owner' ) ;
#104 = DIRECTION ( 'NONE',  ( -0.0000000000000000000, -0.0000000000000000000, -1.000000000000000000 ) ) ;
#105 = DIRECTION ( 'NONE',  ( 0.0000000000000000000, 0.0000000000000000000, 1.000000000000000000 ) ) ;
#106 = CARTESIAN_POINT ( 'NONE',  ( 0.0000000000000000000, 0.0000000000000000000, 0.0000000000000000000 ) ) ;
#107 = CARTESIAN_POINT ( 'NONE',  ( -15.90000000000000000, 0.0000000000000000000, 75.00000000000000000 ) ) ;
#108 =( LENGTH_UNIT ( ) NAMED_UNIT ( * ) SI_UNIT ( .MILLI., .METRE. ) );
#109 = DIRECTION ( 'NONE',  ( 1.000000000000000000, 0.0000000000000000000, 0.0000000000000000000 ) ) ;
#110 = DIRECTION ( 'NONE',  ( 1.000000000000000000, 0.0000000000000000000, 0.0000000000000000000 ) ) ;
#111 = APPROVAL_ROLE ( '' ) ;
#112 = CARTESIAN_POINT ( 'NONE',  ( 0.0000000000000000000, 0.0000000000000000000, 0.0000000000000000000 ) ) ;
#113 = PERSON_AND_ORGANIZATION_ROLE ( 'classification_officer' ) ;
#114 = VERTEX_POINT ( 'NONE', #120 ) ;
#115 = PLANE ( 'NONE',  #62 ) ;
#116 = DIRECTION ( 'NONE',  ( -1.000000000000000000, 0.0000000000000000000, 0.0000000000000000000 ) ) ;
#117 = CARTESIAN_POINT ( 'NONE',  ( 0.0000000000000000000, 0.0000000000000000000, 75.00000000000000000 ) ) ;
#118 = CARTESIAN_POINT ( 'NONE',  ( 0.0000000000000000000, 0.0000000000000000000, 75.00000000000000000 ) ) ;
#119 = CARTESIAN_POINT ( 'NONE',  ( -15.90000000000000000, 0.0000000000000000000, 0.0000000000000000000 ) ) ;
#120 = CARTESIAN_POINT ( 'NONE',  ( 15.90000000000000000, 1.947188410644291800E-015, 75.00000000000000000 ) ) ;
#121 = APPLICATION_CONTEXT ( 'configuration controlled 3d designs of mechanical parts and assemblies' ) ;
#122 = MECHANICAL_CONTEXT ( 'NONE', #121, 'mechanical' ) ;
#123 = DIRECTION ( 'NONE',  ( 1.000000000000000000, 0.0000000000000000000, 0.0000000000000000000 ) ) ;
#124 = CARTESIAN_POINT ( 'NONE',  ( 0.0000000000000000000, 0.0000000000000000000, 75.00000000000000000 ) ) ;
#125 = DATE_TIME_ROLE ( 'classification_date' ) ;
#126 = SECURITY_CLASSIFICATION_LEVEL ( 'unclassified' ) ;
#127 = DIRECTION ( 'NONE',  ( 0.0000000000000000000, 0.0000000000000000000, 1.000000000000000000 ) ) ;
#128 = PLANE ( 'NONE',  #63 ) ;
#129 = DIRECTION ( 'NONE',  ( 0.0000000000000000000, 0.0000000000000000000, 1.000000000000000000 ) ) ;
#130 = DIRECTION ( 'NONE',  ( 1.000000000000000000, 0.0000000000000000000, -0.0000000000000000000 ) ) ;
#131 = DIRECTION ( 'NONE',  ( -0.0000000000000000000, -0.0000000000000000000, -1.000000000000000000 ) ) ;
#132 = DIRECTION ( 'NONE',  ( -0.0000000000000000000, -0.0000000000000000000, -1.000000000000000000 ) ) ;
#133 =( NAMED_UNIT ( * ) PLANE_ANGLE_UNIT ( ) SI_UNIT ( $, .RADIAN. ) );
#134 =( NAMED_UNIT ( * ) SI_UNIT ( $, .STERADIAN. ) SOLID_ANGLE_UNIT ( ) );
#135 = DIRECTION ( 'NONE',  ( -0.0000000000000000000, -0.0000000000000000000, -1.000000000000000000 ) ) ;
#136 = CARTESIAN_POINT ( 'NONE',  ( 15.90000000000000000, 1.947188410644291800E-015, 75.00000000000000000 ) ) ;
#137 = PERSON_AND_ORGANIZATION_ROLE ( 'creator' ) ;
#138 = CARTESIAN_POINT ( 'NONE',  ( 0.0000000000000000000, 0.0000000000000000000, 0.0000000000000000000 ) ) ;
#139 = VERTEX_POINT ( 'NONE', #140 ) ;
#140 = CARTESIAN_POINT ( 'NONE',  ( 15.90000000000000000, 1.947188410644291800E-015, 0.0000000000000000000 ) ) ;
#141 = APPROVAL_STATUS ( 'not_yet_approved' ) ;
#142 = PERSON_AND_ORGANIZATION_ROLE ( 'creator' ) ;
#143 = APPROVAL_ROLE ( '' ) ;
#144 = CARTESIAN_POINT ( 'NONE',  ( -15.90000000000000000, 0.0000000000000000000, 75.00000000000000000 ) ) ;
#145 = APPROVAL_STATUS ( 'not_yet_approved' ) ;
#146 = APPLICATION_CONTEXT ( 'configuration controlled 3d designs of mechanical parts and assemblies' ) ;
#147 = DIRECTION ( 'NONE',  ( 0.0000000000000000000, 0.0000000000000000000, 1.000000000000000000 ) ) ;
#148 = DIRECTION ( 'NONE',  ( 0.0000000000000000000, 0.0000000000000000000, 1.000000000000000000 ) ) ;
#149 = VERTEX_POINT ( 'NONE', #144 ) ;
#150 = DIRECTION ( 'NONE',  ( 1.000000000000000000, 0.0000000000000000000, 0.0000000000000000000 ) ) ;
#151 = EDGE_LOOP ( 'NONE', ( #172, #155, #159, #162 ) ) ;
#152 = CIRCLE ( 'NONE', #39, 15.90000000000000000 ) ;
#153 = CLOSED_SHELL ( 'NONE', ( #68, #69, #67, #66 ) ) ;
#154 = CIRCLE ( 'NONE', #46, 15.90000000000000000 ) ;
#155 = ORIENTED_EDGE ( 'NONE', *, *, #47, .T. ) ;
#156 = ORIENTED_EDGE ( 'NONE', *, *, #43, .T. ) ;
#157 = LINE ( 'NONE', #136, #170 ) ;
#158 = ORIENTED_EDGE ( 'NONE', *, *, #34, .F. ) ;
#159 = ORIENTED_EDGE ( 'NONE', *, *, #40, .T. ) ;
#160 = ORIENTED_EDGE ( 'NONE', *, *, #48, .T. ) ;
#161 = ORIENTED_EDGE ( 'NONE', *, *, #36, .F. ) ;
#162 = ORIENTED_EDGE ( 'NONE', *, *, #43, .F. ) ;
#163 = EDGE_LOOP ( 'NONE', ( #158, #173 ) ) ;
#164 = FACE_OUTER_BOUND ( 'NONE', #163, .T. ) ;
#165 = VECTOR ( 'NONE', #132, 1000.000000000000000 ) ;
#166 = ORIENTED_EDGE ( 'NONE', *, *, #36, .T. ) ;
#167 = ORIENTED_EDGE ( 'NONE', *, *, #47, .F. ) ;
#168 = ORIENTED_EDGE ( 'NONE', *, *, #34, .T. ) ;
#169 = CIRCLE ( 'NONE', #32, 15.90000000000000000 ) ;
#170 = VECTOR ( 'NONE', #104, 1000.000000000000000 ) ;
#171 = LINE ( 'NONE', #107, #165 ) ;
#172 = ORIENTED_EDGE ( 'NONE', *, *, #48, .F. ) ;
#173 = ORIENTED_EDGE ( 'NONE', *, *, #40, .F. ) ;
#174 = EDGE_LOOP ( 'NONE', ( #167, #161, #156, #168 ) ) ;
#175 = EDGE_LOOP ( 'NONE', ( #166, #160 ) ) ;
ENDSEC;
END-ISO-10303-21;
