ISO-10303-21;
HEADER;
FILE_DESCRIPTION (( 'STEP AP203' ),
    '1' );
FILE_NAME ('Spindle.STEP',
    '2012-05-24T02:17:47',
    ( '' ),
    ( '' ),
    'SwSTEP 2.0',
    'SolidWorks 2010',
    '' );
FILE_SCHEMA (( 'CONFIG_CONTROL_DESIGN' ));
ENDSEC;

DATA;
#1 = PRODUCT ( 'Spindle', 'Spindle', '', ( #23 ) ) ;
#2 = PERSON ( 'UNSPECIFIED', 'UNSPECIFIED', 'UNSPECIFIED', ('UNSPECIFIED'), ('UNSPECIFIED'), ('UNSPECIFIED') ) ;
#3 = CC_DESIGN_PERSON_AND_ORGANIZATION_ASSIGNMENT ( #133, #34, ( #8 ) ) ;
#4 = CC_DESIGN_DATE_AND_TIME_ASSIGNMENT ( #142, #30, ( #167 ) ) ;
#5 = SECURITY_CLASSIFICATION ( '', '', #35 ) ;
#6 = CC_DESIGN_PERSON_AND_ORGANIZATION_ASSIGNMENT ( #134, #33, ( #8 ) ) ;
#7 = CC_DESIGN_APPROVAL ( #14, ( #5 ) ) ;
#8 = PRODUCT_DEFINITION_FORMATION_WITH_SPECIFIED_SOURCE ( 'ANY', '', #1, .NOT_KNOWN. ) ;
#9 = CC_DESIGN_PERSON_AND_ORGANIZATION_ASSIGNMENT ( #132, #36, ( #5 ) ) ;
#10 = CC_DESIGN_SECURITY_CLASSIFICATION ( #5, ( #8 ) ) ;
#11 = APPROVAL ( #31, 'UNSPECIFIED' ) ;
#12 = CC_DESIGN_APPROVAL ( #11, ( #8 ) ) ;
#13 = CC_DESIGN_DATE_AND_TIME_ASSIGNMENT ( #128, #37, ( #5 ) ) ;
#14 = APPROVAL ( #38, 'UNSPECIFIED' ) ;
#15 = PRODUCT_RELATED_PRODUCT_CATEGORY ( 'detail', '', ( #1 ) ) ;
#16 = ADVANCED_FACE ( 'NONE', ( #112 ), #100, .T. ) ;
#17 = ADVANCED_FACE ( 'NONE', ( #111 ), #97, .T. ) ;
#18 = ADVANCED_FACE ( 'NONE', ( #106 ), #51, .F. ) ;
#19 = ADVANCED_FACE ( 'NONE', ( #96 ), #56, .T. ) ;
#20 = DIRECTION ( 'NONE',  ( 1.000000000000000000, 0.0000000000000000000, 0.0000000000000000000 ) ) ;
#21 = APPLICATION_CONTEXT ( 'configuration controlled 3d designs of mechanical parts and assemblies' ) ;
#22 = APPLICATION_PROTOCOL_DEFINITION ( 'international standard', 'config_control_design', 1994, #21 ) ;
#23 = MECHANICAL_CONTEXT ( 'NONE', #21, 'mechanical' ) ;
#24 = PERSON_AND_ORGANIZATION_ROLE ( 'design_owner' ) ;
#25 = APPLICATION_CONTEXT ( 'configuration controlled 3d designs of mechanical parts and assemblies' ) ;
#26 = APPLICATION_PROTOCOL_DEFINITION ( 'international standard', 'config_control_design', 1994, #25 ) ;
#27 = APPROVAL_STATUS ( 'not_yet_approved' ) ;
#28 = APPROVAL_ROLE ( '' ) ;
#29 = PERSON_AND_ORGANIZATION_ROLE ( 'creator' ) ;
#30 = DATE_TIME_ROLE ( 'creation_date' ) ;
#31 = APPROVAL_STATUS ( 'not_yet_approved' ) ;
#32 = APPROVAL_ROLE ( '' ) ;
#33 = PERSON_AND_ORGANIZATION_ROLE ( 'creator' ) ;
#34 = PERSON_AND_ORGANIZATION_ROLE ( 'design_supplier' ) ;
#35 = SECURITY_CLASSIFICATION_LEVEL ( 'unclassified' ) ;
#36 = PERSON_AND_ORGANIZATION_ROLE ( 'classification_officer' ) ;
#37 = DATE_TIME_ROLE ( 'classification_date' ) ;
#38 = APPROVAL_STATUS ( 'not_yet_approved' ) ;
#39 = APPROVAL_ROLE ( '' ) ;
#40 = DIRECTION ( 'NONE',  ( -1.000000000000000000, 0.0000000000000000000, 0.0000000000000000000 ) ) ;
#41 = CARTESIAN_POINT ( 'NONE',  ( 0.0000000000000000000, 0.0000000000000000000, 0.0000000000000000000 ) ) ;
#42 = DIRECTION ( 'NONE',  ( -1.000000000000000000, 0.0000000000000000000, 0.0000000000000000000 ) ) ;
#43 = DIRECTION ( 'NONE',  ( -0.0000000000000000000, -0.0000000000000000000, -1.000000000000000000 ) ) ;
#44 = CARTESIAN_POINT ( 'NONE',  ( 15.90000000000000000, 1.947188410644291400E-015, 90.00000000000000000 ) ) ;
#45 = CARTESIAN_POINT ( 'NONE',  ( 0.0000000000000000000, 0.0000000000000000000, 90.00000000000000000 ) ) ;
#46 = DIRECTION ( 'NONE',  ( -0.0000000000000000000, -0.0000000000000000000, -1.000000000000000000 ) ) ;
#47 = VERTEX_POINT ( 'NONE', #50 ) ;
#48 = VERTEX_POINT ( 'NONE', #76 ) ;
#49 = VERTEX_POINT ( 'NONE', #73 ) ;
#50 = CARTESIAN_POINT ( 'NONE',  ( 15.90000000000000000, 1.947188410644291400E-015, 90.00000000000000000 ) ) ;
#51 = PLANE ( 'NONE',  #90 ) ;
#52 = CARTESIAN_POINT ( 'NONE',  ( 0.0000000000000000000, 0.0000000000000000000, 90.00000000000000000 ) ) ;
#53 = CARTESIAN_POINT ( 'NONE',  ( 0.0000000000000000000, 0.0000000000000000000, 0.0000000000000000000 ) ) ;
#54 = CARTESIAN_POINT ( 'NONE',  ( 0.0000000000000000000, 0.0000000000000000000, 90.00000000000000000 ) ) ;
#55 = DIRECTION ( 'NONE',  ( -0.0000000000000000000, -0.0000000000000000000, -1.000000000000000000 ) ) ;
#56 = PLANE ( 'NONE',  #165 ) ;
#57 = DIRECTION ( 'NONE',  ( 0.0000000000000000000, 0.0000000000000000000, 1.000000000000000000 ) ) ;
#58 = DIRECTION ( 'NONE',  ( -0.0000000000000000000, -0.0000000000000000000, -1.000000000000000000 ) ) ;
#59 = CARTESIAN_POINT ( 'NONE',  ( 0.0000000000000000000, 0.0000000000000000000, 90.00000000000000000 ) ) ;
#60 =( NAMED_UNIT ( * ) SI_UNIT ( $, .STERADIAN. ) SOLID_ANGLE_UNIT ( ) );
#61 = DIRECTION ( 'NONE',  ( 1.000000000000000000, 0.0000000000000000000, 0.0000000000000000000 ) ) ;
#62 = DIRECTION ( 'NONE',  ( 0.0000000000000000000, 0.0000000000000000000, 1.000000000000000000 ) ) ;
#63 = CARTESIAN_POINT ( 'NONE',  ( -15.90000000000000000, 0.0000000000000000000, 90.00000000000000000 ) ) ;
#64 = DIRECTION ( 'NONE',  ( 0.0000000000000000000, 0.0000000000000000000, 1.000000000000000000 ) ) ;
#65 = DIRECTION ( 'NONE',  ( 1.000000000000000000, 0.0000000000000000000, 0.0000000000000000000 ) ) ;
#66 =( NAMED_UNIT ( * ) PLANE_ANGLE_UNIT ( ) SI_UNIT ( $, .RADIAN. ) );
#67 = CARTESIAN_POINT ( 'NONE',  ( 0.0000000000000000000, 0.0000000000000000000, 0.0000000000000000000 ) ) ;
#68 = DIRECTION ( 'NONE',  ( 1.000000000000000000, 0.0000000000000000000, 0.0000000000000000000 ) ) ;
#69 = CARTESIAN_POINT ( 'NONE',  ( 0.0000000000000000000, 0.0000000000000000000, 90.00000000000000000 ) ) ;
#70 = DIRECTION ( 'NONE',  ( 1.000000000000000000, 0.0000000000000000000, 0.0000000000000000000 ) ) ;
#71 = DIRECTION ( 'NONE',  ( 0.0000000000000000000, 0.0000000000000000000, 1.000000000000000000 ) ) ;
#72 = CARTESIAN_POINT ( 'NONE',  ( 0.0000000000000000000, 0.0000000000000000000, 0.0000000000000000000 ) ) ;
#73 = CARTESIAN_POINT ( 'NONE',  ( -15.90000000000000000, 0.0000000000000000000, 90.00000000000000000 ) ) ;
#74 = DIRECTION ( 'NONE',  ( 1.000000000000000000, 0.0000000000000000000, -0.0000000000000000000 ) ) ;
#75 = DIRECTION ( 'NONE',  ( 0.0000000000000000000, 0.0000000000000000000, 1.000000000000000000 ) ) ;
#76 = CARTESIAN_POINT ( 'NONE',  ( 15.90000000000000000, 1.947188410644291400E-015, 0.0000000000000000000 ) ) ;
#77 = CARTESIAN_POINT ( 'NONE',  ( -15.90000000000000000, 0.0000000000000000000, 0.0000000000000000000 ) ) ;
#78 = DIRECTION ( 'NONE',  ( 1.000000000000000000, 0.0000000000000000000, -0.0000000000000000000 ) ) ;
#79 = DIRECTION ( 'NONE',  ( 0.0000000000000000000, 0.0000000000000000000, 1.000000000000000000 ) ) ;
#80 =( LENGTH_UNIT ( ) NAMED_UNIT ( * ) SI_UNIT ( .MILLI., .METRE. ) );
#81 = DIRECTION ( 'NONE',  ( 0.0000000000000000000, 0.0000000000000000000, 1.000000000000000000 ) ) ;
#82 = VERTEX_POINT ( 'NONE', #77 ) ;
#83 = DESIGN_CONTEXT ( 'detailed design', #25, 'design' ) ;
#84 = PRODUCT_DEFINITION_SHAPE ( 'NONE', 'NONE',  #167 ) ;
#85 = MANIFOLD_SOLID_BREP ( 'Boss-Extrude1', #109 ) ;
#86 = EDGE_CURVE ( 'NONE', #49, #82, #98, .T. ) ;
#87 = EDGE_CURVE ( 'NONE', #47, #48, #103, .T. ) ;
#88 = AXIS2_PLACEMENT_3D ( 'NONE', #45, #43, #42 ) ;
#89 = EDGE_CURVE ( 'NONE', #49, #47, #161, .T. ) ;
#90 = AXIS2_PLACEMENT_3D ( 'NONE', #53, #79, #78 ) ;
#91 = EDGE_CURVE ( 'NONE', #47, #49, #160, .T. ) ;
#92 = EDGE_CURVE ( 'NONE', #82, #48, #159, .T. ) ;
#93 = AXIS2_PLACEMENT_3D ( 'NONE', #54, #46, #40 ) ;
#94 = EDGE_CURVE ( 'NONE', #48, #82, #158, .T. ) ;
#95 = ADVANCED_BREP_SHAPE_REPRESENTATION ( 'Spindle', ( #85, #166 ), #157 ) ;
#96 = FACE_OUTER_BOUND ( 'NONE', #99, .T. ) ;
#97 = CYLINDRICAL_SURFACE ( 'NONE', #88, 15.90000000000000000 ) ;
#98 = LINE ( 'NONE', #63, #163 ) ;
#99 = EDGE_LOOP ( 'NONE', ( #162, #115 ) ) ;
#100 = CYLINDRICAL_SURFACE ( 'NONE', #93, 15.90000000000000000 ) ;
#101 = ORIENTED_EDGE ( 'NONE', *, *, #92, .T. ) ;
#102 = VECTOR ( 'NONE', #58, 1000.000000000000000 ) ;
#103 = LINE ( 'NONE', #44, #102 ) ;
#104 = ORIENTED_EDGE ( 'NONE', *, *, #92, .F. ) ;
#105 = EDGE_LOOP ( 'NONE', ( #104, #110 ) ) ;
#106 = FACE_OUTER_BOUND ( 'NONE', #105, .T. ) ;
#107 = EDGE_LOOP ( 'NONE', ( #116, #113, #118, #101 ) ) ;
#108 = EDGE_LOOP ( 'NONE', ( #120, #114, #117, #119 ) ) ;
#109 = CLOSED_SHELL ( 'NONE', ( #17, #16, #19, #18 ) ) ;
#110 = ORIENTED_EDGE ( 'NONE', *, *, #94, .F. ) ;
#111 = FACE_OUTER_BOUND ( 'NONE', #108, .T. ) ;
#112 = FACE_OUTER_BOUND ( 'NONE', #107, .T. ) ;
#113 = ORIENTED_EDGE ( 'NONE', *, *, #89, .F. ) ;
#114 = ORIENTED_EDGE ( 'NONE', *, *, #87, .T. ) ;
#115 = ORIENTED_EDGE ( 'NONE', *, *, #91, .T. ) ;
#116 = ORIENTED_EDGE ( 'NONE', *, *, #87, .F. ) ;
#117 = ORIENTED_EDGE ( 'NONE', *, *, #94, .T. ) ;
#118 = ORIENTED_EDGE ( 'NONE', *, *, #86, .T. ) ;
#119 = ORIENTED_EDGE ( 'NONE', *, *, #86, .F. ) ;
#120 = ORIENTED_EDGE ( 'NONE', *, *, #91, .F. ) ;
#121 = APPROVAL_DATE_TIME ( #122, #14 ) ;
#122 = DATE_AND_TIME ( #123, #124 ) ;
#123 = CALENDAR_DATE ( 2012, 23, 5 ) ;
#124 = LOCAL_TIME ( 21, 17, 47.00000000000000000, #125 ) ;
#125 = COORDINATED_UNIVERSAL_TIME_OFFSET ( 6, 0, .BEHIND. ) ;
#126 = APPROVAL_PERSON_ORGANIZATION ( #127, #14, #39 ) ;
#127 = PERSON_AND_ORGANIZATION ( #2, #155 ) ;
#128 = DATE_AND_TIME ( #129, #130 ) ;
#129 = CALENDAR_DATE ( 2012, 23, 5 ) ;
#130 = LOCAL_TIME ( 21, 17, 47.00000000000000000, #131 ) ;
#131 = COORDINATED_UNIVERSAL_TIME_OFFSET ( 6, 0, .BEHIND. ) ;
#132 = PERSON_AND_ORGANIZATION ( #2, #155 ) ;
#133 = PERSON_AND_ORGANIZATION ( #2, #155 ) ;
#134 = PERSON_AND_ORGANIZATION ( #2, #155 ) ;
#135 = APPROVAL_DATE_TIME ( #136, #11 ) ;
#136 = DATE_AND_TIME ( #137, #138 ) ;
#137 = CALENDAR_DATE ( 2012, 23, 5 ) ;
#138 = LOCAL_TIME ( 21, 17, 47.00000000000000000, #139 ) ;
#139 = COORDINATED_UNIVERSAL_TIME_OFFSET ( 6, 0, .BEHIND. ) ;
#140 = APPROVAL_PERSON_ORGANIZATION ( #141, #11, #32 ) ;
#141 = PERSON_AND_ORGANIZATION ( #2, #155 ) ;
#142 = DATE_AND_TIME ( #143, #144 ) ;
#143 = CALENDAR_DATE ( 2012, 23, 5 ) ;
#144 = LOCAL_TIME ( 21, 17, 47.00000000000000000, #145 ) ;
#145 = COORDINATED_UNIVERSAL_TIME_OFFSET ( 6, 0, .BEHIND. ) ;
#146 = PERSON_AND_ORGANIZATION ( #2, #155 ) ;
#147 = APPROVAL_DATE_TIME ( #148, #171 ) ;
#148 = DATE_AND_TIME ( #149, #150 ) ;
#149 = CALENDAR_DATE ( 2012, 23, 5 ) ;
#150 = LOCAL_TIME ( 21, 17, 47.00000000000000000, #151 ) ;
#151 = COORDINATED_UNIVERSAL_TIME_OFFSET ( 6, 0, .BEHIND. ) ;
#152 = APPROVAL_PERSON_ORGANIZATION ( #153, #171, #28 ) ;
#153 = PERSON_AND_ORGANIZATION ( #2, #155 ) ;
#154 = PERSON_AND_ORGANIZATION ( #2, #155 ) ;
#155 = ORGANIZATION ( 'UNSPECIFIED', 'UNSPECIFIED', '' ) ;
#156 = SHAPE_DEFINITION_REPRESENTATION ( #84, #95 ) ;
#157 =( GEOMETRIC_REPRESENTATION_CONTEXT ( 3 ) GLOBAL_UNCERTAINTY_ASSIGNED_CONTEXT ( ( #164 ) ) GLOBAL_UNIT_ASSIGNED_CONTEXT ( ( #80, #66, #60 ) ) REPRESENTATION_CONTEXT ( 'NONE', 'WORKASPACE' ) );
#158 = CIRCLE ( 'NONE', #168, 15.90000000000000000 ) ;
#159 = CIRCLE ( 'NONE', #169, 15.90000000000000000 ) ;
#160 = CIRCLE ( 'NONE', #170, 15.90000000000000000 ) ;
#161 = CIRCLE ( 'NONE', #174, 15.90000000000000000 ) ;
#162 = ORIENTED_EDGE ( 'NONE', *, *, #89, .T. ) ;
#163 = VECTOR ( 'NONE', #55, 1000.000000000000000 ) ;
#164 = UNCERTAINTY_MEASURE_WITH_UNIT (LENGTH_MEASURE( 1.000000000000000100E-005 ), #80, 'distance_accuracy_value', 'NONE');
#165 = AXIS2_PLACEMENT_3D ( 'NONE', #52, #75, #74 ) ;
#166 = AXIS2_PLACEMENT_3D ( 'NONE', #41, #64, #20 ) ;
#167 = PRODUCT_DEFINITION ( 'UNKNOWN', '', #8, #83 ) ;
#168 = AXIS2_PLACEMENT_3D ( 'NONE', #67, #62, #65 ) ;
#169 = AXIS2_PLACEMENT_3D ( 'NONE', #72, #57, #61 ) ;
#170 = AXIS2_PLACEMENT_3D ( 'NONE', #69, #81, #68 ) ;
#171 = APPROVAL ( #27, 'UNSPECIFIED' ) ;
#172 = CC_DESIGN_APPROVAL ( #171, ( #167 ) ) ;
#173 = CC_DESIGN_PERSON_AND_ORGANIZATION_ASSIGNMENT ( #146, #29, ( #167 ) ) ;
#174 = AXIS2_PLACEMENT_3D ( 'NONE', #59, #71, #70 ) ;
#175 = CC_DESIGN_PERSON_AND_ORGANIZATION_ASSIGNMENT ( #154, #24, ( #1 ) ) ;
ENDSEC;
END-ISO-10303-21;
