  0
SECTION
  2
HEADER
  9
$ACADVER
  1
AC1015
  9
$ACADMAINTVER
 70
     6
  9
$DWGCODEPAGE
  3
ANSI_1252
  9
$INSBASE
 10
0.0
 20
0.0
 30
0.0
  9
$EXTMIN
 10
0.0
 20
0.0
 30
0.0
  9
$EXTMAX
 10
17.0
 20
11.0
 30
0.0
  9
$LIMMIN
 10
0.0
 20
0.0
  9
$LIMMAX
 10
17.0
 20
11.0
  9
$ORTHOMODE
 70
     0
  9
$REGENMODE
 70
     1
  9
$FILLMODE
 70
     1
  9
$QTEXTMODE
 70
     0
  9
$MIRRTEXT
 70
     1
  9
$LTSCALE
 40
1.0
  9
$ATTMODE
 70
     1
  9
$TEXTSIZE
 40
0.1377952756
  9
$TRACEWID
 40
0.05
  9
$TEXTSTYLE
  7
Standard
  9
$CLAYER
  8
0
  9
$CELTYPE
  6
ByLayer
  9
$CECOLOR
 62
   256
  9
$CELTSCALE
 40
1.0
  9
$DISPSILH
 70
     0
  9
$DIMSCALE
 40
1.0
  9
$DIMASZ
 40
0.13
  9
$DIMEXO
 40
0.0393700787
  9
$DIMDLI
 40
0.38
  9
$DIMRND
 40
0.0
  9
$DIMDLE
 40
0.0
  9
$DIMEXE
 40
0.0393700787
  9
$DIMTP
 40
0.0
  9
$DIMTM
 40
0.0
  9
$DIMTXT
 40
0.1377952756
  9
$DIMCEN
 40
0.09
  9
$DIMTSZ
 40
0.0
  9
$DIMTOL
 70
     0
  9
$DIMLIM
 70
     0
  9
$DIMTIH
 70
     1
  9
$DIMTOH
 70
     1
  9
$DIMSE1
 70
     0
  9
$DIMSE2
 70
     0
  9
$DIMTAD
 70
     1
  9
$DIMZIN
 70
     1
  9
$DIMBLK
  1

  9
$DIMASO
 70
     1
  9
$DIMSHO
 70
     1
  9
$DIMPOST
  1

  9
$DIMAPOST
  1

  9
$DIMALT
 70
     0
  9
$DIMALTD
 70
     2
  9
$DIMALTF
 40
25.4
  9
$DIMLFAC
 40
1.0
  9
$DIMTOFL
 70
     0
  9
$DIMTVP
 40
0.0
  9
$DIMTIX
 70
     0
  9
$DIMSOXD
 70
     0
  9
$DIMSAH
 70
     0
  9
$DIMBLK1
  1

  9
$DIMBLK2
  1

  9
$DIMSTYLE
  2
Standard
  9
$DIMCLRD
 70
     0
  9
$DIMCLRE
 70
     0
  9
$DIMCLRT
 70
     0
  9
$DIMTFAC
 40
1.0
  9
$DIMGAP
 40
0.06
  9
$DIMJUST
 70
     0
  9
$DIMSD1
 70
     0
  9
$DIMSD2
 70
     0
  9
$DIMTOLJ
 70
     1
  9
$DIMTZIN
 70
     1
  9
$DIMALTZ
 70
     0
  9
$DIMALTTZ
 70
     0
  9
$DIMUPT
 70
     0
  9
$DIMDEC
 70
     4
  9
$DIMTDEC
 70
     4
  9
$DIMALTU
 70
     2
  9
$DIMALTTD
 70
     2
  9
$DIMTXSTY
  7
Standard
  9
$DIMAUNIT
 70
     0
  9
$DIMADEC
 70
     0
  9
$DIMALTRND
 40
0.0
  9
$DIMAZIN
 70
     0
  9
$DIMDSEP
 70
    46
  9
$DIMATFIT
 70
     3
  9
$DIMFRAC
 70
     0
  9
$DIMLDRBLK
  1

  9
$DIMLUNIT
 70
     2
  9
$DIMLWD
 70
    -2
  9
$DIMLWE
 70
    -2
  9
$DIMTMOVE
 70
     0
  9
$LUNITS
 70
     2
  9
$LUPREC
 70
     4
  9
$SKETCHINC
 40
0.1
  9
$FILLETRAD
 40
0.5
  9
$AUNITS
 70
     0
  9
$AUPREC
 70
     0
  9
$MENU
  1
.
  9
$ELEVATION
 40
0.0
  9
$PELEVATION
 40
0.0
  9
$THICKNESS
 40
0.0
  9
$LIMCHECK
 70
     0
  9
$CHAMFERA
 40
0.5
  9
$CHAMFERB
 40
0.5
  9
$CHAMFERC
 40
1.0
  9
$CHAMFERD
 40
0.0
  9
$SKPOLY
 70
     0
  9
$TDCREATE
 40
2456892.659852546
  9
$TDUCREATE
 40
2456892.86818588
  9
$TDUPDATE
 40
2456892.659854167
  9
$TDUUPDATE
 40
2456892.8681875
  9
$TDINDWG
 40
0.0000000116
  9
$TDUSRTIMER
 40
0.0000000116
  9
$USRTIMER
 70
     1
  9
$ANGBASE
 50
0.0
  9
$ANGDIR
 70
     0
  9
$PDMODE
 70
     0
  9
$PDSIZE
 40
-1.0
  9
$PLINEWID
 40
0.0
  9
$SPLFRAME
 70
     0
  9
$SPLINETYPE
 70
     6
  9
$SPLINESEGS
 70
     8
  9
$HANDSEED
  5
6A9
  9
$SURFTAB1
 70
     6
  9
$SURFTAB2
 70
     6
  9
$SURFTYPE
 70
     6
  9
$SURFU
 70
     6
  9
$SURFV
 70
     6
  9
$UCSBASE
  2

  9
$UCSNAME
  2

  9
$UCSORG
 10
0.0
 20
0.0
 30
0.0
  9
$UCSXDIR
 10
1.0
 20
0.0
 30
0.0
  9
$UCSYDIR
 10
0.0
 20
1.0
 30
0.0
  9
$UCSORTHOREF
  2

  9
$UCSORTHOVIEW
 70
     0
  9
$UCSORGTOP
 10
0.0
 20
0.0
 30
0.0
  9
$UCSORGBOTTOM
 10
0.0
 20
0.0
 30
0.0
  9
$UCSORGLEFT
 10
0.0
 20
0.0
 30
0.0
  9
$UCSORGRIGHT
 10
0.0
 20
0.0
 30
0.0
  9
$UCSORGFRONT
 10
0.0
 20
0.0
 30
0.0
  9
$UCSORGBACK
 10
0.0
 20
0.0
 30
0.0
  9
$PUCSBASE
  2

  9
$PUCSNAME
  2

  9
$PUCSORG
 10
0.0
 20
0.0
 30
0.0
  9
$PUCSXDIR
 10
1.0
 20
0.0
 30
0.0
  9
$PUCSYDIR
 10
0.0
 20
1.0
 30
0.0
  9
$PUCSORTHOREF
  2

  9
$PUCSORTHOVIEW
 70
     0
  9
$PUCSORGTOP
 10
0.0
 20
0.0
 30
0.0
  9
$PUCSORGBOTTOM
 10
0.0
 20
0.0
 30
0.0
  9
$PUCSORGLEFT
 10
0.0
 20
0.0
 30
0.0
  9
$PUCSORGRIGHT
 10
0.0
 20
0.0
 30
0.0
  9
$PUCSORGFRONT
 10
0.0
 20
0.0
 30
0.0
  9
$PUCSORGBACK
 10
0.0
 20
0.0
 30
0.0
  9
$USERI1
 70
     0
  9
$USERI2
 70
     0
  9
$USERI3
 70
     0
  9
$USERI4
 70
     0
  9
$USERI5
 70
     0
  9
$USERR1
 40
0.0
  9
$USERR2
 40
0.0
  9
$USERR3
 40
0.0
  9
$USERR4
 40
0.0
  9
$USERR5
 40
0.0
  9
$WORLDVIEW
 70
     1
  9
$SHADEDGE
 70
     3
  9
$SHADEDIF
 70
    70
  9
$TILEMODE
 70
     1
  9
$MAXACTVP
 70
    64
  9
$PINSBASE
 10
0.0
 20
0.0
 30
0.0
  9
$PLIMCHECK
 70
     0
  9
$PEXTMIN
 10
1.0000000000E+20
 20
1.0000000000E+20
 30
1.0000000000E+20
  9
$PEXTMAX
 10
-1.0000000000E+20
 20
-1.0000000000E+20
 30
-1.0000000000E+20
  9
$PLIMMIN
 10
0.0
 20
0.0
  9
$PLIMMAX
 10
12.0
 20
9.0
  9
$UNITMODE
 70
     0
  9
$VISRETAIN
 70
     1
  9
$PLINEGEN
 70
     0
  9
$PSLTSCALE
 70
     1
  9
$TREEDEPTH
 70
  3020
  9
$CMLSTYLE
  2
Standard
  9
$CMLJUST
 70
     0
  9
$CMLSCALE
 40
1.0
  9
$PROXYGRAPHICS
 70
     1
  9
$MEASUREMENT
 70
     0
  9
$CELWEIGHT
370
    -1
  9
$ENDCAPS
280
     0
  9
$JOINSTYLE
280
     0
  9
$LWDISPLAY
290
     1
  9
$INSUNITS
 70
     1
  9
$HYPERLINKBASE
  1

  9
$STYLESHEET
  1

  9
$XEDIT
290
     1
  9
$CEPSNTYPE
380
     0
  9
$PSTYLEMODE
290
     1
  9
$FINGERPRINTGUID
  2
{14D55393-B3A3-4AF9-B1C4-35E3541EFD5D}
  9
$VERSIONGUID
  2
{FAEB1C32-E019-11D5-929B-00C0DF256EC4}
  9
$EXTNAMES
290
     1
  9
$PSVPSCALE
 40
0.0
  9
$OLESTARTUP
290
     0
  0
ENDSEC
  0
SECTION
  2
CLASSES
  0
CLASS
  1
ACDBDICTIONARYWDFLT
  2
AcDbDictionaryWithDefault
  3
ObjectDBX Classes
 90
        0
280
     0
281
     0
  0
CLASS
  1
VISUALSTYLE
  2
AcDbVisualStyle
  3
ObjectDBX Classes
 90
     4095
280
     0
281
     0
  0
CLASS
  1
MATERIAL
  2
AcDbMaterial
  3
ObjectDBX Classes
 90
     1153
280
     0
281
     0
  0
CLASS
  1
ACDBPLACEHOLDER
  2
AcDbPlaceHolder
  3
ObjectDBX Classes
 90
        0
280
     0
281
     0
  0
CLASS
  1
LAYOUT
  2
AcDbLayout
  3
ObjectDBX Classes
 90
        0
280
     0
281
     0
  0
ENDSEC
  0
SECTION
  2
TABLES
  0
TABLE
  2
VPORT
  5
8
330
0
100
AcDbSymbolTable
 70
     1
  0
VPORT
  5
29
330
8
100
AcDbSymbolTableRecord
100
AcDbViewportTableRecord
  2
*Active
 70
     0
 10
0.0
 20
0.0
 11
1.0
 21
1.0
 12
8.5
 22
5.5
 13
0.0
 23
0.0
 14
0.5
 24
0.5
 15
0.5
 25
0.5
 16
0.0
 26
0.0
 36
1.0
 17
0.0
 27
0.0
 37
0.0
 40
11.0
 41
1.5454545455
 42
50.0
 43
0.0
 44
0.0
 50
0.0
 51
0.0
 71
     0
 72
  2000
 73
     1
 74
     3
 75
     0
 76
     0
 77
     0
 78
     0
281
     0
 65
     1
110
0.0
120
0.0
130
0.0
111
1.0
121
0.0
131
0.0
112
0.0
122
1.0
132
0.0
 79
     0
146
0.0
  0
ENDTAB
  0
TABLE
  2
LTYPE
  5
5
330
0
100
AcDbSymbolTable
 70
     6
  0
LTYPE
  5
14
330
5
100
AcDbSymbolTableRecord
100
AcDbLinetypeTableRecord
  2
ByBlock
 70
     0
  3

 72
    65
 73
     0
 40
0.0
  0
LTYPE
  5
15
330
5
100
AcDbSymbolTableRecord
100
AcDbLinetypeTableRecord
  2
ByLayer
 70
     0
  3

 72
    65
 73
     0
 40
0.0
  0
LTYPE
  5
16
330
5
100
AcDbSymbolTableRecord
100
AcDbLinetypeTableRecord
  2
Continuous
 70
     0
  3
Solid line
 72
    65
 73
     0
 40
0.0
  0
LTYPE
  5
3F
330
5
100
AcDbSymbolTableRecord
100
AcDbLinetypeTableRecord
  2
HIDDEN
 70
     0
  3
Hidden __ __ __ __ __ __ __ __ __ __ __ __ __ __
 72
    65
 73
     2
 40
0.075
 49
0.05
 74
     0
 49
-0.025
 74
     0
  0
LTYPE
  5
40
330
5
100
AcDbSymbolTableRecord
100
AcDbLinetypeTableRecord
  2
PHANTOM
 70
     0
  3
Phantom ______  __  __  ______  __  __  ______
 72
    65
 73
     6
 40
0.5
 49
0.25
 74
     0
 49
-0.05
 74
     0
 49
0.05
 74
     0
 49
-0.05
 74
     0
 49
0.05
 74
     0
 49
-0.05
 74
     0
  0
LTYPE
  5
41
330
5
100
AcDbSymbolTableRecord
100
AcDbLinetypeTableRecord
  2
CENTER
 70
     0
  3
Center ____ _ ____ _ ____ _ ____ _ ____ _ ____
 72
    65
 73
     4
 40
0.4
 49
0.25
 74
     0
 49
-0.05
 74
     0
 49
0.05
 74
     0
 49
-0.05
 74
     0
  0
LTYPE
  5
42
330
5
100
AcDbSymbolTableRecord
100
AcDbLinetypeTableRecord
  2
CENTERX2
 70
     0
  3
Center (2x) ________  __  ________  __  _____
 72
    65
 73
     4
 40
0.8
 49
0.5
 74
     0
 49
-0.1
 74
     0
 49
0.1
 74
     0
 49
-0.1
 74
     0
  0
LTYPE
  5
43
330
5
100
AcDbSymbolTableRecord
100
AcDbLinetypeTableRecord
  2
DOT2
 70
     0
  3
Dot (.5x) ........................................
 72
    65
 73
     2
 40
0.025
 49
0.0
 74
     0
 49
-0.025
 74
     0
  0
ENDTAB
  0
TABLE
  2
LAYER
  5
2
330
0
100
AcDbSymbolTable
 70
     2
  0
LAYER
  5
10
330
2
100
AcDbSymbolTableRecord
100
AcDbLayerTableRecord
  2
0
 70
     0
 62
     7
  6
Continuous
370
    -3
390
F
  0
LAYER
  5
44
330
2
100
AcDbSymbolTableRecord
100
AcDbLayerTableRecord
  2
SLD-0
 70
     0
 62
    13
  6
Continuous
370
    -3
390
F
  0
ENDTAB
  0
TABLE
  2
STYLE
  5
3
330
0
100
AcDbSymbolTable
 70
     1
  0
STYLE
  5
11
330
3
100
AcDbSymbolTableRecord
100
AcDbTextStyleTableRecord
  2
Standard
 70
     0
 40
0.0
 41
1.0
 50
0.0
 71
     0
 42
0.1377952756
  3
txt
  4

  0
ENDTAB
  0
TABLE
  2
VIEW
  5
6
330
0
100
AcDbSymbolTable
 70
     0
  0
ENDTAB
  0
TABLE
  2
UCS
  5
7
330
0
100
AcDbSymbolTable
 70
     0
  0
ENDTAB
  0
TABLE
  2
APPID
  5
9
330
0
100
AcDbSymbolTable
 70
     1
  0
APPID
  5
12
330
9
100
AcDbSymbolTableRecord
100
AcDbRegAppTableRecord
  2
ACAD
 70
     0
  0
ENDTAB
  0
TABLE
  2
DIMSTYLE
  5
A
330
0
100
AcDbSymbolTable
 70
     1
100
AcDbDimStyleTable
  0
DIMSTYLE
105
27
330
A
100
AcDbSymbolTableRecord
100
AcDbDimStyleTableRecord
  2
Standard
 70
     0
178
     0
340
11
  0
ENDTAB
  0
TABLE
  2
BLOCK_RECORD
  5
1
330
0
100
AcDbSymbolTable
 70
    10
  0
BLOCK_RECORD
  5
1F
330
1
100
AcDbSymbolTableRecord
100
AcDbBlockTableRecord
  2
*Model_Space
340
22
  0
BLOCK_RECORD
  5
1B
330
1
100
AcDbSymbolTableRecord
100
AcDbBlockTableRecord
  2
*Paper_Space
340
1E
  0
BLOCK_RECORD
  5
23
330
1
100
AcDbSymbolTableRecord
100
AcDbBlockTableRecord
  2
*Paper_Space0
340
26
  0
BLOCK_RECORD
  5
45
330
1
100
AcDbSymbolTableRecord
100
AcDbBlockTableRecord
  2
COMPONENT_3_1
340
0
102
{BLKREFS
331
6A0
102
}
  0
BLOCK_RECORD
  5
60
330
1
100
AcDbSymbolTableRecord
100
AcDbBlockTableRecord
  2
COMPONENT_2_2
340
0
102
{BLKREFS
331
6A1
102
}
  0
BLOCK_RECORD
  5
7B
330
1
100
AcDbSymbolTableRecord
100
AcDbBlockTableRecord
  2
COMPONENT_1_3
340
0
102
{BLKREFS
331
6A2
102
}
  0
BLOCK_RECORD
  5
96
330
1
100
AcDbSymbolTableRecord
100
AcDbBlockTableRecord
  2
COMPONENT_4_4
340
0
102
{BLKREFS
331
6A3
102
}
  0
BLOCK_RECORD
  5
B1
330
1
100
AcDbSymbolTableRecord
100
AcDbBlockTableRecord
  2
COMPONENT_5_5
340
0
102
{BLKREFS
331
6A4
102
}
  0
BLOCK_RECORD
  5
CC
330
1
100
AcDbSymbolTableRecord
100
AcDbBlockTableRecord
  2
COMPONENT_6_6
340
0
102
{BLKREFS
331
6A5
102
}
  0
BLOCK_RECORD
  5
E7
330
1
100
AcDbSymbolTableRecord
100
AcDbBlockTableRecord
  2
COMPONENT_7_7
340
0
102
{BLKREFS
331
6A6
102
}
  0
BLOCK_RECORD
  5
102
330
1
100
AcDbSymbolTableRecord
100
AcDbBlockTableRecord
  2
COMPONENT_8_8
340
0
102
{BLKREFS
331
6A7
102
}
  0
BLOCK_RECORD
  5
11D
330
1
100
AcDbSymbolTableRecord
100
AcDbBlockTableRecord
  2
FLANGE_0
340
0
102
{BLKREFS
331
6A8
102
}
  0
ENDTAB
  0
ENDSEC
  0
SECTION
  2
BLOCKS
  0
BLOCK
  5
20
330
1F
100
AcDbEntity
  8
0
100
AcDbBlockBegin
  2
*Model_Space
 70
     0
 10
0.0
 20
0.0
 30
0.0
  3
*Model_Space
  1

  0
ENDBLK
  5
21
330
1F
100
AcDbEntity
  8
0
100
AcDbBlockEnd
  0
BLOCK
  5
1C
330
1B
100
AcDbEntity
 67
     1
  8
0
100
AcDbBlockBegin
  2
*Paper_Space
 70
     0
 10
0.0
 20
0.0
 30
0.0
  3
*Paper_Space
  1

  0
ENDBLK
  5
1D
330
1B
100
AcDbEntity
 67
     1
  8
0
100
AcDbBlockEnd
  0
BLOCK
  5
24
330
23
100
AcDbEntity
  8
0
100
AcDbBlockBegin
  2
*Paper_Space0
 70
     0
 10
0.0
 20
0.0
 30
0.0
  3
*Paper_Space0
  1

  0
ENDBLK
  5
25
330
23
100
AcDbEntity
  8
0
100
AcDbBlockEnd
  0
BLOCK
  5
46
330
45
100
AcDbEntity
  8
0
100
AcDbBlockBegin
  2
COMPONENT_3_1
 70
     0
 10
0.0
 20
0.0
 30
0.0
  3
COMPONENT_3_1
  1

  0
LINE
  5
48
330
45
100
AcDbEntity
  8
SLD-0
100
AcDbLine
 10
11.7857543353
 20
4.0290686087
 30
0.0
 11
11.7261836896
 21
3.9514346318
 31
0.0
  0
LINE
  5
49
330
45
100
AcDbEntity
  8
SLD-0
100
AcDbLine
 10
11.7261836896
 20
3.9514346318
 30
0.0
 11
11.6485497127
 21
3.8918639861
 31
0.0
  0
LINE
  5
4A
330
45
100
AcDbEntity
  8
SLD-0
100
AcDbLine
 10
11.6485497127
 20
3.8918639861
 30
0.0
 11
11.5581430318
 21
3.8544163127
 31
0.0
  0
LINE
  5
4B
330
45
100
AcDbEntity
  8
SLD-0
100
AcDbLine
 10
11.5581430318
 20
3.8544163127
 30
0.0
 11
11.4611247127
 21
3.8416436087
 31
0.0
  0
LINE
  5
4C
330
45
100
AcDbEntity
  8
SLD-0
100
AcDbLine
 10
11.4611247127
 20
3.8416436087
 30
0.0
 11
11.3641063936
 21
3.8544163127
 31
0.0
  0
LINE
  5
4D
330
45
100
AcDbEntity
  8
SLD-0
100
AcDbLine
 10
11.3641063936
 20
3.8544163127
 30
0.0
 11
11.2736997127
 21
3.8918639861
 31
0.0
  0
LINE
  5
4E
330
45
100
AcDbEntity
  8
SLD-0
100
AcDbLine
 10
11.2736997127
 20
3.8918639861
 30
0.0
 11
11.1960657358
 21
3.9514346318
 31
0.0
  0
LINE
  5
4F
330
45
100
AcDbEntity
  8
SLD-0
100
AcDbLine
 10
11.1960657358
 20
3.9514346318
 30
0.0
 11
11.1364950901
 21
4.0290686087
 31
0.0
  0
LINE
  5
50
330
45
100
AcDbEntity
  8
SLD-0
100
AcDbLine
 10
11.1364950901
 20
4.0290686087
 30
0.0
 11
11.0990474167
 21
4.1194752897
 31
0.0
  0
LINE
  5
51
330
45
100
AcDbEntity
  8
SLD-0
100
AcDbLine
 10
11.0990474167
 20
4.1194752897
 30
0.0
 11
11.0862747127
 21
4.2164936087
 31
0.0
  0
LINE
  5
52
330
45
100
AcDbEntity
  8
SLD-0
100
AcDbLine
 10
11.0862747127
 20
4.2164936087
 30
0.0
 11
11.0990474167
 21
4.3135119278
 31
0.0
  0
LINE
  5
53
330
45
100
AcDbEntity
  8
SLD-0
100
AcDbLine
 10
11.0990474167
 20
4.3135119278
 30
0.0
 11
11.1364950901
 21
4.4039186087
 31
0.0
  0
LINE
  5
54
330
45
100
AcDbEntity
  8
SLD-0
100
AcDbLine
 10
11.1364950901
 20
4.4039186087
 30
0.0
 11
11.1960657358
 21
4.4815525856
 31
0.0
  0
LINE
  5
55
330
45
100
AcDbEntity
  8
SLD-0
100
AcDbLine
 10
11.1960657358
 20
4.4815525856
 30
0.0
 11
11.2736997127
 21
4.5411232313
 31
0.0
  0
LINE
  5
56
330
45
100
AcDbEntity
  8
SLD-0
100
AcDbLine
 10
11.2736997127
 20
4.5411232313
 30
0.0
 11
11.3641063936
 21
4.5785709047
 31
0.0
  0
LINE
  5
57
330
45
100
AcDbEntity
  8
SLD-0
100
AcDbLine
 10
11.3641063936
 20
4.5785709047
 30
0.0
 11
11.4611247127
 21
4.5913436087
 31
0.0
  0
LINE
  5
58
330
45
100
AcDbEntity
  8
SLD-0
100
AcDbLine
 10
11.4611247127
 20
4.5913436087
 30
0.0
 11
11.5581430318
 21
4.5785709047
 31
0.0
  0
LINE
  5
59
330
45
100
AcDbEntity
  8
SLD-0
100
AcDbLine
 10
11.5581430318
 20
4.5785709047
 30
0.0
 11
11.6485497127
 21
4.5411232313
 31
0.0
  0
LINE
  5
5A
330
45
100
AcDbEntity
  8
SLD-0
100
AcDbLine
 10
11.6485497127
 20
4.5411232313
 30
0.0
 11
11.7261836896
 21
4.4815525856
 31
0.0
  0
LINE
  5
5B
330
45
100
AcDbEntity
  8
SLD-0
100
AcDbLine
 10
11.7261836896
 20
4.4815525856
 30
0.0
 11
11.7857543353
 21
4.4039186087
 31
0.0
  0
LINE
  5
5C
330
45
100
AcDbEntity
  8
SLD-0
100
AcDbLine
 10
11.7857543353
 20
4.4039186087
 30
0.0
 11
11.8232020087
 21
4.3135119278
 31
0.0
  0
LINE
  5
5D
330
45
100
AcDbEntity
  8
SLD-0
100
AcDbLine
 10
11.8232020087
 20
4.3135119278
 30
0.0
 11
11.8359747127
 21
4.2164936087
 31
0.0
  0
LINE
  5
5E
330
45
100
AcDbEntity
  8
SLD-0
100
AcDbLine
 10
11.8359747127
 20
4.2164936087
 30
0.0
 11
11.8232020087
 21
4.1194752897
 31
0.0
  0
LINE
  5
5F
330
45
100
AcDbEntity
  8
SLD-0
100
AcDbLine
 10
11.8232020087
 20
4.1194752897
 30
0.0
 11
11.7857543353
 21
4.0290686087
 31
0.0
  0
ENDBLK
  5
47
330
45
100
AcDbEntity
  8
0
100
AcDbBlockEnd
  0
BLOCK
  5
61
330
60
100
AcDbEntity
  8
0
100
AcDbBlockBegin
  2
COMPONENT_2_2
 70
     0
 10
0.0
 20
0.0
 30
0.0
  3
COMPONENT_2_2
  1

  0
LINE
  5
63
330
60
100
AcDbEntity
  8
SLD-0
100
AcDbLine
 10
11.6485497127
 20
6.3783113195
 30
0.0
 11
11.5581430318
 21
6.3408636462
 31
0.0
  0
LINE
  5
64
330
60
100
AcDbEntity
  8
SLD-0
100
AcDbLine
 10
11.7261836896
 20
6.4378819652
 30
0.0
 11
11.6485497127
 21
6.3783113195
 31
0.0
  0
LINE
  5
65
330
60
100
AcDbEntity
  8
SLD-0
100
AcDbLine
 10
11.7857543353
 20
6.5155159422
 30
0.0
 11
11.7261836896
 21
6.4378819652
 31
0.0
  0
LINE
  5
66
330
60
100
AcDbEntity
  8
SLD-0
100
AcDbLine
 10
11.8232020087
 20
6.6059226231
 30
0.0
 11
11.7857543353
 21
6.5155159422
 31
0.0
  0
LINE
  5
67
330
60
100
AcDbEntity
  8
SLD-0
100
AcDbLine
 10
11.8359747127
 20
6.7029409422
 30
0.0
 11
11.8232020087
 21
6.6059226231
 31
0.0
  0
LINE
  5
68
330
60
100
AcDbEntity
  8
SLD-0
100
AcDbLine
 10
11.8232020087
 20
6.7999592612
 30
0.0
 11
11.8359747127
 21
6.7029409422
 31
0.0
  0
LINE
  5
69
330
60
100
AcDbEntity
  8
SLD-0
100
AcDbLine
 10
11.7857543353
 20
6.8903659422
 30
0.0
 11
11.8232020087
 21
6.7999592612
 31
0.0
  0
LINE
  5
6A
330
60
100
AcDbEntity
  8
SLD-0
100
AcDbLine
 10
11.7261836896
 20
6.9679999191
 30
0.0
 11
11.7857543353
 21
6.8903659422
 31
0.0
  0
LINE
  5
6B
330
60
100
AcDbEntity
  8
SLD-0
100
AcDbLine
 10
11.6485497127
 20
7.0275705648
 30
0.0
 11
11.7261836896
 21
6.9679999191
 31
0.0
  0
LINE
  5
6C
330
60
100
AcDbEntity
  8
SLD-0
100
AcDbLine
 10
11.5581430318
 20
7.0650182381
 30
0.0
 11
11.6485497127
 21
7.0275705648
 31
0.0
  0
LINE
  5
6D
330
60
100
AcDbEntity
  8
SLD-0
100
AcDbLine
 10
11.4611247127
 20
7.0777909422
 30
0.0
 11
11.5581430318
 21
7.0650182381
 31
0.0
  0
LINE
  5
6E
330
60
100
AcDbEntity
  8
SLD-0
100
AcDbLine
 10
11.3641063936
 20
7.0650182381
 30
0.0
 11
11.4611247127
 21
7.0777909422
 31
0.0
  0
LINE
  5
6F
330
60
100
AcDbEntity
  8
SLD-0
100
AcDbLine
 10
11.2736997127
 20
7.0275705648
 30
0.0
 11
11.3641063936
 21
7.0650182381
 31
0.0
  0
LINE
  5
70
330
60
100
AcDbEntity
  8
SLD-0
100
AcDbLine
 10
11.1960657358
 20
6.9679999191
 30
0.0
 11
11.2736997127
 21
7.0275705648
 31
0.0
  0
LINE
  5
71
330
60
100
AcDbEntity
  8
SLD-0
100
AcDbLine
 10
11.1364950901
 20
6.8903659422
 30
0.0
 11
11.1960657358
 21
6.9679999191
 31
0.0
  0
LINE
  5
72
330
60
100
AcDbEntity
  8
SLD-0
100
AcDbLine
 10
11.0990474167
 20
6.7999592612
 30
0.0
 11
11.1364950901
 21
6.8903659422
 31
0.0
  0
LINE
  5
73
330
60
100
AcDbEntity
  8
SLD-0
100
AcDbLine
 10
11.0862747127
 20
6.7029409422
 30
0.0
 11
11.0990474167
 21
6.7999592612
 31
0.0
  0
LINE
  5
74
330
60
100
AcDbEntity
  8
SLD-0
100
AcDbLine
 10
11.0990474167
 20
6.6059226231
 30
0.0
 11
11.0862747127
 21
6.7029409422
 31
0.0
  0
LINE
  5
75
330
60
100
AcDbEntity
  8
SLD-0
100
AcDbLine
 10
11.1364950901
 20
6.5155159422
 30
0.0
 11
11.0990474167
 21
6.6059226231
 31
0.0
  0
LINE
  5
76
330
60
100
AcDbEntity
  8
SLD-0
100
AcDbLine
 10
11.1960657358
 20
6.4378819652
 30
0.0
 11
11.1364950901
 21
6.5155159422
 31
0.0
  0
LINE
  5
77
330
60
100
AcDbEntity
  8
SLD-0
100
AcDbLine
 10
11.2736997127
 20
6.3783113195
 30
0.0
 11
11.1960657358
 21
6.4378819652
 31
0.0
  0
LINE
  5
78
330
60
100
AcDbEntity
  8
SLD-0
100
AcDbLine
 10
11.3641063936
 20
6.3408636462
 30
0.0
 11
11.2736997127
 21
6.3783113195
 31
0.0
  0
LINE
  5
79
330
60
100
AcDbEntity
  8
SLD-0
100
AcDbLine
 10
11.4611247127
 20
6.3280909422
 30
0.0
 11
11.3641063936
 21
6.3408636462
 31
0.0
  0
LINE
  5
7A
330
60
100
AcDbEntity
  8
SLD-0
100
AcDbLine
 10
11.5581430318
 20
6.3408636462
 30
0.0
 11
11.4611247127
 21
6.3280909422
 31
0.0
  0
ENDBLK
  5
62
330
60
100
AcDbEntity
  8
0
100
AcDbBlockEnd
  0
BLOCK
  5
7C
330
7B
100
AcDbEntity
  8
0
100
AcDbBlockBegin
  2
COMPONENT_1_3
 70
     0
 10
0.0
 20
0.0
 30
0.0
  3
COMPONENT_1_3
  1

  0
LINE
  5
7E
330
7B
100
AcDbEntity
  8
SLD-0
100
AcDbLine
 10
9.7999592612
 20
8.0990474167
 30
0.0
 11
9.7029409422
 21
8.0862747127
 31
0.0
  0
LINE
  5
7F
330
7B
100
AcDbEntity
  8
SLD-0
100
AcDbLine
 10
9.8903659422
 20
8.1364950901
 30
0.0
 11
9.7999592612
 21
8.0990474167
 31
0.0
  0
LINE
  5
80
330
7B
100
AcDbEntity
  8
SLD-0
100
AcDbLine
 10
9.9679999191
 20
8.1960657358
 30
0.0
 11
9.8903659422
 21
8.1364950901
 31
0.0
  0
LINE
  5
81
330
7B
100
AcDbEntity
  8
SLD-0
100
AcDbLine
 10
10.0275705648
 20
8.2736997127
 30
0.0
 11
9.9679999191
 21
8.1960657358
 31
0.0
  0
LINE
  5
82
330
7B
100
AcDbEntity
  8
SLD-0
100
AcDbLine
 10
10.0650182381
 20
8.3641063936
 30
0.0
 11
10.0275705648
 21
8.2736997127
 31
0.0
  0
LINE
  5
83
330
7B
100
AcDbEntity
  8
SLD-0
100
AcDbLine
 10
10.0777909422
 20
8.4611247127
 30
0.0
 11
10.0650182381
 21
8.3641063936
 31
0.0
  0
LINE
  5
84
330
7B
100
AcDbEntity
  8
SLD-0
100
AcDbLine
 10
10.0650182381
 20
8.5581430318
 30
0.0
 11
10.0777909422
 21
8.4611247127
 31
0.0
  0
LINE
  5
85
330
7B
100
AcDbEntity
  8
SLD-0
100
AcDbLine
 10
10.0275705648
 20
8.6485497127
 30
0.0
 11
10.0650182381
 21
8.5581430318
 31
0.0
  0
LINE
  5
86
330
7B
100
AcDbEntity
  8
SLD-0
100
AcDbLine
 10
9.9679999191
 20
8.7261836896
 30
0.0
 11
10.0275705648
 21
8.6485497127
 31
0.0
  0
LINE
  5
87
330
7B
100
AcDbEntity
  8
SLD-0
100
AcDbLine
 10
9.8903659422
 20
8.7857543353
 30
0.0
 11
9.9679999191
 21
8.7261836896
 31
0.0
  0
LINE
  5
88
330
7B
100
AcDbEntity
  8
SLD-0
100
AcDbLine
 10
9.7999592612
 20
8.8232020087
 30
0.0
 11
9.8903659422
 21
8.7857543353
 31
0.0
  0
LINE
  5
89
330
7B
100
AcDbEntity
  8
SLD-0
100
AcDbLine
 10
9.7029409422
 20
8.8359747127
 30
0.0
 11
9.7999592612
 21
8.8232020087
 31
0.0
  0
LINE
  5
8A
330
7B
100
AcDbEntity
  8
SLD-0
100
AcDbLine
 10
9.6059226231
 20
8.8232020087
 30
0.0
 11
9.7029409422
 21
8.8359747127
 31
0.0
  0
LINE
  5
8B
330
7B
100
AcDbEntity
  8
SLD-0
100
AcDbLine
 10
9.5155159422
 20
8.7857543353
 30
0.0
 11
9.6059226231
 21
8.8232020087
 31
0.0
  0
LINE
  5
8C
330
7B
100
AcDbEntity
  8
SLD-0
100
AcDbLine
 10
9.4378819652
 20
8.7261836896
 30
0.0
 11
9.5155159422
 21
8.7857543353
 31
0.0
  0
LINE
  5
8D
330
7B
100
AcDbEntity
  8
SLD-0
100
AcDbLine
 10
9.3783113195
 20
8.6485497127
 30
0.0
 11
9.4378819652
 21
8.7261836896
 31
0.0
  0
LINE
  5
8E
330
7B
100
AcDbEntity
  8
SLD-0
100
AcDbLine
 10
9.3408636462
 20
8.5581430318
 30
0.0
 11
9.3783113195
 21
8.6485497127
 31
0.0
  0
LINE
  5
8F
330
7B
100
AcDbEntity
  8
SLD-0
100
AcDbLine
 10
9.3280909422
 20
8.4611247127
 30
0.0
 11
9.3408636462
 21
8.5581430318
 31
0.0
  0
LINE
  5
90
330
7B
100
AcDbEntity
  8
SLD-0
100
AcDbLine
 10
9.3408636462
 20
8.3641063936
 30
0.0
 11
9.3280909422
 21
8.4611247127
 31
0.0
  0
LINE
  5
91
330
7B
100
AcDbEntity
  8
SLD-0
100
AcDbLine
 10
9.3783113195
 20
8.2736997127
 30
0.0
 11
9.3408636462
 21
8.3641063936
 31
0.0
  0
LINE
  5
92
330
7B
100
AcDbEntity
  8
SLD-0
100
AcDbLine
 10
9.4378819652
 20
8.1960657358
 30
0.0
 11
9.3783113195
 21
8.2736997127
 31
0.0
  0
LINE
  5
93
330
7B
100
AcDbEntity
  8
SLD-0
100
AcDbLine
 10
9.5155159422
 20
8.1364950901
 30
0.0
 11
9.4378819652
 21
8.1960657358
 31
0.0
  0
LINE
  5
94
330
7B
100
AcDbEntity
  8
SLD-0
100
AcDbLine
 10
9.6059226231
 20
8.0990474167
 30
0.0
 11
9.5155159422
 21
8.1364950901
 31
0.0
  0
LINE
  5
95
330
7B
100
AcDbEntity
  8
SLD-0
100
AcDbLine
 10
9.7029409422
 20
8.0862747127
 30
0.0
 11
9.6059226231
 21
8.0990474167
 31
0.0
  0
ENDBLK
  5
7D
330
7B
100
AcDbEntity
  8
0
100
AcDbBlockEnd
  0
BLOCK
  5
97
330
96
100
AcDbEntity
  8
0
100
AcDbBlockBegin
  2
COMPONENT_4_4
 70
     0
 10
0.0
 20
0.0
 30
0.0
  3
COMPONENT_4_4
  1

  0
LINE
  5
99
330
96
100
AcDbEntity
  8
SLD-0
100
AcDbLine
 10
9.3783113195
 20
2.2708848382
 30
0.0
 11
9.3408636462
 21
2.3612915191
 31
0.0
  0
LINE
  5
9A
330
96
100
AcDbEntity
  8
SLD-0
100
AcDbLine
 10
9.3408636462
 20
2.3612915191
 30
0.0
 11
9.3280909422
 21
2.4583098382
 31
0.0
  0
LINE
  5
9B
330
96
100
AcDbEntity
  8
SLD-0
100
AcDbLine
 10
9.3280909422
 20
2.4583098382
 30
0.0
 11
9.3408636462
 21
2.5553281572
 31
0.0
  0
LINE
  5
9C
330
96
100
AcDbEntity
  8
SLD-0
100
AcDbLine
 10
9.3408636462
 20
2.5553281572
 30
0.0
 11
9.3783113195
 21
2.6457348382
 31
0.0
  0
LINE
  5
9D
330
96
100
AcDbEntity
  8
SLD-0
100
AcDbLine
 10
9.3783113195
 20
2.6457348382
 30
0.0
 11
9.4378819652
 21
2.7233688151
 31
0.0
  0
LINE
  5
9E
330
96
100
AcDbEntity
  8
SLD-0
100
AcDbLine
 10
9.4378819652
 20
2.7233688151
 30
0.0
 11
9.5155159422
 21
2.7829394608
 31
0.0
  0
LINE
  5
9F
330
96
100
AcDbEntity
  8
SLD-0
100
AcDbLine
 10
9.5155159422
 20
2.7829394608
 30
0.0
 11
9.6059226231
 21
2.8203871341
 31
0.0
  0
LINE
  5
A0
330
96
100
AcDbEntity
  8
SLD-0
100
AcDbLine
 10
9.6059226231
 20
2.8203871341
 30
0.0
 11
9.7029409422
 21
2.8331598382
 31
0.0
  0
LINE
  5
A1
330
96
100
AcDbEntity
  8
SLD-0
100
AcDbLine
 10
9.7029409422
 20
2.8331598382
 30
0.0
 11
9.7999592612
 21
2.8203871341
 31
0.0
  0
LINE
  5
A2
330
96
100
AcDbEntity
  8
SLD-0
100
AcDbLine
 10
9.7999592612
 20
2.8203871341
 30
0.0
 11
9.8903659422
 21
2.7829394608
 31
0.0
  0
LINE
  5
A3
330
96
100
AcDbEntity
  8
SLD-0
100
AcDbLine
 10
9.8903659422
 20
2.7829394608
 30
0.0
 11
9.9679999191
 21
2.7233688151
 31
0.0
  0
LINE
  5
A4
330
96
100
AcDbEntity
  8
SLD-0
100
AcDbLine
 10
9.9679999191
 20
2.7233688151
 30
0.0
 11
10.0275705648
 21
2.6457348382
 31
0.0
  0
LINE
  5
A5
330
96
100
AcDbEntity
  8
SLD-0
100
AcDbLine
 10
10.0275705648
 20
2.6457348382
 30
0.0
 11
10.0650182381
 21
2.5553281572
 31
0.0
  0
LINE
  5
A6
330
96
100
AcDbEntity
  8
SLD-0
100
AcDbLine
 10
10.0650182381
 20
2.5553281572
 30
0.0
 11
10.0777909422
 21
2.4583098382
 31
0.0
  0
LINE
  5
A7
330
96
100
AcDbEntity
  8
SLD-0
100
AcDbLine
 10
10.0777909422
 20
2.4583098382
 30
0.0
 11
10.0650182381
 21
2.3612915191
 31
0.0
  0
LINE
  5
A8
330
96
100
AcDbEntity
  8
SLD-0
100
AcDbLine
 10
10.0650182381
 20
2.3612915191
 30
0.0
 11
10.0275705648
 21
2.2708848382
 31
0.0
  0
LINE
  5
A9
330
96
100
AcDbEntity
  8
SLD-0
100
AcDbLine
 10
10.0275705648
 20
2.2708848382
 30
0.0
 11
9.9679999191
 21
2.1932508612
 31
0.0
  0
LINE
  5
AA
330
96
100
AcDbEntity
  8
SLD-0
100
AcDbLine
 10
9.9679999191
 20
2.1932508612
 30
0.0
 11
9.8903659422
 21
2.1336802156
 31
0.0
  0
LINE
  5
AB
330
96
100
AcDbEntity
  8
SLD-0
100
AcDbLine
 10
9.8903659422
 20
2.1336802156
 30
0.0
 11
9.7999592612
 21
2.0962325422
 31
0.0
  0
LINE
  5
AC
330
96
100
AcDbEntity
  8
SLD-0
100
AcDbLine
 10
9.7999592612
 20
2.0962325422
 30
0.0
 11
9.7029409422
 21
2.0834598382
 31
0.0
  0
LINE
  5
AD
330
96
100
AcDbEntity
  8
SLD-0
100
AcDbLine
 10
9.7029409422
 20
2.0834598382
 30
0.0
 11
9.6059226231
 21
2.0962325422
 31
0.0
  0
LINE
  5
AE
330
96
100
AcDbEntity
  8
SLD-0
100
AcDbLine
 10
9.6059226231
 20
2.0962325422
 30
0.0
 11
9.5155159422
 21
2.1336802156
 31
0.0
  0
LINE
  5
AF
330
96
100
AcDbEntity
  8
SLD-0
100
AcDbLine
 10
9.5155159422
 20
2.1336802156
 30
0.0
 11
9.4378819652
 21
2.1932508612
 31
0.0
  0
LINE
  5
B0
330
96
100
AcDbEntity
  8
SLD-0
100
AcDbLine
 10
9.4378819652
 20
2.1932508612
 30
0.0
 11
9.3783113195
 21
2.2708848382
 31
0.0
  0
ENDBLK
  5
98
330
96
100
AcDbEntity
  8
0
100
AcDbBlockEnd
  0
BLOCK
  5
B2
330
B1
100
AcDbEntity
  8
0
100
AcDbBlockBegin
  2
COMPONENT_5_5
 70
     0
 10
0.0
 20
0.0
 30
0.0
  3
COMPONENT_5_5
  1

  0
LINE
  5
B4
330
B1
100
AcDbEntity
  8
SLD-0
100
AcDbLine
 10
7.0290686087
 20
2.7829394608
 30
0.0
 11
7.1194752897
 21
2.8203871341
 31
0.0
  0
LINE
  5
B5
330
B1
100
AcDbEntity
  8
SLD-0
100
AcDbLine
 10
7.1194752897
 20
2.8203871341
 30
0.0
 11
7.2164936087
 21
2.8331598382
 31
0.0
  0
LINE
  5
B6
330
B1
100
AcDbEntity
  8
SLD-0
100
AcDbLine
 10
7.2164936087
 20
2.8331598382
 30
0.0
 11
7.3135119278
 21
2.8203871341
 31
0.0
  0
LINE
  5
B7
330
B1
100
AcDbEntity
  8
SLD-0
100
AcDbLine
 10
7.3135119278
 20
2.8203871341
 30
0.0
 11
7.4039186087
 21
2.7829394608
 31
0.0
  0
LINE
  5
B8
330
B1
100
AcDbEntity
  8
SLD-0
100
AcDbLine
 10
7.4039186087
 20
2.7829394608
 30
0.0
 11
7.4815525856
 21
2.7233688151
 31
0.0
  0
LINE
  5
B9
330
B1
100
AcDbEntity
  8
SLD-0
100
AcDbLine
 10
7.4815525856
 20
2.7233688151
 30
0.0
 11
7.5411232313
 21
2.6457348382
 31
0.0
  0
LINE
  5
BA
330
B1
100
AcDbEntity
  8
SLD-0
100
AcDbLine
 10
7.5411232313
 20
2.6457348382
 30
0.0
 11
7.5785709047
 21
2.5553281572
 31
0.0
  0
LINE
  5
BB
330
B1
100
AcDbEntity
  8
SLD-0
100
AcDbLine
 10
7.5785709047
 20
2.5553281572
 30
0.0
 11
7.5913436087
 21
2.4583098382
 31
0.0
  0
LINE
  5
BC
330
B1
100
AcDbEntity
  8
SLD-0
100
AcDbLine
 10
7.5913436087
 20
2.4583098382
 30
0.0
 11
7.5785709047
 21
2.3612915191
 31
0.0
  0
LINE
  5
BD
330
B1
100
AcDbEntity
  8
SLD-0
100
AcDbLine
 10
7.5785709047
 20
2.3612915191
 30
0.0
 11
7.5411232313
 21
2.2708848382
 31
0.0
  0
LINE
  5
BE
330
B1
100
AcDbEntity
  8
SLD-0
100
AcDbLine
 10
7.5411232313
 20
2.2708848382
 30
0.0
 11
7.4815525856
 21
2.1932508612
 31
0.0
  0
LINE
  5
BF
330
B1
100
AcDbEntity
  8
SLD-0
100
AcDbLine
 10
7.4815525856
 20
2.1932508612
 30
0.0
 11
7.4039186087
 21
2.1336802156
 31
0.0
  0
LINE
  5
C0
330
B1
100
AcDbEntity
  8
SLD-0
100
AcDbLine
 10
7.4039186087
 20
2.1336802156
 30
0.0
 11
7.3135119278
 21
2.0962325422
 31
0.0
  0
LINE
  5
C1
330
B1
100
AcDbEntity
  8
SLD-0
100
AcDbLine
 10
7.3135119278
 20
2.0962325422
 30
0.0
 11
7.2164936087
 21
2.0834598382
 31
0.0
  0
LINE
  5
C2
330
B1
100
AcDbEntity
  8
SLD-0
100
AcDbLine
 10
7.2164936087
 20
2.0834598382
 30
0.0
 11
7.1194752897
 21
2.0962325422
 31
0.0
  0
LINE
  5
C3
330
B1
100
AcDbEntity
  8
SLD-0
100
AcDbLine
 10
7.1194752897
 20
2.0962325422
 30
0.0
 11
7.0290686087
 21
2.1336802156
 31
0.0
  0
LINE
  5
C4
330
B1
100
AcDbEntity
  8
SLD-0
100
AcDbLine
 10
7.0290686087
 20
2.1336802156
 30
0.0
 11
6.9514346318
 21
2.1932508612
 31
0.0
  0
LINE
  5
C5
330
B1
100
AcDbEntity
  8
SLD-0
100
AcDbLine
 10
6.9514346318
 20
2.1932508612
 30
0.0
 11
6.8918639861
 21
2.2708848382
 31
0.0
  0
LINE
  5
C6
330
B1
100
AcDbEntity
  8
SLD-0
100
AcDbLine
 10
6.8918639861
 20
2.2708848382
 30
0.0
 11
6.8544163127
 21
2.3612915191
 31
0.0
  0
LINE
  5
C7
330
B1
100
AcDbEntity
  8
SLD-0
100
AcDbLine
 10
6.8544163127
 20
2.3612915191
 30
0.0
 11
6.8416436087
 21
2.4583098382
 31
0.0
  0
LINE
  5
C8
330
B1
100
AcDbEntity
  8
SLD-0
100
AcDbLine
 10
6.8416436087
 20
2.4583098382
 30
0.0
 11
6.8544163127
 21
2.5553281572
 31
0.0
  0
LINE
  5
C9
330
B1
100
AcDbEntity
  8
SLD-0
100
AcDbLine
 10
6.8544163127
 20
2.5553281572
 30
0.0
 11
6.8918639861
 21
2.6457348382
 31
0.0
  0
LINE
  5
CA
330
B1
100
AcDbEntity
  8
SLD-0
100
AcDbLine
 10
6.8918639861
 20
2.6457348382
 30
0.0
 11
6.9514346318
 21
2.7233688151
 31
0.0
  0
LINE
  5
CB
330
B1
100
AcDbEntity
  8
SLD-0
100
AcDbLine
 10
6.9514346318
 20
2.7233688151
 30
0.0
 11
7.0290686087
 21
2.7829394608
 31
0.0
  0
ENDBLK
  5
B3
330
B1
100
AcDbEntity
  8
0
100
AcDbBlockEnd
  0
BLOCK
  5
CD
330
CC
100
AcDbEntity
  8
0
100
AcDbBlockBegin
  2
COMPONENT_6_6
 70
     0
 10
0.0
 20
0.0
 30
0.0
  3
COMPONENT_6_6
  1

  0
LINE
  5
CF
330
CC
100
AcDbEntity
  8
SLD-0
100
AcDbLine
 10
5.0834598382
 20
4.2164936087
 30
0.0
 11
5.0962325422
 21
4.3135119278
 31
0.0
  0
LINE
  5
D0
330
CC
100
AcDbEntity
  8
SLD-0
100
AcDbLine
 10
5.0962325422
 20
4.1194752897
 30
0.0
 11
5.0834598382
 21
4.2164936087
 31
0.0
  0
LINE
  5
D1
330
CC
100
AcDbEntity
  8
SLD-0
100
AcDbLine
 10
5.1336802156
 20
4.4039186087
 30
0.0
 11
5.1932508612
 21
4.4815525856
 31
0.0
  0
LINE
  5
D2
330
CC
100
AcDbEntity
  8
SLD-0
100
AcDbLine
 10
5.0962325422
 20
4.3135119278
 30
0.0
 11
5.1336802156
 21
4.4039186087
 31
0.0
  0
LINE
  5
D3
330
CC
100
AcDbEntity
  8
SLD-0
100
AcDbLine
 10
5.1336802156
 20
4.0290686087
 30
0.0
 11
5.0962325422
 21
4.1194752897
 31
0.0
  0
LINE
  5
D4
330
CC
100
AcDbEntity
  8
SLD-0
100
AcDbLine
 10
5.1932508612
 20
4.4815525856
 30
0.0
 11
5.2708848382
 21
4.5411232313
 31
0.0
  0
LINE
  5
D5
330
CC
100
AcDbEntity
  8
SLD-0
100
AcDbLine
 10
5.4583098382
 20
3.8416436087
 30
0.0
 11
5.3612915191
 21
3.8544163127
 31
0.0
  0
LINE
  5
D6
330
CC
100
AcDbEntity
  8
SLD-0
100
AcDbLine
 10
5.5553281572
 20
3.8544163127
 30
0.0
 11
5.4583098382
 21
3.8416436087
 31
0.0
  0
LINE
  5
D7
330
CC
100
AcDbEntity
  8
SLD-0
100
AcDbLine
 10
5.2708848382
 20
3.8918639861
 30
0.0
 11
5.1932508612
 21
3.9514346318
 31
0.0
  0
LINE
  5
D8
330
CC
100
AcDbEntity
  8
SLD-0
100
AcDbLine
 10
5.3612915191
 20
3.8544163127
 30
0.0
 11
5.2708848382
 21
3.8918639861
 31
0.0
  0
LINE
  5
D9
330
CC
100
AcDbEntity
  8
SLD-0
100
AcDbLine
 10
5.1932508612
 20
3.9514346318
 30
0.0
 11
5.1336802156
 21
4.0290686087
 31
0.0
  0
LINE
  5
DA
330
CC
100
AcDbEntity
  8
SLD-0
100
AcDbLine
 10
5.6457348382
 20
3.8918639861
 30
0.0
 11
5.5553281572
 21
3.8544163127
 31
0.0
  0
LINE
  5
DB
330
CC
100
AcDbEntity
  8
SLD-0
100
AcDbLine
 10
5.7233688151
 20
3.9514346318
 30
0.0
 11
5.6457348382
 21
3.8918639861
 31
0.0
  0
LINE
  5
DC
330
CC
100
AcDbEntity
  8
SLD-0
100
AcDbLine
 10
5.7829394608
 20
4.0290686087
 30
0.0
 11
5.7233688151
 21
3.9514346318
 31
0.0
  0
LINE
  5
DD
330
CC
100
AcDbEntity
  8
SLD-0
100
AcDbLine
 10
5.8203871341
 20
4.1194752897
 30
0.0
 11
5.7829394608
 21
4.0290686087
 31
0.0
  0
LINE
  5
DE
330
CC
100
AcDbEntity
  8
SLD-0
100
AcDbLine
 10
5.2708848382
 20
4.5411232313
 30
0.0
 11
5.3612915191
 21
4.5785709047
 31
0.0
  0
LINE
  5
DF
330
CC
100
AcDbEntity
  8
SLD-0
100
AcDbLine
 10
5.3612915191
 20
4.5785709047
 30
0.0
 11
5.4583098382
 21
4.5913436087
 31
0.0
  0
LINE
  5
E0
330
CC
100
AcDbEntity
  8
SLD-0
100
AcDbLine
 10
5.4583098382
 20
4.5913436087
 30
0.0
 11
5.5553281572
 21
4.5785709047
 31
0.0
  0
LINE
  5
E1
330
CC
100
AcDbEntity
  8
SLD-0
100
AcDbLine
 10
5.5553281572
 20
4.5785709047
 30
0.0
 11
5.6457348382
 21
4.5411232313
 31
0.0
  0
LINE
  5
E2
330
CC
100
AcDbEntity
  8
SLD-0
100
AcDbLine
 10
5.6457348382
 20
4.5411232313
 30
0.0
 11
5.7233688151
 21
4.4815525856
 31
0.0
  0
LINE
  5
E3
330
CC
100
AcDbEntity
  8
SLD-0
100
AcDbLine
 10
5.7233688151
 20
4.4815525856
 30
0.0
 11
5.7829394608
 21
4.4039186087
 31
0.0
  0
LINE
  5
E4
330
CC
100
AcDbEntity
  8
SLD-0
100
AcDbLine
 10
5.7829394608
 20
4.4039186087
 30
0.0
 11
5.8203871341
 21
4.3135119278
 31
0.0
  0
LINE
  5
E5
330
CC
100
AcDbEntity
  8
SLD-0
100
AcDbLine
 10
5.8203871341
 20
4.3135119278
 30
0.0
 11
5.8331598382
 21
4.2164936087
 31
0.0
  0
LINE
  5
E6
330
CC
100
AcDbEntity
  8
SLD-0
100
AcDbLine
 10
5.8331598382
 20
4.2164936087
 30
0.0
 11
5.8203871341
 21
4.1194752897
 31
0.0
  0
ENDBLK
  5
CE
330
CC
100
AcDbEntity
  8
0
100
AcDbBlockEnd
  0
BLOCK
  5
E8
330
E7
100
AcDbEntity
  8
0
100
AcDbBlockBegin
  2
COMPONENT_7_7
 70
     0
 10
0.0
 20
0.0
 30
0.0
  3
COMPONENT_7_7
  1

  0
LINE
  5
EA
330
E7
100
AcDbEntity
  8
SLD-0
100
AcDbLine
 10
5.1336802156
 20
6.5155159422
 30
0.0
 11
5.0962325422
 21
6.6059226231
 31
0.0
  0
LINE
  5
EB
330
E7
100
AcDbEntity
  8
SLD-0
100
AcDbLine
 10
5.1932508612
 20
6.4378819652
 30
0.0
 11
5.1336802156
 21
6.5155159422
 31
0.0
  0
LINE
  5
EC
330
E7
100
AcDbEntity
  8
SLD-0
100
AcDbLine
 10
5.2708848382
 20
6.3783113195
 30
0.0
 11
5.1932508612
 21
6.4378819652
 31
0.0
  0
LINE
  5
ED
330
E7
100
AcDbEntity
  8
SLD-0
100
AcDbLine
 10
5.3612915191
 20
6.3408636462
 30
0.0
 11
5.2708848382
 21
6.3783113195
 31
0.0
  0
LINE
  5
EE
330
E7
100
AcDbEntity
  8
SLD-0
100
AcDbLine
 10
5.4583098382
 20
6.3280909422
 30
0.0
 11
5.3612915191
 21
6.3408636462
 31
0.0
  0
LINE
  5
EF
330
E7
100
AcDbEntity
  8
SLD-0
100
AcDbLine
 10
5.5553281572
 20
6.3408636462
 30
0.0
 11
5.4583098382
 21
6.3280909422
 31
0.0
  0
LINE
  5
F0
330
E7
100
AcDbEntity
  8
SLD-0
100
AcDbLine
 10
5.6457348382
 20
6.3783113195
 30
0.0
 11
5.5553281572
 21
6.3408636462
 31
0.0
  0
LINE
  5
F1
330
E7
100
AcDbEntity
  8
SLD-0
100
AcDbLine
 10
5.7233688151
 20
6.4378819652
 30
0.0
 11
5.6457348382
 21
6.3783113195
 31
0.0
  0
LINE
  5
F2
330
E7
100
AcDbEntity
  8
SLD-0
100
AcDbLine
 10
5.7829394608
 20
6.5155159422
 30
0.0
 11
5.7233688151
 21
6.4378819652
 31
0.0
  0
LINE
  5
F3
330
E7
100
AcDbEntity
  8
SLD-0
100
AcDbLine
 10
5.8203871341
 20
6.6059226231
 30
0.0
 11
5.7829394608
 21
6.5155159422
 31
0.0
  0
LINE
  5
F4
330
E7
100
AcDbEntity
  8
SLD-0
100
AcDbLine
 10
5.8331598382
 20
6.7029409422
 30
0.0
 11
5.8203871341
 21
6.6059226231
 31
0.0
  0
LINE
  5
F5
330
E7
100
AcDbEntity
  8
SLD-0
100
AcDbLine
 10
5.8203871341
 20
6.7999592612
 30
0.0
 11
5.8331598382
 21
6.7029409422
 31
0.0
  0
LINE
  5
F6
330
E7
100
AcDbEntity
  8
SLD-0
100
AcDbLine
 10
5.7829394608
 20
6.8903659422
 30
0.0
 11
5.8203871341
 21
6.7999592612
 31
0.0
  0
LINE
  5
F7
330
E7
100
AcDbEntity
  8
SLD-0
100
AcDbLine
 10
5.7233688151
 20
6.9679999191
 30
0.0
 11
5.7829394608
 21
6.8903659422
 31
0.0
  0
LINE
  5
F8
330
E7
100
AcDbEntity
  8
SLD-0
100
AcDbLine
 10
5.6457348382
 20
7.0275705648
 30
0.0
 11
5.7233688151
 21
6.9679999191
 31
0.0
  0
LINE
  5
F9
330
E7
100
AcDbEntity
  8
SLD-0
100
AcDbLine
 10
5.5553281572
 20
7.0650182381
 30
0.0
 11
5.6457348382
 21
7.0275705648
 31
0.0
  0
LINE
  5
FA
330
E7
100
AcDbEntity
  8
SLD-0
100
AcDbLine
 10
5.4583098382
 20
7.0777909422
 30
0.0
 11
5.5553281572
 21
7.0650182381
 31
0.0
  0
LINE
  5
FB
330
E7
100
AcDbEntity
  8
SLD-0
100
AcDbLine
 10
5.3612915191
 20
7.0650182381
 30
0.0
 11
5.4583098382
 21
7.0777909422
 31
0.0
  0
LINE
  5
FC
330
E7
100
AcDbEntity
  8
SLD-0
100
AcDbLine
 10
5.2708848382
 20
7.0275705648
 30
0.0
 11
5.3612915191
 21
7.0650182381
 31
0.0
  0
LINE
  5
FD
330
E7
100
AcDbEntity
  8
SLD-0
100
AcDbLine
 10
5.1932508612
 20
6.9679999191
 30
0.0
 11
5.2708848382
 21
7.0275705648
 31
0.0
  0
LINE
  5
FE
330
E7
100
AcDbEntity
  8
SLD-0
100
AcDbLine
 10
5.1336802156
 20
6.8903659422
 30
0.0
 11
5.1932508612
 21
6.9679999191
 31
0.0
  0
LINE
  5
FF
330
E7
100
AcDbEntity
  8
SLD-0
100
AcDbLine
 10
5.0962325422
 20
6.7999592612
 30
0.0
 11
5.1336802156
 21
6.8903659422
 31
0.0
  0
LINE
  5
100
330
E7
100
AcDbEntity
  8
SLD-0
100
AcDbLine
 10
5.0834598382
 20
6.7029409422
 30
0.0
 11
5.0962325422
 21
6.7999592612
 31
0.0
  0
LINE
  5
101
330
E7
100
AcDbEntity
  8
SLD-0
100
AcDbLine
 10
5.0962325422
 20
6.6059226231
 30
0.0
 11
5.0834598382
 21
6.7029409422
 31
0.0
  0
ENDBLK
  5
E9
330
E7
100
AcDbEntity
  8
0
100
AcDbBlockEnd
  0
BLOCK
  5
103
330
102
100
AcDbEntity
  8
0
100
AcDbBlockBegin
  2
COMPONENT_8_8
 70
     0
 10
0.0
 20
0.0
 30
0.0
  3
COMPONENT_8_8
  1

  0
LINE
  5
105
330
102
100
AcDbEntity
  8
SLD-0
100
AcDbLine
 10
6.8918639861
 20
8.2736997127
 30
0.0
 11
6.8544163127
 21
8.3641063936
 31
0.0
  0
LINE
  5
106
330
102
100
AcDbEntity
  8
SLD-0
100
AcDbLine
 10
6.9514346318
 20
8.1960657358
 30
0.0
 11
6.8918639861
 21
8.2736997127
 31
0.0
  0
LINE
  5
107
330
102
100
AcDbEntity
  8
SLD-0
100
AcDbLine
 10
7.0290686087
 20
8.1364950901
 30
0.0
 11
6.9514346318
 21
8.1960657358
 31
0.0
  0
LINE
  5
108
330
102
100
AcDbEntity
  8
SLD-0
100
AcDbLine
 10
7.1194752897
 20
8.0990474167
 30
0.0
 11
7.0290686087
 21
8.1364950901
 31
0.0
  0
LINE
  5
109
330
102
100
AcDbEntity
  8
SLD-0
100
AcDbLine
 10
7.2164936087
 20
8.0862747127
 30
0.0
 11
7.1194752897
 21
8.0990474167
 31
0.0
  0
LINE
  5
10A
330
102
100
AcDbEntity
  8
SLD-0
100
AcDbLine
 10
7.3135119278
 20
8.0990474167
 30
0.0
 11
7.2164936087
 21
8.0862747127
 31
0.0
  0
LINE
  5
10B
330
102
100
AcDbEntity
  8
SLD-0
100
AcDbLine
 10
7.4039186087
 20
8.1364950901
 30
0.0
 11
7.3135119278
 21
8.0990474167
 31
0.0
  0
LINE
  5
10C
330
102
100
AcDbEntity
  8
SLD-0
100
AcDbLine
 10
7.4815525856
 20
8.1960657358
 30
0.0
 11
7.4039186087
 21
8.1364950901
 31
0.0
  0
LINE
  5
10D
330
102
100
AcDbEntity
  8
SLD-0
100
AcDbLine
 10
7.5411232313
 20
8.2736997127
 30
0.0
 11
7.4815525856
 21
8.1960657358
 31
0.0
  0
LINE
  5
10E
330
102
100
AcDbEntity
  8
SLD-0
100
AcDbLine
 10
7.5785709047
 20
8.3641063936
 30
0.0
 11
7.5411232313
 21
8.2736997127
 31
0.0
  0
LINE
  5
10F
330
102
100
AcDbEntity
  8
SLD-0
100
AcDbLine
 10
7.5913436087
 20
8.4611247127
 30
0.0
 11
7.5785709047
 21
8.3641063936
 31
0.0
  0
LINE
  5
110
330
102
100
AcDbEntity
  8
SLD-0
100
AcDbLine
 10
7.5785709047
 20
8.5581430318
 30
0.0
 11
7.5913436087
 21
8.4611247127
 31
0.0
  0
LINE
  5
111
330
102
100
AcDbEntity
  8
SLD-0
100
AcDbLine
 10
7.5411232313
 20
8.6485497127
 30
0.0
 11
7.5785709047
 21
8.5581430318
 31
0.0
  0
LINE
  5
112
330
102
100
AcDbEntity
  8
SLD-0
100
AcDbLine
 10
7.4815525856
 20
8.7261836896
 30
0.0
 11
7.5411232313
 21
8.6485497127
 31
0.0
  0
LINE
  5
113
330
102
100
AcDbEntity
  8
SLD-0
100
AcDbLine
 10
7.4039186087
 20
8.7857543353
 30
0.0
 11
7.4815525856
 21
8.7261836896
 31
0.0
  0
LINE
  5
114
330
102
100
AcDbEntity
  8
SLD-0
100
AcDbLine
 10
7.3135119278
 20
8.8232020087
 30
0.0
 11
7.4039186087
 21
8.7857543353
 31
0.0
  0
LINE
  5
115
330
102
100
AcDbEntity
  8
SLD-0
100
AcDbLine
 10
7.2164936087
 20
8.8359747127
 30
0.0
 11
7.3135119278
 21
8.8232020087
 31
0.0
  0
LINE
  5
116
330
102
100
AcDbEntity
  8
SLD-0
100
AcDbLine
 10
7.1194752897
 20
8.8232020087
 30
0.0
 11
7.2164936087
 21
8.8359747127
 31
0.0
  0
LINE
  5
117
330
102
100
AcDbEntity
  8
SLD-0
100
AcDbLine
 10
7.0290686087
 20
8.7857543353
 30
0.0
 11
7.1194752897
 21
8.8232020087
 31
0.0
  0
LINE
  5
118
330
102
100
AcDbEntity
  8
SLD-0
100
AcDbLine
 10
6.9514346318
 20
8.7261836896
 30
0.0
 11
7.0290686087
 21
8.7857543353
 31
0.0
  0
LINE
  5
119
330
102
100
AcDbEntity
  8
SLD-0
100
AcDbLine
 10
6.8918639861
 20
8.6485497127
 30
0.0
 11
6.9514346318
 21
8.7261836896
 31
0.0
  0
LINE
  5
11A
330
102
100
AcDbEntity
  8
SLD-0
100
AcDbLine
 10
6.8544163127
 20
8.5581430318
 30
0.0
 11
6.8918639861
 21
8.6485497127
 31
0.0
  0
LINE
  5
11B
330
102
100
AcDbEntity
  8
SLD-0
100
AcDbLine
 10
6.8416436087
 20
8.4611247127
 30
0.0
 11
6.8544163127
 21
8.5581430318
 31
0.0
  0
LINE
  5
11C
330
102
100
AcDbEntity
  8
SLD-0
100
AcDbLine
 10
6.8544163127
 20
8.3641063936
 30
0.0
 11
6.8416436087
 21
8.4611247127
 31
0.0
  0
ENDBLK
  5
104
330
102
100
AcDbEntity
  8
0
100
AcDbBlockEnd
  0
BLOCK
  5
11E
330
11D
100
AcDbEntity
  8
0
100
AcDbBlockBegin
  2
FLANGE_0
 70
     0
 10
0.0
 20
0.0
 30
0.0
  3
FLANGE_0
  1

  0
ARC
  5
120
330
11D
100
AcDbEntity
  8
SLD-0
100
AcDbCircle
 10
8.4942104698
 20
5.4593206295
 30
0.0
 40
2.000000000000001
100
AcDbArc
 50
90.0
 51
270.0
  0
ARC
  5
121
330
11D
100
AcDbEntity
  8
SLD-0
100
AcDbCircle
 10
8.4942104698
 20
5.4593206295
 30
0.0
 40
2.000000000000001
100
AcDbArc
 50
90.0
 51
270.0
  0
ARC
  5
122
330
11D
100
AcDbEntity
  8
SLD-0
100
AcDbCircle
 10
8.4942104698
 20
5.4634536792
 30
0.0
 40
1.527116950273339
100
AcDbArc
 50
270.0
 51
90.0
  0
ARC
  5
123
330
11D
100
AcDbEntity
  8
SLD-0
100
AcDbCircle
 10
8.4942104698
 20
5.4634536792
 30
0.0
 40
1.527116950273339
100
AcDbArc
 50
270.0
 51
90.0
  0
LINE
  5
124
330
11D
100
AcDbEntity
  8
SLD-0
100
AcDbLine
 10
11.1960657358
 20
3.9514346318
 30
0.0
 11
11.1364950901
 21
4.0290686087
 31
0.0
  0
LINE
  5
125
330
11D
100
AcDbEntity
  8
SLD-0
100
AcDbLine
 10
6.9514346318
 20
8.7261836896
 30
0.0
 11
7.0290686087
 21
8.7857543353
 31
0.0
  0
LINE
  5
126
330
11D
100
AcDbEntity
  8
SLD-0
100
AcDbLine
 10
6.8918639861
 20
8.6485497127
 30
0.0
 11
6.9514346318
 21
8.7261836896
 31
0.0
  0
LINE
  5
127
330
11D
100
AcDbEntity
  8
SLD-0
100
AcDbLine
 10
11.2736997127
 20
3.8918639861
 30
0.0
 11
11.1960657358
 21
3.9514346318
 31
0.0
  0
LINE
  5
128
330
11D
100
AcDbEntity
  8
SLD-0
100
AcDbLine
 10
6.8544163127
 20
8.5581430318
 30
0.0
 11
6.8918639861
 21
8.6485497127
 31
0.0
  0
LINE
  5
129
330
11D
100
AcDbEntity
  8
SLD-0
100
AcDbLine
 10
6.8416436087
 20
8.4611247127
 30
0.0
 11
6.8544163127
 21
8.5581430318
 31
0.0
  0
LINE
  5
12A
330
11D
100
AcDbEntity
  8
SLD-0
100
AcDbLine
 10
11.4611247127
 20
3.8416436087
 30
0.0
 11
11.3641063936
 21
3.8544163127
 31
0.0
  0
LINE
  5
12B
330
11D
100
AcDbEntity
  8
SLD-0
100
AcDbLine
 10
6.8544163127
 20
8.3641063936
 30
0.0
 11
6.8416436087
 21
8.4611247127
 31
0.0
  0
LINE
  5
12C
330
11D
100
AcDbEntity
  8
SLD-0
100
AcDbLine
 10
11.5581430318
 20
3.8544163127
 30
0.0
 11
11.4611247127
 21
3.8416436087
 31
0.0
  0
LINE
  5
12D
330
11D
100
AcDbEntity
  8
SLD-0
100
AcDbLine
 10
6.8918639861
 20
8.2736997127
 30
0.0
 11
6.8544163127
 21
8.3641063936
 31
0.0
  0
LINE
  5
12E
330
11D
100
AcDbEntity
  8
SLD-0
100
AcDbLine
 10
11.3641063936
 20
3.8544163127
 30
0.0
 11
11.2736997127
 21
3.8918639861
 31
0.0
  0
LINE
  5
12F
330
11D
100
AcDbEntity
  8
SLD-0
100
AcDbLine
 10
11.6485497127
 20
3.8918639861
 30
0.0
 11
11.5581430318
 21
3.8544163127
 31
0.0
  0
LINE
  5
130
330
11D
100
AcDbEntity
  8
SLD-0
100
AcDbLine
 10
10.0777909422
 20
2.4583098382
 30
0.0
 11
10.0650182381
 21
2.3612915191
 31
0.0
  0
LINE
  5
131
330
11D
100
AcDbEntity
  8
SLD-0
100
AcDbLine
 10
6.9514346318
 20
8.1960657358
 30
0.0
 11
6.8918639861
 21
8.2736997127
 31
0.0
  0
LINE
  5
132
330
11D
100
AcDbEntity
  8
SLD-0
100
AcDbLine
 10
7.0290686087
 20
8.1364950901
 30
0.0
 11
6.9514346318
 21
8.1960657358
 31
0.0
  0
LINE
  5
133
330
11D
100
AcDbEntity
  8
SLD-0
100
AcDbLine
 10
11.7261836896
 20
3.9514346318
 30
0.0
 11
11.6485497127
 21
3.8918639861
 31
0.0
  0
LINE
  5
134
330
11D
100
AcDbEntity
  8
SLD-0
100
AcDbLine
 10
9.6059226231
 20
2.8203871341
 30
0.0
 11
9.7029409422
 21
2.8331598382
 31
0.0
  0
LINE
  5
135
330
11D
100
AcDbEntity
  8
SLD-0
100
AcDbLine
 10
11.1364950901
 20
4.0290686087
 30
0.0
 11
11.0990474167
 21
4.1194752897
 31
0.0
  0
LINE
  5
136
330
11D
100
AcDbEntity
  8
SLD-0
100
AcDbLine
 10
7.1194752897
 20
8.0990474167
 30
0.0
 11
7.0290686087
 21
8.1364950901
 31
0.0
  0
LINE
  5
137
330
11D
100
AcDbEntity
  8
SLD-0
100
AcDbLine
 10
10.0275705648
 20
2.2708848382
 30
0.0
 11
9.9679999191
 21
2.1932508612
 31
0.0
  0
LINE
  5
138
330
11D
100
AcDbEntity
  8
SLD-0
100
AcDbLine
 10
7.2164936087
 20
8.0862747127
 30
0.0
 11
7.1194752897
 21
8.0990474167
 31
0.0
  0
LINE
  5
139
330
11D
100
AcDbEntity
  8
SLD-0
100
AcDbLine
 10
10.0650182381
 20
2.3612915191
 30
0.0
 11
10.0275705648
 21
2.2708848382
 31
0.0
  0
LINE
  5
13A
330
11D
100
AcDbEntity
  8
SLD-0
100
AcDbLine
 10
10.1811038909
 20
9.6155121886
 30
0.0
 11
9.0468501933
 21
9.9194345509
 31
0.0
  0
LINE
  5
13B
330
11D
100
AcDbEntity
  8
SLD-0
100
AcDbLine
 10
11.1980479354
 20
9.0283792707
 30
0.0
 11
10.1811038909
 21
9.6155121886
 31
0.0
  0
LINE
  5
13C
330
11D
100
AcDbEntity
  8
SLD-0
100
AcDbLine
 10
7.2164936087
 20
2.8331598382
 30
0.0
 11
7.3135119278
 21
2.8203871341
 31
0.0
  0
LINE
  5
13D
330
11D
100
AcDbEntity
  8
SLD-0
100
AcDbLine
 10
9.7029409422
 20
2.8331598382
 30
0.0
 11
9.7999592612
 21
2.8203871341
 31
0.0
  0
LINE
  5
13E
330
11D
100
AcDbEntity
  8
SLD-0
100
AcDbLine
 10
9.8903659422
 20
2.7829394608
 30
0.0
 11
9.9679999191
 21
2.7233688151
 31
0.0
  0
LINE
  5
13F
330
11D
100
AcDbEntity
  8
SLD-0
100
AcDbLine
 10
12.0283792707
 20
8.1980479354
 30
0.0
 11
11.1980479354
 21
9.0283792707
 31
0.0
  0
LINE
  5
140
330
11D
100
AcDbEntity
  8
SLD-0
100
AcDbLine
 10
12.6155121886
 20
7.1811038909
 30
0.0
 11
12.0283792707
 21
8.1980479354
 31
0.0
  0
LINE
  5
141
330
11D
100
AcDbEntity
  8
SLD-0
100
AcDbLine
 10
9.9679999191
 20
2.7233688151
 30
0.0
 11
10.0275705648
 21
2.6457348382
 31
0.0
  0
LINE
  5
142
330
11D
100
AcDbEntity
  8
SLD-0
100
AcDbLine
 10
9.7999592612
 20
2.8203871341
 30
0.0
 11
9.8903659422
 21
2.7829394608
 31
0.0
  0
LINE
  5
143
330
11D
100
AcDbEntity
  8
SLD-0
100
AcDbLine
 10
10.0275705648
 20
2.6457348382
 30
0.0
 11
10.0650182381
 21
2.5553281572
 31
0.0
  0
LINE
  5
144
330
11D
100
AcDbEntity
  8
SLD-0
100
AcDbLine
 10
12.9194345509
 20
6.0468501933
 30
0.0
 11
12.6155121886
 21
7.1811038909
 31
0.0
  0
LINE
  5
145
330
11D
100
AcDbEntity
  8
SLD-0
100
AcDbLine
 10
12.9194345509
 20
4.8725843576
 30
0.0
 11
12.9194345509
 21
6.0468501933
 31
0.0
  0
LINE
  5
146
330
11D
100
AcDbEntity
  8
SLD-0
100
AcDbLine
 10
12.6155121886
 20
3.73833066
 30
0.0
 11
12.9194345509
 21
4.8725843576
 31
0.0
  0
LINE
  5
147
330
11D
100
AcDbEntity
  8
SLD-0
100
AcDbLine
 10
12.0283792707
 20
2.7213866155
 30
0.0
 11
12.6155121886
 21
3.73833066
 31
0.0
  0
LINE
  5
148
330
11D
100
AcDbEntity
  8
SLD-0
100
AcDbLine
 10
9.5155159422
 20
2.7829394608
 30
0.0
 11
9.6059226231
 21
2.8203871341
 31
0.0
  0
LINE
  5
149
330
11D
100
AcDbEntity
  8
SLD-0
100
AcDbLine
 10
11.1980479354
 20
1.8910552801
 30
0.0
 11
12.0283792707
 21
2.7213866155
 31
0.0
  0
LINE
  5
14A
330
11D
100
AcDbEntity
  8
SLD-0
100
AcDbLine
 10
9.3280909422
 20
2.4583098382
 30
0.0
 11
9.3408636462
 21
2.5553281572
 31
0.0
  0
LINE
  5
14B
330
11D
100
AcDbEntity
  8
SLD-0
100
AcDbLine
 10
10.1811038909
 20
1.3039223623
 30
0.0
 11
11.1980479354
 21
1.8910552801
 31
0.0
  0
LINE
  5
14C
330
11D
100
AcDbEntity
  8
SLD-0
100
AcDbLine
 10
9.0468501933
 20
1.0
 30
0.0
 11
10.1811038909
 21
1.3039223623
 31
0.0
  0
LINE
  5
14D
330
11D
100
AcDbEntity
  8
SLD-0
100
AcDbLine
 10
9.3783113195
 20
2.6457348382
 30
0.0
 11
9.4378819652
 21
2.7233688151
 31
0.0
  0
LINE
  5
14E
330
11D
100
AcDbEntity
  8
SLD-0
100
AcDbLine
 10
9.3408636462
 20
2.5553281572
 30
0.0
 11
9.3783113195
 21
2.6457348382
 31
0.0
  0
LINE
  5
14F
330
11D
100
AcDbEntity
  8
SLD-0
100
AcDbLine
 10
7.8725843576
 20
1.0
 30
0.0
 11
9.0468501933
 21
1.0
 31
0.0
  0
LINE
  5
150
330
11D
100
AcDbEntity
  8
SLD-0
100
AcDbLine
 10
6.73833066
 20
1.3039223623
 30
0.0
 11
7.8725843576
 21
1.0
 31
0.0
  0
LINE
  5
151
330
11D
100
AcDbEntity
  8
SLD-0
100
AcDbLine
 10
5.7213866155
 20
1.8910552801
 30
0.0
 11
6.73833066
 21
1.3039223623
 31
0.0
  0
LINE
  5
152
330
11D
100
AcDbEntity
  8
SLD-0
100
AcDbLine
 10
9.3408636462
 20
2.3612915191
 30
0.0
 11
9.3280909422
 21
2.4583098382
 31
0.0
  0
LINE
  5
153
330
11D
100
AcDbEntity
  8
SLD-0
100
AcDbLine
 10
4.8910552801
 20
2.7213866155
 30
0.0
 11
5.7213866155
 21
1.8910552801
 31
0.0
  0
LINE
  5
154
330
11D
100
AcDbEntity
  8
SLD-0
100
AcDbLine
 10
4.3039223623
 20
3.73833066
 30
0.0
 11
4.8910552801
 21
2.7213866155
 31
0.0
  0
LINE
  5
155
330
11D
100
AcDbEntity
  8
SLD-0
100
AcDbLine
 10
10.0650182381
 20
2.5553281572
 30
0.0
 11
10.0777909422
 21
2.4583098382
 31
0.0
  0
LINE
  5
156
330
11D
100
AcDbEntity
  8
SLD-0
100
AcDbLine
 10
9.3783113195
 20
2.2708848382
 30
0.0
 11
9.3408636462
 21
2.3612915191
 31
0.0
  0
LINE
  5
157
330
11D
100
AcDbEntity
  8
SLD-0
100
AcDbLine
 10
4.0
 20
4.8725843576
 30
0.0
 11
4.3039223623
 21
3.73833066
 31
0.0
  0
LINE
  5
158
330
11D
100
AcDbEntity
  8
SLD-0
100
AcDbLine
 10
9.5155159422
 20
2.1336802156
 30
0.0
 11
9.4378819652
 21
2.1932508612
 31
0.0
  0
LINE
  5
159
330
11D
100
AcDbEntity
  8
SLD-0
100
AcDbLine
 10
4.0
 20
6.0468501933
 30
0.0
 11
4.0
 21
4.8725843576
 31
0.0
  0
LINE
  5
15A
330
11D
100
AcDbEntity
  8
SLD-0
100
AcDbLine
 10
9.6059226231
 20
2.0962325422
 30
0.0
 11
9.5155159422
 21
2.1336802156
 31
0.0
  0
LINE
  5
15B
330
11D
100
AcDbEntity
  8
SLD-0
100
AcDbLine
 10
4.3039223623
 20
7.1811038909
 30
0.0
 11
4.0
 21
6.0468501933
 31
0.0
  0
LINE
  5
15C
330
11D
100
AcDbEntity
  8
SLD-0
100
AcDbLine
 10
9.7029409422
 20
2.0834598382
 30
0.0
 11
9.6059226231
 21
2.0962325422
 31
0.0
  0
LINE
  5
15D
330
11D
100
AcDbEntity
  8
SLD-0
100
AcDbLine
 10
4.8910552801
 20
8.1980479354
 30
0.0
 11
4.3039223623
 21
7.1811038909
 31
0.0
  0
LINE
  5
15E
330
11D
100
AcDbEntity
  8
SLD-0
100
AcDbLine
 10
9.7999592612
 20
2.0962325422
 30
0.0
 11
9.7029409422
 21
2.0834598382
 31
0.0
  0
LINE
  5
15F
330
11D
100
AcDbEntity
  8
SLD-0
100
AcDbLine
 10
9.4378819652
 20
2.7233688151
 30
0.0
 11
9.5155159422
 21
2.7829394608
 31
0.0
  0
LINE
  5
160
330
11D
100
AcDbEntity
  8
SLD-0
100
AcDbLine
 10
5.7213866155
 20
9.0283792707
 30
0.0
 11
4.8910552801
 21
8.1980479354
 31
0.0
  0
LINE
  5
161
330
11D
100
AcDbEntity
  8
SLD-0
100
AcDbLine
 10
7.5785709047
 20
2.3612915191
 30
0.0
 11
7.5411232313
 21
2.2708848382
 31
0.0
  0
LINE
  5
162
330
11D
100
AcDbEntity
  8
SLD-0
100
AcDbLine
 10
6.73833066
 20
9.6155121886
 30
0.0
 11
5.7213866155
 21
9.0283792707
 31
0.0
  0
LINE
  5
163
330
11D
100
AcDbEntity
  8
SLD-0
100
AcDbLine
 10
9.8903659422
 20
2.1336802156
 30
0.0
 11
9.7999592612
 21
2.0962325422
 31
0.0
  0
LINE
  5
164
330
11D
100
AcDbEntity
  8
SLD-0
100
AcDbLine
 10
7.8725843576
 20
9.9194345509
 30
0.0
 11
6.73833066
 21
9.6155121886
 31
0.0
  0
LINE
  5
165
330
11D
100
AcDbEntity
  8
SLD-0
100
AcDbLine
 10
7.5785709047
 20
2.5553281572
 30
0.0
 11
7.5913436087
 21
2.4583098382
 31
0.0
  0
LINE
  5
166
330
11D
100
AcDbEntity
  8
SLD-0
100
AcDbLine
 10
9.0468501933
 20
9.9194345509
 30
0.0
 11
7.8725843576
 21
9.9194345509
 31
0.0
  0
LINE
  5
167
330
11D
100
AcDbEntity
  8
SLD-0
100
AcDbLine
 10
7.5411232313
 20
2.6457348382
 30
0.0
 11
7.5785709047
 21
2.5553281572
 31
0.0
  0
LINE
  5
168
330
11D
100
AcDbEntity
  8
SLD-0
100
AcDbLine
 10
7.4815525856
 20
2.7233688151
 30
0.0
 11
7.5411232313
 21
2.6457348382
 31
0.0
  0
LINE
  5
169
330
11D
100
AcDbEntity
  8
SLD-0
100
AcDbLine
 10
7.4039186087
 20
2.7829394608
 30
0.0
 11
7.4815525856
 21
2.7233688151
 31
0.0
  0
LINE
  5
16A
330
11D
100
AcDbEntity
  8
SLD-0
100
AcDbLine
 10
7.3135119278
 20
2.8203871341
 30
0.0
 11
7.4039186087
 21
2.7829394608
 31
0.0
  0
LINE
  5
16B
330
11D
100
AcDbEntity
  8
SLD-0
100
AcDbLine
 10
7.0290686087
 20
2.7829394608
 30
0.0
 11
7.1194752897
 21
2.8203871341
 31
0.0
  0
LINE
  5
16C
330
11D
100
AcDbEntity
  8
SLD-0
100
AcDbLine
 10
7.1194752897
 20
2.8203871341
 30
0.0
 11
7.2164936087
 21
2.8331598382
 31
0.0
  0
LINE
  5
16D
330
11D
100
AcDbEntity
  8
SLD-0
100
AcDbLine
 10
9.9679999191
 20
2.1932508612
 30
0.0
 11
9.8903659422
 21
2.1336802156
 31
0.0
  0
LINE
  5
16E
330
11D
100
AcDbEntity
  8
SLD-0
100
AcDbLine
 10
9.4378819652
 20
2.1932508612
 30
0.0
 11
9.3783113195
 21
2.2708848382
 31
0.0
  0
LINE
  5
16F
330
11D
100
AcDbEntity
  8
SLD-0
100
AcDbLine
 10
6.8544163127
 20
2.3612915191
 30
0.0
 11
6.8416436087
 21
2.4583098382
 31
0.0
  0
LINE
  5
170
330
11D
100
AcDbEntity
  8
SLD-0
100
AcDbLine
 10
7.5913436087
 20
2.4583098382
 30
0.0
 11
7.5785709047
 21
2.3612915191
 31
0.0
  0
LINE
  5
171
330
11D
100
AcDbEntity
  8
SLD-0
100
AcDbLine
 10
6.8544163127
 20
2.5553281572
 30
0.0
 11
6.8918639861
 21
2.6457348382
 31
0.0
  0
LINE
  5
172
330
11D
100
AcDbEntity
  8
SLD-0
100
AcDbLine
 10
6.9514346318
 20
2.7233688151
 30
0.0
 11
7.0290686087
 21
2.7829394608
 31
0.0
  0
LINE
  5
173
330
11D
100
AcDbEntity
  8
SLD-0
100
AcDbLine
 10
6.8918639861
 20
2.6457348382
 30
0.0
 11
6.9514346318
 21
2.7233688151
 31
0.0
  0
LINE
  5
174
330
11D
100
AcDbEntity
  8
SLD-0
100
AcDbLine
 10
6.8416436087
 20
2.4583098382
 30
0.0
 11
6.8544163127
 21
2.5553281572
 31
0.0
  0
LINE
  5
175
330
11D
100
AcDbEntity
  8
SLD-0
100
AcDbLine
 10
6.8918639861
 20
2.2708848382
 30
0.0
 11
6.8544163127
 21
2.3612915191
 31
0.0
  0
LINE
  5
176
330
11D
100
AcDbEntity
  8
SLD-0
100
AcDbLine
 10
7.3135119278
 20
2.0962325422
 30
0.0
 11
7.2164936087
 21
2.0834598382
 31
0.0
  0
LINE
  5
177
330
11D
100
AcDbEntity
  8
SLD-0
100
AcDbLine
 10
6.9514346318
 20
2.1932508612
 30
0.0
 11
6.8918639861
 21
2.2708848382
 31
0.0
  0
LINE
  5
178
330
11D
100
AcDbEntity
  8
SLD-0
100
AcDbLine
 10
7.0290686087
 20
2.1336802156
 30
0.0
 11
6.9514346318
 21
2.1932508612
 31
0.0
  0
LINE
  5
179
330
11D
100
AcDbEntity
  8
SLD-0
100
AcDbLine
 10
7.1194752897
 20
2.0962325422
 30
0.0
 11
7.0290686087
 21
2.1336802156
 31
0.0
  0
LINE
  5
17A
330
11D
100
AcDbEntity
  8
SLD-0
100
AcDbLine
 10
7.2164936087
 20
2.0834598382
 30
0.0
 11
7.1194752897
 21
2.0962325422
 31
0.0
  0
LINE
  5
17B
330
11D
100
AcDbEntity
  8
SLD-0
100
AcDbLine
 10
9.9679999191
 20
8.1960657358
 30
0.0
 11
9.8903659422
 21
8.1364950901
 31
0.0
  0
LINE
  5
17C
330
11D
100
AcDbEntity
  8
SLD-0
100
AcDbLine
 10
7.4039186087
 20
2.1336802156
 30
0.0
 11
7.3135119278
 21
2.0962325422
 31
0.0
  0
LINE
  5
17D
330
11D
100
AcDbEntity
  8
SLD-0
100
AcDbLine
 10
7.4815525856
 20
2.1932508612
 30
0.0
 11
7.4039186087
 21
2.1336802156
 31
0.0
  0
LINE
  5
17E
330
11D
100
AcDbEntity
  8
SLD-0
100
AcDbLine
 10
7.5411232313
 20
2.2708848382
 30
0.0
 11
7.4815525856
 21
2.1932508612
 31
0.0
  0
LINE
  5
17F
330
11D
100
AcDbEntity
  8
SLD-0
100
AcDbLine
 10
9.7029409422
 20
8.0862747127
 30
0.0
 11
9.6059226231
 21
8.0990474167
 31
0.0
  0
LINE
  5
180
330
11D
100
AcDbEntity
  8
SLD-0
100
AcDbLine
 10
9.7999592612
 20
8.0990474167
 30
0.0
 11
9.7029409422
 21
8.0862747127
 31
0.0
  0
LINE
  5
181
330
11D
100
AcDbEntity
  8
SLD-0
100
AcDbLine
 10
9.8903659422
 20
8.1364950901
 30
0.0
 11
9.7999592612
 21
8.0990474167
 31
0.0
  0
LINE
  5
182
330
11D
100
AcDbEntity
  8
SLD-0
100
AcDbLine
 10
10.0275705648
 20
8.2736997127
 30
0.0
 11
9.9679999191
 21
8.1960657358
 31
0.0
  0
LINE
  5
183
330
11D
100
AcDbEntity
  8
SLD-0
100
AcDbLine
 10
10.0650182381
 20
8.3641063936
 30
0.0
 11
10.0275705648
 21
8.2736997127
 31
0.0
  0
LINE
  5
184
330
11D
100
AcDbEntity
  8
SLD-0
100
AcDbLine
 10
10.0777909422
 20
8.4611247127
 30
0.0
 11
10.0650182381
 21
8.3641063936
 31
0.0
  0
LINE
  5
185
330
11D
100
AcDbEntity
  8
SLD-0
100
AcDbLine
 10
10.0650182381
 20
8.5581430318
 30
0.0
 11
10.0777909422
 21
8.4611247127
 31
0.0
  0
LINE
  5
186
330
11D
100
AcDbEntity
  8
SLD-0
100
AcDbLine
 10
11.2736997127
 20
6.3783113195
 30
0.0
 11
11.1960657358
 21
6.4378819652
 31
0.0
  0
LINE
  5
187
330
11D
100
AcDbEntity
  8
SLD-0
100
AcDbLine
 10
10.0275705648
 20
8.6485497127
 30
0.0
 11
10.0650182381
 21
8.5581430318
 31
0.0
  0
LINE
  5
188
330
11D
100
AcDbEntity
  8
SLD-0
100
AcDbLine
 10
9.9679999191
 20
8.7261836896
 30
0.0
 11
10.0275705648
 21
8.6485497127
 31
0.0
  0
LINE
  5
189
330
11D
100
AcDbEntity
  8
SLD-0
100
AcDbLine
 10
9.8903659422
 20
8.7857543353
 30
0.0
 11
9.9679999191
 21
8.7261836896
 31
0.0
  0
LINE
  5
18A
330
11D
100
AcDbEntity
  8
SLD-0
100
AcDbLine
 10
9.7999592612
 20
8.8232020087
 30
0.0
 11
9.8903659422
 21
8.7857543353
 31
0.0
  0
LINE
  5
18B
330
11D
100
AcDbEntity
  8
SLD-0
100
AcDbLine
 10
9.7029409422
 20
8.8359747127
 30
0.0
 11
9.7999592612
 21
8.8232020087
 31
0.0
  0
LINE
  5
18C
330
11D
100
AcDbEntity
  8
SLD-0
100
AcDbLine
 10
9.6059226231
 20
8.8232020087
 30
0.0
 11
9.7029409422
 21
8.8359747127
 31
0.0
  0
LINE
  5
18D
330
11D
100
AcDbEntity
  8
SLD-0
100
AcDbLine
 10
9.5155159422
 20
8.7857543353
 30
0.0
 11
9.6059226231
 21
8.8232020087
 31
0.0
  0
LINE
  5
18E
330
11D
100
AcDbEntity
  8
SLD-0
100
AcDbLine
 10
9.4378819652
 20
8.7261836896
 30
0.0
 11
9.5155159422
 21
8.7857543353
 31
0.0
  0
LINE
  5
18F
330
11D
100
AcDbEntity
  8
SLD-0
100
AcDbLine
 10
9.3783113195
 20
8.6485497127
 30
0.0
 11
9.4378819652
 21
8.7261836896
 31
0.0
  0
LINE
  5
190
330
11D
100
AcDbEntity
  8
SLD-0
100
AcDbLine
 10
9.3408636462
 20
8.5581430318
 30
0.0
 11
9.3783113195
 21
8.6485497127
 31
0.0
  0
LINE
  5
191
330
11D
100
AcDbEntity
  8
SLD-0
100
AcDbLine
 10
9.3280909422
 20
8.4611247127
 30
0.0
 11
9.3408636462
 21
8.5581430318
 31
0.0
  0
LINE
  5
192
330
11D
100
AcDbEntity
  8
SLD-0
100
AcDbLine
 10
9.3408636462
 20
8.3641063936
 30
0.0
 11
9.3280909422
 21
8.4611247127
 31
0.0
  0
LINE
  5
193
330
11D
100
AcDbEntity
  8
SLD-0
100
AcDbLine
 10
9.3783113195
 20
8.2736997127
 30
0.0
 11
9.3408636462
 21
8.3641063936
 31
0.0
  0
LINE
  5
194
330
11D
100
AcDbEntity
  8
SLD-0
100
AcDbLine
 10
9.4378819652
 20
8.1960657358
 30
0.0
 11
9.3783113195
 21
8.2736997127
 31
0.0
  0
LINE
  5
195
330
11D
100
AcDbEntity
  8
SLD-0
100
AcDbLine
 10
9.5155159422
 20
8.1364950901
 30
0.0
 11
9.4378819652
 21
8.1960657358
 31
0.0
  0
LINE
  5
196
330
11D
100
AcDbEntity
  8
SLD-0
100
AcDbLine
 10
9.6059226231
 20
8.0990474167
 30
0.0
 11
9.5155159422
 21
8.1364950901
 31
0.0
  0
LINE
  5
197
330
11D
100
AcDbEntity
  8
SLD-0
100
AcDbLine
 10
5.1336802156
 20
6.5155159422
 30
0.0
 11
5.0962325422
 21
6.6059226231
 31
0.0
  0
LINE
  5
198
330
11D
100
AcDbEntity
  8
SLD-0
100
AcDbLine
 10
5.1932508612
 20
6.4378819652
 30
0.0
 11
5.1336802156
 21
6.5155159422
 31
0.0
  0
LINE
  5
199
330
11D
100
AcDbEntity
  8
SLD-0
100
AcDbLine
 10
5.2708848382
 20
6.3783113195
 30
0.0
 11
5.1932508612
 21
6.4378819652
 31
0.0
  0
LINE
  5
19A
330
11D
100
AcDbEntity
  8
SLD-0
100
AcDbLine
 10
5.3612915191
 20
6.3408636462
 30
0.0
 11
5.2708848382
 21
6.3783113195
 31
0.0
  0
LINE
  5
19B
330
11D
100
AcDbEntity
  8
SLD-0
100
AcDbLine
 10
5.4583098382
 20
6.3280909422
 30
0.0
 11
5.3612915191
 21
6.3408636462
 31
0.0
  0
LINE
  5
19C
330
11D
100
AcDbEntity
  8
SLD-0
100
AcDbLine
 10
11.6485497127
 20
6.3783113195
 30
0.0
 11
11.5581430318
 21
6.3408636462
 31
0.0
  0
LINE
  5
19D
330
11D
100
AcDbEntity
  8
SLD-0
100
AcDbLine
 10
5.5553281572
 20
6.3408636462
 30
0.0
 11
5.4583098382
 21
6.3280909422
 31
0.0
  0
LINE
  5
19E
330
11D
100
AcDbEntity
  8
SLD-0
100
AcDbLine
 10
11.8359747127
 20
6.7029409422
 30
0.0
 11
11.8232020087
 21
6.6059226231
 31
0.0
  0
LINE
  5
19F
330
11D
100
AcDbEntity
  8
SLD-0
100
AcDbLine
 10
5.6457348382
 20
6.3783113195
 30
0.0
 11
5.5553281572
 21
6.3408636462
 31
0.0
  0
LINE
  5
1A0
330
11D
100
AcDbEntity
  8
SLD-0
100
AcDbLine
 10
5.7233688151
 20
6.4378819652
 30
0.0
 11
5.6457348382
 21
6.3783113195
 31
0.0
  0
LINE
  5
1A1
330
11D
100
AcDbEntity
  8
SLD-0
100
AcDbLine
 10
5.7829394608
 20
6.5155159422
 30
0.0
 11
5.7233688151
 21
6.4378819652
 31
0.0
  0
LINE
  5
1A2
330
11D
100
AcDbEntity
  8
SLD-0
100
AcDbLine
 10
11.5581430318
 20
7.0650182381
 30
0.0
 11
11.6485497127
 21
7.0275705648
 31
0.0
  0
LINE
  5
1A3
330
11D
100
AcDbEntity
  8
SLD-0
100
AcDbLine
 10
11.1960657358
 20
6.9679999191
 30
0.0
 11
11.2736997127
 21
7.0275705648
 31
0.0
  0
LINE
  5
1A4
330
11D
100
AcDbEntity
  8
SLD-0
100
AcDbLine
 10
11.6485497127
 20
7.0275705648
 30
0.0
 11
11.7261836896
 21
6.9679999191
 31
0.0
  0
LINE
  5
1A5
330
11D
100
AcDbEntity
  8
SLD-0
100
AcDbLine
 10
5.8203871341
 20
6.6059226231
 30
0.0
 11
5.7829394608
 21
6.5155159422
 31
0.0
  0
LINE
  5
1A6
330
11D
100
AcDbEntity
  8
SLD-0
100
AcDbLine
 10
11.1364950901
 20
6.8903659422
 30
0.0
 11
11.1960657358
 21
6.9679999191
 31
0.0
  0
LINE
  5
1A7
330
11D
100
AcDbEntity
  8
SLD-0
100
AcDbLine
 10
5.8331598382
 20
6.7029409422
 30
0.0
 11
5.8203871341
 21
6.6059226231
 31
0.0
  0
LINE
  5
1A8
330
11D
100
AcDbEntity
  8
SLD-0
100
AcDbLine
 10
11.8232020087
 20
4.3135119278
 30
0.0
 11
11.8359747127
 21
4.2164936087
 31
0.0
  0
LINE
  5
1A9
330
11D
100
AcDbEntity
  8
SLD-0
100
AcDbLine
 10
5.8203871341
 20
6.7999592612
 30
0.0
 11
5.8331598382
 21
6.7029409422
 31
0.0
  0
LINE
  5
1AA
330
11D
100
AcDbEntity
  8
SLD-0
100
AcDbLine
 10
11.5581430318
 20
4.5785709047
 30
0.0
 11
11.6485497127
 21
4.5411232313
 31
0.0
  0
LINE
  5
1AB
330
11D
100
AcDbEntity
  8
SLD-0
100
AcDbLine
 10
5.7829394608
 20
6.8903659422
 30
0.0
 11
5.8203871341
 21
6.7999592612
 31
0.0
  0
LINE
  5
1AC
330
11D
100
AcDbEntity
  8
SLD-0
100
AcDbLine
 10
11.4611247127
 20
4.5913436087
 30
0.0
 11
11.5581430318
 21
4.5785709047
 31
0.0
  0
LINE
  5
1AD
330
11D
100
AcDbEntity
  8
SLD-0
100
AcDbLine
 10
5.7233688151
 20
6.9679999191
 30
0.0
 11
5.7829394608
 21
6.8903659422
 31
0.0
  0
LINE
  5
1AE
330
11D
100
AcDbEntity
  8
SLD-0
100
AcDbLine
 10
11.3641063936
 20
4.5785709047
 30
0.0
 11
11.4611247127
 21
4.5913436087
 31
0.0
  0
LINE
  5
1AF
330
11D
100
AcDbEntity
  8
SLD-0
100
AcDbLine
 10
5.6457348382
 20
7.0275705648
 30
0.0
 11
5.7233688151
 21
6.9679999191
 31
0.0
  0
LINE
  5
1B0
330
11D
100
AcDbEntity
  8
SLD-0
100
AcDbLine
 10
11.2736997127
 20
4.5411232313
 30
0.0
 11
11.3641063936
 21
4.5785709047
 31
0.0
  0
LINE
  5
1B1
330
11D
100
AcDbEntity
  8
SLD-0
100
AcDbLine
 10
5.5553281572
 20
7.0650182381
 30
0.0
 11
5.6457348382
 21
7.0275705648
 31
0.0
  0
LINE
  5
1B2
330
11D
100
AcDbEntity
  8
SLD-0
100
AcDbLine
 10
11.1960657358
 20
4.4815525856
 30
0.0
 11
11.2736997127
 21
4.5411232313
 31
0.0
  0
LINE
  5
1B3
330
11D
100
AcDbEntity
  8
SLD-0
100
AcDbLine
 10
5.4583098382
 20
7.0777909422
 30
0.0
 11
5.5553281572
 21
7.0650182381
 31
0.0
  0
LINE
  5
1B4
330
11D
100
AcDbEntity
  8
SLD-0
100
AcDbLine
 10
11.1364950901
 20
4.4039186087
 30
0.0
 11
11.1960657358
 21
4.4815525856
 31
0.0
  0
LINE
  5
1B5
330
11D
100
AcDbEntity
  8
SLD-0
100
AcDbLine
 10
5.3612915191
 20
7.0650182381
 30
0.0
 11
5.4583098382
 21
7.0777909422
 31
0.0
  0
LINE
  5
1B6
330
11D
100
AcDbEntity
  8
SLD-0
100
AcDbLine
 10
11.0990474167
 20
4.3135119278
 30
0.0
 11
11.1364950901
 21
4.4039186087
 31
0.0
  0
LINE
  5
1B7
330
11D
100
AcDbEntity
  8
SLD-0
100
AcDbLine
 10
5.2708848382
 20
7.0275705648
 30
0.0
 11
5.3612915191
 21
7.0650182381
 31
0.0
  0
LINE
  5
1B8
330
11D
100
AcDbEntity
  8
SLD-0
100
AcDbLine
 10
11.0862747127
 20
4.2164936087
 30
0.0
 11
11.0990474167
 21
4.3135119278
 31
0.0
  0
LINE
  5
1B9
330
11D
100
AcDbEntity
  8
SLD-0
100
AcDbLine
 10
5.1932508612
 20
6.9679999191
 30
0.0
 11
5.2708848382
 21
7.0275705648
 31
0.0
  0
LINE
  5
1BA
330
11D
100
AcDbEntity
  8
SLD-0
100
AcDbLine
 10
11.0990474167
 20
4.1194752897
 30
0.0
 11
11.0862747127
 21
4.2164936087
 31
0.0
  0
LINE
  5
1BB
330
11D
100
AcDbEntity
  8
SLD-0
100
AcDbLine
 10
5.1336802156
 20
6.8903659422
 30
0.0
 11
5.1932508612
 21
6.9679999191
 31
0.0
  0
LINE
  5
1BC
330
11D
100
AcDbEntity
  8
SLD-0
100
AcDbLine
 10
11.2736997127
 20
7.0275705648
 30
0.0
 11
11.3641063936
 21
7.0650182381
 31
0.0
  0
LINE
  5
1BD
330
11D
100
AcDbEntity
  8
SLD-0
100
AcDbLine
 10
11.3641063936
 20
7.0650182381
 30
0.0
 11
11.4611247127
 21
7.0777909422
 31
0.0
  0
LINE
  5
1BE
330
11D
100
AcDbEntity
  8
SLD-0
100
AcDbLine
 10
5.0962325422
 20
6.7999592612
 30
0.0
 11
5.1336802156
 21
6.8903659422
 31
0.0
  0
LINE
  5
1BF
330
11D
100
AcDbEntity
  8
SLD-0
100
AcDbLine
 10
11.6485497127
 20
4.5411232313
 30
0.0
 11
11.7261836896
 21
4.4815525856
 31
0.0
  0
LINE
  5
1C0
330
11D
100
AcDbEntity
  8
SLD-0
100
AcDbLine
 10
5.0834598382
 20
6.7029409422
 30
0.0
 11
5.0962325422
 21
6.7999592612
 31
0.0
  0
LINE
  5
1C1
330
11D
100
AcDbEntity
  8
SLD-0
100
AcDbLine
 10
11.7261836896
 20
4.4815525856
 30
0.0
 11
11.7857543353
 21
4.4039186087
 31
0.0
  0
LINE
  5
1C2
330
11D
100
AcDbEntity
  8
SLD-0
100
AcDbLine
 10
5.0962325422
 20
6.6059226231
 30
0.0
 11
5.0834598382
 21
6.7029409422
 31
0.0
  0
LINE
  5
1C3
330
11D
100
AcDbEntity
  8
SLD-0
100
AcDbLine
 10
11.7857543353
 20
4.4039186087
 30
0.0
 11
11.8232020087
 21
4.3135119278
 31
0.0
  0
LINE
  5
1C4
330
11D
100
AcDbEntity
  8
SLD-0
100
AcDbLine
 10
5.1336802156
 20
4.4039186087
 30
0.0
 11
5.1932508612
 21
4.4815525856
 31
0.0
  0
LINE
  5
1C5
330
11D
100
AcDbEntity
  8
SLD-0
100
AcDbLine
 10
11.8359747127
 20
4.2164936087
 30
0.0
 11
11.8232020087
 21
4.1194752897
 31
0.0
  0
LINE
  5
1C6
330
11D
100
AcDbEntity
  8
SLD-0
100
AcDbLine
 10
5.0962325422
 20
4.3135119278
 30
0.0
 11
5.1336802156
 21
4.4039186087
 31
0.0
  0
LINE
  5
1C7
330
11D
100
AcDbEntity
  8
SLD-0
100
AcDbLine
 10
11.8232020087
 20
4.1194752897
 30
0.0
 11
11.7857543353
 21
4.0290686087
 31
0.0
  0
LINE
  5
1C8
330
11D
100
AcDbEntity
  8
SLD-0
100
AcDbLine
 10
5.0834598382
 20
4.2164936087
 30
0.0
 11
5.0962325422
 21
4.3135119278
 31
0.0
  0
LINE
  5
1C9
330
11D
100
AcDbEntity
  8
SLD-0
100
AcDbLine
 10
11.7857543353
 20
4.0290686087
 30
0.0
 11
11.7261836896
 21
3.9514346318
 31
0.0
  0
LINE
  5
1CA
330
11D
100
AcDbEntity
  8
SLD-0
100
AcDbLine
 10
5.0962325422
 20
4.1194752897
 30
0.0
 11
5.0834598382
 21
4.2164936087
 31
0.0
  0
LINE
  5
1CB
330
11D
100
AcDbEntity
  8
SLD-0
100
AcDbLine
 10
11.1364950901
 20
6.5155159422
 30
0.0
 11
11.0990474167
 21
6.6059226231
 31
0.0
  0
LINE
  5
1CC
330
11D
100
AcDbEntity
  8
SLD-0
100
AcDbLine
 10
5.1336802156
 20
4.0290686087
 30
0.0
 11
5.0962325422
 21
4.1194752897
 31
0.0
  0
LINE
  5
1CD
330
11D
100
AcDbEntity
  8
SLD-0
100
AcDbLine
 10
11.0990474167
 20
6.6059226231
 30
0.0
 11
11.0862747127
 21
6.7029409422
 31
0.0
  0
LINE
  5
1CE
330
11D
100
AcDbEntity
  8
SLD-0
100
AcDbLine
 10
5.1932508612
 20
3.9514346318
 30
0.0
 11
5.1336802156
 21
4.0290686087
 31
0.0
  0
LINE
  5
1CF
330
11D
100
AcDbEntity
  8
SLD-0
100
AcDbLine
 10
11.0862747127
 20
6.7029409422
 30
0.0
 11
11.0990474167
 21
6.7999592612
 31
0.0
  0
LINE
  5
1D0
330
11D
100
AcDbEntity
  8
SLD-0
100
AcDbLine
 10
5.2708848382
 20
3.8918639861
 30
0.0
 11
5.1932508612
 21
3.9514346318
 31
0.0
  0
LINE
  5
1D1
330
11D
100
AcDbEntity
  8
SLD-0
100
AcDbLine
 10
11.0990474167
 20
6.7999592612
 30
0.0
 11
11.1364950901
 21
6.8903659422
 31
0.0
  0
LINE
  5
1D2
330
11D
100
AcDbEntity
  8
SLD-0
100
AcDbLine
 10
5.3612915191
 20
3.8544163127
 30
0.0
 11
5.2708848382
 21
3.8918639861
 31
0.0
  0
LINE
  5
1D3
330
11D
100
AcDbEntity
  8
SLD-0
100
AcDbLine
 10
5.4583098382
 20
3.8416436087
 30
0.0
 11
5.3612915191
 21
3.8544163127
 31
0.0
  0
LINE
  5
1D4
330
11D
100
AcDbEntity
  8
SLD-0
100
AcDbLine
 10
11.4611247127
 20
7.0777909422
 30
0.0
 11
11.5581430318
 21
7.0650182381
 31
0.0
  0
LINE
  5
1D5
330
11D
100
AcDbEntity
  8
SLD-0
100
AcDbLine
 10
5.5553281572
 20
3.8544163127
 30
0.0
 11
5.4583098382
 21
3.8416436087
 31
0.0
  0
LINE
  5
1D6
330
11D
100
AcDbEntity
  8
SLD-0
100
AcDbLine
 10
5.6457348382
 20
3.8918639861
 30
0.0
 11
5.5553281572
 21
3.8544163127
 31
0.0
  0
LINE
  5
1D7
330
11D
100
AcDbEntity
  8
SLD-0
100
AcDbLine
 10
5.7233688151
 20
3.9514346318
 30
0.0
 11
5.6457348382
 21
3.8918639861
 31
0.0
  0
LINE
  5
1D8
330
11D
100
AcDbEntity
  8
SLD-0
100
AcDbLine
 10
5.7829394608
 20
4.0290686087
 30
0.0
 11
5.7233688151
 21
3.9514346318
 31
0.0
  0
LINE
  5
1D9
330
11D
100
AcDbEntity
  8
SLD-0
100
AcDbLine
 10
5.8203871341
 20
4.1194752897
 30
0.0
 11
5.7829394608
 21
4.0290686087
 31
0.0
  0
LINE
  5
1DA
330
11D
100
AcDbEntity
  8
SLD-0
100
AcDbLine
 10
5.8331598382
 20
4.2164936087
 30
0.0
 11
5.8203871341
 21
4.1194752897
 31
0.0
  0
LINE
  5
1DB
330
11D
100
AcDbEntity
  8
SLD-0
100
AcDbLine
 10
5.8203871341
 20
4.3135119278
 30
0.0
 11
5.8331598382
 21
4.2164936087
 31
0.0
  0
LINE
  5
1DC
330
11D
100
AcDbEntity
  8
SLD-0
100
AcDbLine
 10
5.7829394608
 20
4.4039186087
 30
0.0
 11
5.8203871341
 21
4.3135119278
 31
0.0
  0
LINE
  5
1DD
330
11D
100
AcDbEntity
  8
SLD-0
100
AcDbLine
 10
5.7233688151
 20
4.4815525856
 30
0.0
 11
5.7829394608
 21
4.4039186087
 31
0.0
  0
LINE
  5
1DE
330
11D
100
AcDbEntity
  8
SLD-0
100
AcDbLine
 10
5.6457348382
 20
4.5411232313
 30
0.0
 11
5.7233688151
 21
4.4815525856
 31
0.0
  0
LINE
  5
1DF
330
11D
100
AcDbEntity
  8
SLD-0
100
AcDbLine
 10
11.4611247127
 20
6.3280909422
 30
0.0
 11
11.3641063936
 21
6.3408636462
 31
0.0
  0
LINE
  5
1E0
330
11D
100
AcDbEntity
  8
SLD-0
100
AcDbLine
 10
5.5553281572
 20
4.5785709047
 30
0.0
 11
5.6457348382
 21
4.5411232313
 31
0.0
  0
LINE
  5
1E1
330
11D
100
AcDbEntity
  8
SLD-0
100
AcDbLine
 10
5.4583098382
 20
4.5913436087
 30
0.0
 11
5.5553281572
 21
4.5785709047
 31
0.0
  0
LINE
  5
1E2
330
11D
100
AcDbEntity
  8
SLD-0
100
AcDbLine
 10
5.3612915191
 20
4.5785709047
 30
0.0
 11
5.4583098382
 21
4.5913436087
 31
0.0
  0
LINE
  5
1E3
330
11D
100
AcDbEntity
  8
SLD-0
100
AcDbLine
 10
11.5581430318
 20
6.3408636462
 30
0.0
 11
11.4611247127
 21
6.3280909422
 31
0.0
  0
LINE
  5
1E4
330
11D
100
AcDbEntity
  8
SLD-0
100
AcDbLine
 10
11.1960657358
 20
6.4378819652
 30
0.0
 11
11.1364950901
 21
6.5155159422
 31
0.0
  0
LINE
  5
1E5
330
11D
100
AcDbEntity
  8
SLD-0
100
AcDbLine
 10
5.2708848382
 20
4.5411232313
 30
0.0
 11
5.3612915191
 21
4.5785709047
 31
0.0
  0
LINE
  5
1E6
330
11D
100
AcDbEntity
  8
SLD-0
100
AcDbLine
 10
5.1932508612
 20
4.4815525856
 30
0.0
 11
5.2708848382
 21
4.5411232313
 31
0.0
  0
LINE
  5
1E7
330
11D
100
AcDbEntity
  8
SLD-0
100
AcDbLine
 10
7.3135119278
 20
8.0990474167
 30
0.0
 11
7.2164936087
 21
8.0862747127
 31
0.0
  0
LINE
  5
1E8
330
11D
100
AcDbEntity
  8
SLD-0
100
AcDbLine
 10
7.4039186087
 20
8.1364950901
 30
0.0
 11
7.3135119278
 21
8.0990474167
 31
0.0
  0
LINE
  5
1E9
330
11D
100
AcDbEntity
  8
SLD-0
100
AcDbLine
 10
11.7261836896
 20
6.9679999191
 30
0.0
 11
11.7857543353
 21
6.8903659422
 31
0.0
  0
LINE
  5
1EA
330
11D
100
AcDbEntity
  8
SLD-0
100
AcDbLine
 10
7.4815525856
 20
8.1960657358
 30
0.0
 11
7.4039186087
 21
8.1364950901
 31
0.0
  0
LINE
  5
1EB
330
11D
100
AcDbEntity
  8
SLD-0
100
AcDbLine
 10
11.7857543353
 20
6.8903659422
 30
0.0
 11
11.8232020087
 21
6.7999592612
 31
0.0
  0
LINE
  5
1EC
330
11D
100
AcDbEntity
  8
SLD-0
100
AcDbLine
 10
7.5411232313
 20
8.2736997127
 30
0.0
 11
7.4815525856
 21
8.1960657358
 31
0.0
  0
LINE
  5
1ED
330
11D
100
AcDbEntity
  8
SLD-0
100
AcDbLine
 10
11.8232020087
 20
6.7999592612
 30
0.0
 11
11.8359747127
 21
6.7029409422
 31
0.0
  0
LINE
  5
1EE
330
11D
100
AcDbEntity
  8
SLD-0
100
AcDbLine
 10
7.5785709047
 20
8.3641063936
 30
0.0
 11
7.5411232313
 21
8.2736997127
 31
0.0
  0
LINE
  5
1EF
330
11D
100
AcDbEntity
  8
SLD-0
100
AcDbLine
 10
7.5913436087
 20
8.4611247127
 30
0.0
 11
7.5785709047
 21
8.3641063936
 31
0.0
  0
LINE
  5
1F0
330
11D
100
AcDbEntity
  8
SLD-0
100
AcDbLine
 10
11.8232020087
 20
6.6059226231
 30
0.0
 11
11.7857543353
 21
6.5155159422
 31
0.0
  0
LINE
  5
1F1
330
11D
100
AcDbEntity
  8
SLD-0
100
AcDbLine
 10
7.5785709047
 20
8.5581430318
 30
0.0
 11
7.5913436087
 21
8.4611247127
 31
0.0
  0
LINE
  5
1F2
330
11D
100
AcDbEntity
  8
SLD-0
100
AcDbLine
 10
11.7857543353
 20
6.5155159422
 30
0.0
 11
11.7261836896
 21
6.4378819652
 31
0.0
  0
LINE
  5
1F3
330
11D
100
AcDbEntity
  8
SLD-0
100
AcDbLine
 10
7.5411232313
 20
8.6485497127
 30
0.0
 11
7.5785709047
 21
8.5581430318
 31
0.0
  0
LINE
  5
1F4
330
11D
100
AcDbEntity
  8
SLD-0
100
AcDbLine
 10
11.7261836896
 20
6.4378819652
 30
0.0
 11
11.6485497127
 21
6.3783113195
 31
0.0
  0
LINE
  5
1F5
330
11D
100
AcDbEntity
  8
SLD-0
100
AcDbLine
 10
7.4815525856
 20
8.7261836896
 30
0.0
 11
7.5411232313
 21
8.6485497127
 31
0.0
  0
LINE
  5
1F6
330
11D
100
AcDbEntity
  8
SLD-0
100
AcDbLine
 10
7.4039186087
 20
8.7857543353
 30
0.0
 11
7.4815525856
 21
8.7261836896
 31
0.0
  0
LINE
  5
1F7
330
11D
100
AcDbEntity
  8
SLD-0
100
AcDbLine
 10
7.3135119278
 20
8.8232020087
 30
0.0
 11
7.4039186087
 21
8.7857543353
 31
0.0
  0
LINE
  5
1F8
330
11D
100
AcDbEntity
  8
SLD-0
100
AcDbLine
 10
7.2164936087
 20
8.8359747127
 30
0.0
 11
7.3135119278
 21
8.8232020087
 31
0.0
  0
LINE
  5
1F9
330
11D
100
AcDbEntity
  8
SLD-0
100
AcDbLine
 10
11.3641063936
 20
6.3408636462
 30
0.0
 11
11.2736997127
 21
6.3783113195
 31
0.0
  0
LINE
  5
1FA
330
11D
100
AcDbEntity
  8
SLD-0
100
AcDbLine
 10
7.1194752897
 20
8.8232020087
 30
0.0
 11
7.2164936087
 21
8.8359747127
 31
0.0
  0
LINE
  5
1FB
330
11D
100
AcDbEntity
  8
SLD-0
100
AcDbLine
 10
7.0290686087
 20
8.7857543353
 30
0.0
 11
7.1194752897
 21
8.8232020087
 31
0.0
  0
LINE
  5
1FC
330
11D
100
AcDbEntity
  8
SLD-0
100
AcDbLine
 10
8.4942104698
 20
3.4593206295
 30
0.0
 11
8.4942104698
 21
3.936336729
 31
0.0
  0
LINE
  5
1FD
330
11D
100
AcDbEntity
  8
SLD-0
100
AcDbLine
 10
9.0468501933
 20
9.9194345509
 30
0.0
 11
7.8725843576
 21
9.9194345509
 31
0.0
  0
LINE
  5
1FE
330
11D
100
AcDbEntity
  8
SLD-0
100
AcDbLine
 10
7.8725843576
 20
9.9194345509
 30
0.0
 11
6.73833066
 21
9.6155121886
 31
0.0
  0
LINE
  5
1FF
330
11D
100
AcDbEntity
  8
SLD-0
100
AcDbLine
 10
6.73833066
 20
9.6155121886
 30
0.0
 11
5.7213866155
 21
9.0283792707
 31
0.0
  0
LINE
  5
200
330
11D
100
AcDbEntity
  8
SLD-0
100
AcDbLine
 10
5.7213866155
 20
9.0283792707
 30
0.0
 11
4.8910552801
 21
8.1980479354
 31
0.0
  0
LINE
  5
201
330
11D
100
AcDbEntity
  8
SLD-0
100
AcDbLine
 10
4.8910552801
 20
8.1980479354
 30
0.0
 11
4.3039223623
 21
7.1811038909
 31
0.0
  0
LINE
  5
202
330
11D
100
AcDbEntity
  8
SLD-0
100
AcDbLine
 10
4.3039223623
 20
7.1811038909
 30
0.0
 11
4.0
 21
6.0468501933
 31
0.0
  0
LINE
  5
203
330
11D
100
AcDbEntity
  8
SLD-0
100
AcDbLine
 10
4.0
 20
6.0468501933
 30
0.0
 11
4.0
 21
4.8725843576
 31
0.0
  0
LINE
  5
204
330
11D
100
AcDbEntity
  8
SLD-0
100
AcDbLine
 10
4.0
 20
4.8725843576
 30
0.0
 11
4.3039223623
 21
3.73833066
 31
0.0
  0
LINE
  5
205
330
11D
100
AcDbEntity
  8
SLD-0
100
AcDbLine
 10
4.3039223623
 20
3.73833066
 30
0.0
 11
4.8910552801
 21
2.7213866155
 31
0.0
  0
LINE
  5
206
330
11D
100
AcDbEntity
  8
SLD-0
100
AcDbLine
 10
4.8910552801
 20
2.7213866155
 30
0.0
 11
5.7213866155
 21
1.8910552801
 31
0.0
  0
LINE
  5
207
330
11D
100
AcDbEntity
  8
SLD-0
100
AcDbLine
 10
5.7213866155
 20
1.8910552801
 30
0.0
 11
6.73833066
 21
1.3039223623
 31
0.0
  0
LINE
  5
208
330
11D
100
AcDbEntity
  8
SLD-0
100
AcDbLine
 10
6.73833066
 20
1.3039223623
 30
0.0
 11
7.8725843576
 21
1.0
 31
0.0
  0
LINE
  5
209
330
11D
100
AcDbEntity
  8
SLD-0
100
AcDbLine
 10
7.8725843576
 20
1.0
 30
0.0
 11
9.0468501933
 21
1.0
 31
0.0
  0
LINE
  5
20A
330
11D
100
AcDbEntity
  8
SLD-0
100
AcDbLine
 10
9.0468501933
 20
1.0
 30
0.0
 11
10.1811038909
 21
1.3039223623
 31
0.0
  0
LINE
  5
20B
330
11D
100
AcDbEntity
  8
SLD-0
100
AcDbLine
 10
10.1811038909
 20
1.3039223623
 30
0.0
 11
11.1980479354
 21
1.8910552801
 31
0.0
  0
LINE
  5
20C
330
11D
100
AcDbEntity
  8
SLD-0
100
AcDbLine
 10
11.1980479354
 20
1.8910552801
 30
0.0
 11
12.0283792707
 21
2.7213866155
 31
0.0
  0
LINE
  5
20D
330
11D
100
AcDbEntity
  8
SLD-0
100
AcDbLine
 10
12.0283792707
 20
2.7213866155
 30
0.0
 11
12.6155121886
 21
3.73833066
 31
0.0
  0
LINE
  5
20E
330
11D
100
AcDbEntity
  8
SLD-0
100
AcDbLine
 10
12.6155121886
 20
3.73833066
 30
0.0
 11
12.9194345509
 21
4.8725843576
 31
0.0
  0
LINE
  5
20F
330
11D
100
AcDbEntity
  8
SLD-0
100
AcDbLine
 10
12.9194345509
 20
4.8725843576
 30
0.0
 11
12.9194345509
 21
6.0468501933
 31
0.0
  0
LINE
  5
210
330
11D
100
AcDbEntity
  8
SLD-0
100
AcDbLine
 10
12.9194345509
 20
6.0468501933
 30
0.0
 11
12.6155121886
 21
7.1811038909
 31
0.0
  0
LINE
  5
211
330
11D
100
AcDbEntity
  8
SLD-0
100
AcDbLine
 10
12.6155121886
 20
7.1811038909
 30
0.0
 11
12.0283792707
 21
8.1980479354
 31
0.0
  0
LINE
  5
212
330
11D
100
AcDbEntity
  8
SLD-0
100
AcDbLine
 10
12.0283792707
 20
8.1980479354
 30
0.0
 11
11.1980479354
 21
9.0283792707
 31
0.0
  0
LINE
  5
213
330
11D
100
AcDbEntity
  8
SLD-0
100
AcDbLine
 10
11.1980479354
 20
9.0283792707
 30
0.0
 11
10.1811038909
 21
9.6155121886
 31
0.0
  0
LINE
  5
214
330
11D
100
AcDbEntity
  8
SLD-0
100
AcDbLine
 10
10.1811038909
 20
9.6155121886
 30
0.0
 11
9.0468501933
 21
9.9194345509
 31
0.0
  0
LINE
  5
215
330
11D
100
AcDbEntity
  8
SLD-0
100
AcDbLine
 10
7.2164936087
 20
8.0862747127
 30
0.0
 11
7.1194752897
 21
8.0990474167
 31
0.0
  0
LINE
  5
216
330
11D
100
AcDbEntity
  8
SLD-0
100
AcDbLine
 10
7.1194752897
 20
8.0990474167
 30
0.0
 11
7.0290686087
 21
8.1364950901
 31
0.0
  0
LINE
  5
217
330
11D
100
AcDbEntity
  8
SLD-0
100
AcDbLine
 10
7.0290686087
 20
8.1364950901
 30
0.0
 11
6.9514346318
 21
8.1960657358
 31
0.0
  0
LINE
  5
218
330
11D
100
AcDbEntity
  8
SLD-0
100
AcDbLine
 10
6.9514346318
 20
8.1960657358
 30
0.0
 11
6.8918639861
 21
8.2736997127
 31
0.0
  0
LINE
  5
219
330
11D
100
AcDbEntity
  8
SLD-0
100
AcDbLine
 10
6.8918639861
 20
8.2736997127
 30
0.0
 11
6.8544163127
 21
8.3641063936
 31
0.0
  0
LINE
  5
21A
330
11D
100
AcDbEntity
  8
SLD-0
100
AcDbLine
 10
6.8544163127
 20
8.3641063936
 30
0.0
 11
6.8416436087
 21
8.4611247127
 31
0.0
  0
LINE
  5
21B
330
11D
100
AcDbEntity
  8
SLD-0
100
AcDbLine
 10
6.8416436087
 20
8.4611247127
 30
0.0
 11
6.8544163127
 21
8.5581430318
 31
0.0
  0
LINE
  5
21C
330
11D
100
AcDbEntity
  8
SLD-0
100
AcDbLine
 10
6.8544163127
 20
8.5581430318
 30
0.0
 11
6.8918639861
 21
8.6485497127
 31
0.0
  0
LINE
  5
21D
330
11D
100
AcDbEntity
  8
SLD-0
100
AcDbLine
 10
6.8918639861
 20
8.6485497127
 30
0.0
 11
6.9514346318
 21
8.7261836896
 31
0.0
  0
LINE
  5
21E
330
11D
100
AcDbEntity
  8
SLD-0
100
AcDbLine
 10
6.9514346318
 20
8.7261836896
 30
0.0
 11
7.0290686087
 21
8.7857543353
 31
0.0
  0
LINE
  5
21F
330
11D
100
AcDbEntity
  8
SLD-0
100
AcDbLine
 10
7.0290686087
 20
8.7857543353
 30
0.0
 11
7.1194752897
 21
8.8232020087
 31
0.0
  0
LINE
  5
220
330
11D
100
AcDbEntity
  8
SLD-0
100
AcDbLine
 10
7.1194752897
 20
8.8232020087
 30
0.0
 11
7.2164936087
 21
8.8359747127
 31
0.0
  0
LINE
  5
221
330
11D
100
AcDbEntity
  8
SLD-0
100
AcDbLine
 10
7.2164936087
 20
8.8359747127
 30
0.0
 11
7.3135119278
 21
8.8232020087
 31
0.0
  0
LINE
  5
222
330
11D
100
AcDbEntity
  8
SLD-0
100
AcDbLine
 10
7.3135119278
 20
8.8232020087
 30
0.0
 11
7.4039186087
 21
8.7857543353
 31
0.0
  0
LINE
  5
223
330
11D
100
AcDbEntity
  8
SLD-0
100
AcDbLine
 10
7.4039186087
 20
8.7857543353
 30
0.0
 11
7.4815525856
 21
8.7261836896
 31
0.0
  0
LINE
  5
224
330
11D
100
AcDbEntity
  8
SLD-0
100
AcDbLine
 10
7.4815525856
 20
8.7261836896
 30
0.0
 11
7.5411232313
 21
8.6485497127
 31
0.0
  0
LINE
  5
225
330
11D
100
AcDbEntity
  8
SLD-0
100
AcDbLine
 10
7.5411232313
 20
8.6485497127
 30
0.0
 11
7.5785709047
 21
8.5581430318
 31
0.0
  0
LINE
  5
226
330
11D
100
AcDbEntity
  8
SLD-0
100
AcDbLine
 10
7.5785709047
 20
8.5581430318
 30
0.0
 11
7.5913436087
 21
8.4611247127
 31
0.0
  0
LINE
  5
227
330
11D
100
AcDbEntity
  8
SLD-0
100
AcDbLine
 10
7.5913436087
 20
8.4611247127
 30
0.0
 11
7.5785709047
 21
8.3641063936
 31
0.0
  0
LINE
  5
228
330
11D
100
AcDbEntity
  8
SLD-0
100
AcDbLine
 10
7.5785709047
 20
8.3641063936
 30
0.0
 11
7.5411232313
 21
8.2736997127
 31
0.0
  0
LINE
  5
229
330
11D
100
AcDbEntity
  8
SLD-0
100
AcDbLine
 10
7.5411232313
 20
8.2736997127
 30
0.0
 11
7.4815525856
 21
8.1960657358
 31
0.0
  0
LINE
  5
22A
330
11D
100
AcDbEntity
  8
SLD-0
100
AcDbLine
 10
7.4815525856
 20
8.1960657358
 30
0.0
 11
7.4039186087
 21
8.1364950901
 31
0.0
  0
LINE
  5
22B
330
11D
100
AcDbEntity
  8
SLD-0
100
AcDbLine
 10
7.4039186087
 20
8.1364950901
 30
0.0
 11
7.3135119278
 21
8.0990474167
 31
0.0
  0
LINE
  5
22C
330
11D
100
AcDbEntity
  8
SLD-0
100
AcDbLine
 10
7.3135119278
 20
8.0990474167
 30
0.0
 11
7.2164936087
 21
8.0862747127
 31
0.0
  0
LINE
  5
22D
330
11D
100
AcDbEntity
  8
SLD-0
100
AcDbLine
 10
5.1932508612
 20
4.4815525856
 30
0.0
 11
5.2708848382
 21
4.5411232313
 31
0.0
  0
LINE
  5
22E
330
11D
100
AcDbEntity
  8
SLD-0
100
AcDbLine
 10
5.2708848382
 20
4.5411232313
 30
0.0
 11
5.3612915191
 21
4.5785709047
 31
0.0
  0
LINE
  5
22F
330
11D
100
AcDbEntity
  8
SLD-0
100
AcDbLine
 10
5.3612915191
 20
4.5785709047
 30
0.0
 11
5.4583098382
 21
4.5913436087
 31
0.0
  0
LINE
  5
230
330
11D
100
AcDbEntity
  8
SLD-0
100
AcDbLine
 10
5.4583098382
 20
4.5913436087
 30
0.0
 11
5.5553281572
 21
4.5785709047
 31
0.0
  0
LINE
  5
231
330
11D
100
AcDbEntity
  8
SLD-0
100
AcDbLine
 10
5.5553281572
 20
4.5785709047
 30
0.0
 11
5.6457348382
 21
4.5411232313
 31
0.0
  0
LINE
  5
232
330
11D
100
AcDbEntity
  8
SLD-0
100
AcDbLine
 10
5.6457348382
 20
4.5411232313
 30
0.0
 11
5.7233688151
 21
4.4815525856
 31
0.0
  0
LINE
  5
233
330
11D
100
AcDbEntity
  8
SLD-0
100
AcDbLine
 10
5.7233688151
 20
4.4815525856
 30
0.0
 11
5.7829394608
 21
4.4039186087
 31
0.0
  0
LINE
  5
234
330
11D
100
AcDbEntity
  8
SLD-0
100
AcDbLine
 10
5.7829394608
 20
4.4039186087
 30
0.0
 11
5.8203871341
 21
4.3135119278
 31
0.0
  0
LINE
  5
235
330
11D
100
AcDbEntity
  8
SLD-0
100
AcDbLine
 10
5.8203871341
 20
4.3135119278
 30
0.0
 11
5.8331598382
 21
4.2164936087
 31
0.0
  0
LINE
  5
236
330
11D
100
AcDbEntity
  8
SLD-0
100
AcDbLine
 10
5.8331598382
 20
4.2164936087
 30
0.0
 11
5.8203871341
 21
4.1194752897
 31
0.0
  0
LINE
  5
237
330
11D
100
AcDbEntity
  8
SLD-0
100
AcDbLine
 10
5.8203871341
 20
4.1194752897
 30
0.0
 11
5.7829394608
 21
4.0290686087
 31
0.0
  0
LINE
  5
238
330
11D
100
AcDbEntity
  8
SLD-0
100
AcDbLine
 10
5.7829394608
 20
4.0290686087
 30
0.0
 11
5.7233688151
 21
3.9514346318
 31
0.0
  0
LINE
  5
239
330
11D
100
AcDbEntity
  8
SLD-0
100
AcDbLine
 10
5.7233688151
 20
3.9514346318
 30
0.0
 11
5.6457348382
 21
3.8918639861
 31
0.0
  0
LINE
  5
23A
330
11D
100
AcDbEntity
  8
SLD-0
100
AcDbLine
 10
5.6457348382
 20
3.8918639861
 30
0.0
 11
5.5553281572
 21
3.8544163127
 31
0.0
  0
LINE
  5
23B
330
11D
100
AcDbEntity
  8
SLD-0
100
AcDbLine
 10
5.5553281572
 20
3.8544163127
 30
0.0
 11
5.4583098382
 21
3.8416436087
 31
0.0
  0
LINE
  5
23C
330
11D
100
AcDbEntity
  8
SLD-0
100
AcDbLine
 10
5.4583098382
 20
3.8416436087
 30
0.0
 11
5.3612915191
 21
3.8544163127
 31
0.0
  0
LINE
  5
23D
330
11D
100
AcDbEntity
  8
SLD-0
100
AcDbLine
 10
5.3612915191
 20
3.8544163127
 30
0.0
 11
5.2708848382
 21
3.8918639861
 31
0.0
  0
LINE
  5
23E
330
11D
100
AcDbEntity
  8
SLD-0
100
AcDbLine
 10
5.2708848382
 20
3.8918639861
 30
0.0
 11
5.1932508612
 21
3.9514346318
 31
0.0
  0
LINE
  5
23F
330
11D
100
AcDbEntity
  8
SLD-0
100
AcDbLine
 10
5.1932508612
 20
3.9514346318
 30
0.0
 11
5.1336802156
 21
4.0290686087
 31
0.0
  0
LINE
  5
240
330
11D
100
AcDbEntity
  8
SLD-0
100
AcDbLine
 10
5.1336802156
 20
4.0290686087
 30
0.0
 11
5.0962325422
 21
4.1194752897
 31
0.0
  0
LINE
  5
241
330
11D
100
AcDbEntity
  8
SLD-0
100
AcDbLine
 10
5.0962325422
 20
4.1194752897
 30
0.0
 11
5.0834598382
 21
4.2164936087
 31
0.0
  0
LINE
  5
242
330
11D
100
AcDbEntity
  8
SLD-0
100
AcDbLine
 10
5.0834598382
 20
4.2164936087
 30
0.0
 11
5.0962325422
 21
4.3135119278
 31
0.0
  0
LINE
  5
243
330
11D
100
AcDbEntity
  8
SLD-0
100
AcDbLine
 10
5.0962325422
 20
4.3135119278
 30
0.0
 11
5.1336802156
 21
4.4039186087
 31
0.0
  0
LINE
  5
244
330
11D
100
AcDbEntity
  8
SLD-0
100
AcDbLine
 10
5.1336802156
 20
4.4039186087
 30
0.0
 11
5.1932508612
 21
4.4815525856
 31
0.0
  0
LINE
  5
245
330
11D
100
AcDbEntity
  8
SLD-0
100
AcDbLine
 10
5.0962325422
 20
6.6059226231
 30
0.0
 11
5.0834598382
 21
6.7029409422
 31
0.0
  0
LINE
  5
246
330
11D
100
AcDbEntity
  8
SLD-0
100
AcDbLine
 10
5.0834598382
 20
6.7029409422
 30
0.0
 11
5.0962325422
 21
6.7999592612
 31
0.0
  0
LINE
  5
247
330
11D
100
AcDbEntity
  8
SLD-0
100
AcDbLine
 10
5.0962325422
 20
6.7999592612
 30
0.0
 11
5.1336802156
 21
6.8903659422
 31
0.0
  0
LINE
  5
248
330
11D
100
AcDbEntity
  8
SLD-0
100
AcDbLine
 10
5.1336802156
 20
6.8903659422
 30
0.0
 11
5.1932508612
 21
6.9679999191
 31
0.0
  0
LINE
  5
249
330
11D
100
AcDbEntity
  8
SLD-0
100
AcDbLine
 10
5.1932508612
 20
6.9679999191
 30
0.0
 11
5.2708848382
 21
7.0275705648
 31
0.0
  0
LINE
  5
24A
330
11D
100
AcDbEntity
  8
SLD-0
100
AcDbLine
 10
5.2708848382
 20
7.0275705648
 30
0.0
 11
5.3612915191
 21
7.0650182381
 31
0.0
  0
LINE
  5
24B
330
11D
100
AcDbEntity
  8
SLD-0
100
AcDbLine
 10
5.3612915191
 20
7.0650182381
 30
0.0
 11
5.4583098382
 21
7.0777909422
 31
0.0
  0
LINE
  5
24C
330
11D
100
AcDbEntity
  8
SLD-0
100
AcDbLine
 10
5.4583098382
 20
7.0777909422
 30
0.0
 11
5.5553281572
 21
7.0650182381
 31
0.0
  0
LINE
  5
24D
330
11D
100
AcDbEntity
  8
SLD-0
100
AcDbLine
 10
5.5553281572
 20
7.0650182381
 30
0.0
 11
5.6457348382
 21
7.0275705648
 31
0.0
  0
LINE
  5
24E
330
11D
100
AcDbEntity
  8
SLD-0
100
AcDbLine
 10
5.6457348382
 20
7.0275705648
 30
0.0
 11
5.7233688151
 21
6.9679999191
 31
0.0
  0
LINE
  5
24F
330
11D
100
AcDbEntity
  8
SLD-0
100
AcDbLine
 10
5.7233688151
 20
6.9679999191
 30
0.0
 11
5.7829394608
 21
6.8903659422
 31
0.0
  0
LINE
  5
250
330
11D
100
AcDbEntity
  8
SLD-0
100
AcDbLine
 10
5.7829394608
 20
6.8903659422
 30
0.0
 11
5.8203871341
 21
6.7999592612
 31
0.0
  0
LINE
  5
251
330
11D
100
AcDbEntity
  8
SLD-0
100
AcDbLine
 10
5.8203871341
 20
6.7999592612
 30
0.0
 11
5.8331598382
 21
6.7029409422
 31
0.0
  0
LINE
  5
252
330
11D
100
AcDbEntity
  8
SLD-0
100
AcDbLine
 10
5.8331598382
 20
6.7029409422
 30
0.0
 11
5.8203871341
 21
6.6059226231
 31
0.0
  0
LINE
  5
253
330
11D
100
AcDbEntity
  8
SLD-0
100
AcDbLine
 10
5.8203871341
 20
6.6059226231
 30
0.0
 11
5.7829394608
 21
6.5155159422
 31
0.0
  0
LINE
  5
254
330
11D
100
AcDbEntity
  8
SLD-0
100
AcDbLine
 10
5.7829394608
 20
6.5155159422
 30
0.0
 11
5.7233688151
 21
6.4378819652
 31
0.0
  0
LINE
  5
255
330
11D
100
AcDbEntity
  8
SLD-0
100
AcDbLine
 10
5.7233688151
 20
6.4378819652
 30
0.0
 11
5.6457348382
 21
6.3783113195
 31
0.0
  0
LINE
  5
256
330
11D
100
AcDbEntity
  8
SLD-0
100
AcDbLine
 10
5.6457348382
 20
6.3783113195
 30
0.0
 11
5.5553281572
 21
6.3408636462
 31
0.0
  0
LINE
  5
257
330
11D
100
AcDbEntity
  8
SLD-0
100
AcDbLine
 10
5.5553281572
 20
6.3408636462
 30
0.0
 11
5.4583098382
 21
6.3280909422
 31
0.0
  0
LINE
  5
258
330
11D
100
AcDbEntity
  8
SLD-0
100
AcDbLine
 10
5.4583098382
 20
6.3280909422
 30
0.0
 11
5.3612915191
 21
6.3408636462
 31
0.0
  0
LINE
  5
259
330
11D
100
AcDbEntity
  8
SLD-0
100
AcDbLine
 10
5.3612915191
 20
6.3408636462
 30
0.0
 11
5.2708848382
 21
6.3783113195
 31
0.0
  0
LINE
  5
25A
330
11D
100
AcDbEntity
  8
SLD-0
100
AcDbLine
 10
5.2708848382
 20
6.3783113195
 30
0.0
 11
5.1932508612
 21
6.4378819652
 31
0.0
  0
LINE
  5
25B
330
11D
100
AcDbEntity
  8
SLD-0
100
AcDbLine
 10
5.1932508612
 20
6.4378819652
 30
0.0
 11
5.1336802156
 21
6.5155159422
 31
0.0
  0
LINE
  5
25C
330
11D
100
AcDbEntity
  8
SLD-0
100
AcDbLine
 10
5.1336802156
 20
6.5155159422
 30
0.0
 11
5.0962325422
 21
6.6059226231
 31
0.0
  0
LINE
  5
25D
330
11D
100
AcDbEntity
  8
SLD-0
100
AcDbLine
 10
9.6059226231
 20
8.0990474167
 30
0.0
 11
9.5155159422
 21
8.1364950901
 31
0.0
  0
LINE
  5
25E
330
11D
100
AcDbEntity
  8
SLD-0
100
AcDbLine
 10
9.5155159422
 20
8.1364950901
 30
0.0
 11
9.4378819652
 21
8.1960657358
 31
0.0
  0
LINE
  5
25F
330
11D
100
AcDbEntity
  8
SLD-0
100
AcDbLine
 10
9.4378819652
 20
8.1960657358
 30
0.0
 11
9.3783113195
 21
8.2736997127
 31
0.0
  0
LINE
  5
260
330
11D
100
AcDbEntity
  8
SLD-0
100
AcDbLine
 10
9.3783113195
 20
8.2736997127
 30
0.0
 11
9.3408636462
 21
8.3641063936
 31
0.0
  0
LINE
  5
261
330
11D
100
AcDbEntity
  8
SLD-0
100
AcDbLine
 10
9.3408636462
 20
8.3641063936
 30
0.0
 11
9.3280909422
 21
8.4611247127
 31
0.0
  0
LINE
  5
262
330
11D
100
AcDbEntity
  8
SLD-0
100
AcDbLine
 10
9.3280909422
 20
8.4611247127
 30
0.0
 11
9.3408636462
 21
8.5581430318
 31
0.0
  0
LINE
  5
263
330
11D
100
AcDbEntity
  8
SLD-0
100
AcDbLine
 10
9.3408636462
 20
8.5581430318
 30
0.0
 11
9.3783113195
 21
8.6485497127
 31
0.0
  0
LINE
  5
264
330
11D
100
AcDbEntity
  8
SLD-0
100
AcDbLine
 10
9.3783113195
 20
8.6485497127
 30
0.0
 11
9.4378819652
 21
8.7261836896
 31
0.0
  0
LINE
  5
265
330
11D
100
AcDbEntity
  8
SLD-0
100
AcDbLine
 10
9.4378819652
 20
8.7261836896
 30
0.0
 11
9.5155159422
 21
8.7857543353
 31
0.0
  0
LINE
  5
266
330
11D
100
AcDbEntity
  8
SLD-0
100
AcDbLine
 10
9.5155159422
 20
8.7857543353
 30
0.0
 11
9.6059226231
 21
8.8232020087
 31
0.0
  0
LINE
  5
267
330
11D
100
AcDbEntity
  8
SLD-0
100
AcDbLine
 10
9.6059226231
 20
8.8232020087
 30
0.0
 11
9.7029409422
 21
8.8359747127
 31
0.0
  0
LINE
  5
268
330
11D
100
AcDbEntity
  8
SLD-0
100
AcDbLine
 10
9.7029409422
 20
8.8359747127
 30
0.0
 11
9.7999592612
 21
8.8232020087
 31
0.0
  0
LINE
  5
269
330
11D
100
AcDbEntity
  8
SLD-0
100
AcDbLine
 10
9.7999592612
 20
8.8232020087
 30
0.0
 11
9.8903659422
 21
8.7857543353
 31
0.0
  0
LINE
  5
26A
330
11D
100
AcDbEntity
  8
SLD-0
100
AcDbLine
 10
9.8903659422
 20
8.7857543353
 30
0.0
 11
9.9679999191
 21
8.7261836896
 31
0.0
  0
LINE
  5
26B
330
11D
100
AcDbEntity
  8
SLD-0
100
AcDbLine
 10
9.9679999191
 20
8.7261836896
 30
0.0
 11
10.0275705648
 21
8.6485497127
 31
0.0
  0
LINE
  5
26C
330
11D
100
AcDbEntity
  8
SLD-0
100
AcDbLine
 10
10.0275705648
 20
8.6485497127
 30
0.0
 11
10.0650182381
 21
8.5581430318
 31
0.0
  0
LINE
  5
26D
330
11D
100
AcDbEntity
  8
SLD-0
100
AcDbLine
 10
10.0650182381
 20
8.5581430318
 30
0.0
 11
10.0777909422
 21
8.4611247127
 31
0.0
  0
LINE
  5
26E
330
11D
100
AcDbEntity
  8
SLD-0
100
AcDbLine
 10
10.0777909422
 20
8.4611247127
 30
0.0
 11
10.0650182381
 21
8.3641063936
 31
0.0
  0
LINE
  5
26F
330
11D
100
AcDbEntity
  8
SLD-0
100
AcDbLine
 10
10.0650182381
 20
8.3641063936
 30
0.0
 11
10.0275705648
 21
8.2736997127
 31
0.0
  0
LINE
  5
270
330
11D
100
AcDbEntity
  8
SLD-0
100
AcDbLine
 10
10.0275705648
 20
8.2736997127
 30
0.0
 11
9.9679999191
 21
8.1960657358
 31
0.0
  0
LINE
  5
271
330
11D
100
AcDbEntity
  8
SLD-0
100
AcDbLine
 10
9.9679999191
 20
8.1960657358
 30
0.0
 11
9.8903659422
 21
8.1364950901
 31
0.0
  0
LINE
  5
272
330
11D
100
AcDbEntity
  8
SLD-0
100
AcDbLine
 10
9.8903659422
 20
8.1364950901
 30
0.0
 11
9.7999592612
 21
8.0990474167
 31
0.0
  0
LINE
  5
273
330
11D
100
AcDbEntity
  8
SLD-0
100
AcDbLine
 10
9.7999592612
 20
8.0990474167
 30
0.0
 11
9.7029409422
 21
8.0862747127
 31
0.0
  0
LINE
  5
274
330
11D
100
AcDbEntity
  8
SLD-0
100
AcDbLine
 10
9.7029409422
 20
8.0862747127
 30
0.0
 11
9.6059226231
 21
8.0990474167
 31
0.0
  0
LINE
  5
275
330
11D
100
AcDbEntity
  8
SLD-0
100
AcDbLine
 10
7.5411232313
 20
2.2708848382
 30
0.0
 11
7.4815525856
 21
2.1932508612
 31
0.0
  0
LINE
  5
276
330
11D
100
AcDbEntity
  8
SLD-0
100
AcDbLine
 10
7.4815525856
 20
2.1932508612
 30
0.0
 11
7.4039186087
 21
2.1336802156
 31
0.0
  0
LINE
  5
277
330
11D
100
AcDbEntity
  8
SLD-0
100
AcDbLine
 10
7.4039186087
 20
2.1336802156
 30
0.0
 11
7.3135119278
 21
2.0962325422
 31
0.0
  0
LINE
  5
278
330
11D
100
AcDbEntity
  8
SLD-0
100
AcDbLine
 10
7.3135119278
 20
2.0962325422
 30
0.0
 11
7.2164936087
 21
2.0834598382
 31
0.0
  0
LINE
  5
279
330
11D
100
AcDbEntity
  8
SLD-0
100
AcDbLine
 10
7.2164936087
 20
2.0834598382
 30
0.0
 11
7.1194752897
 21
2.0962325422
 31
0.0
  0
LINE
  5
27A
330
11D
100
AcDbEntity
  8
SLD-0
100
AcDbLine
 10
7.1194752897
 20
2.0962325422
 30
0.0
 11
7.0290686087
 21
2.1336802156
 31
0.0
  0
LINE
  5
27B
330
11D
100
AcDbEntity
  8
SLD-0
100
AcDbLine
 10
7.0290686087
 20
2.1336802156
 30
0.0
 11
6.9514346318
 21
2.1932508612
 31
0.0
  0
LINE
  5
27C
330
11D
100
AcDbEntity
  8
SLD-0
100
AcDbLine
 10
6.9514346318
 20
2.1932508612
 30
0.0
 11
6.8918639861
 21
2.2708848382
 31
0.0
  0
LINE
  5
27D
330
11D
100
AcDbEntity
  8
SLD-0
100
AcDbLine
 10
6.8918639861
 20
2.2708848382
 30
0.0
 11
6.8544163127
 21
2.3612915191
 31
0.0
  0
LINE
  5
27E
330
11D
100
AcDbEntity
  8
SLD-0
100
AcDbLine
 10
6.8544163127
 20
2.3612915191
 30
0.0
 11
6.8416436087
 21
2.4583098382
 31
0.0
  0
LINE
  5
27F
330
11D
100
AcDbEntity
  8
SLD-0
100
AcDbLine
 10
6.8416436087
 20
2.4583098382
 30
0.0
 11
6.8544163127
 21
2.5553281572
 31
0.0
  0
LINE
  5
280
330
11D
100
AcDbEntity
  8
SLD-0
100
AcDbLine
 10
6.8544163127
 20
2.5553281572
 30
0.0
 11
6.8918639861
 21
2.6457348382
 31
0.0
  0
LINE
  5
281
330
11D
100
AcDbEntity
  8
SLD-0
100
AcDbLine
 10
6.8918639861
 20
2.6457348382
 30
0.0
 11
6.9514346318
 21
2.7233688151
 31
0.0
  0
LINE
  5
282
330
11D
100
AcDbEntity
  8
SLD-0
100
AcDbLine
 10
6.9514346318
 20
2.7233688151
 30
0.0
 11
7.0290686087
 21
2.7829394608
 31
0.0
  0
LINE
  5
283
330
11D
100
AcDbEntity
  8
SLD-0
100
AcDbLine
 10
7.0290686087
 20
2.7829394608
 30
0.0
 11
7.1194752897
 21
2.8203871341
 31
0.0
  0
LINE
  5
284
330
11D
100
AcDbEntity
  8
SLD-0
100
AcDbLine
 10
7.1194752897
 20
2.8203871341
 30
0.0
 11
7.2164936087
 21
2.8331598382
 31
0.0
  0
LINE
  5
285
330
11D
100
AcDbEntity
  8
SLD-0
100
AcDbLine
 10
7.2164936087
 20
2.8331598382
 30
0.0
 11
7.3135119278
 21
2.8203871341
 31
0.0
  0
LINE
  5
286
330
11D
100
AcDbEntity
  8
SLD-0
100
AcDbLine
 10
7.3135119278
 20
2.8203871341
 30
0.0
 11
7.4039186087
 21
2.7829394608
 31
0.0
  0
LINE
  5
287
330
11D
100
AcDbEntity
  8
SLD-0
100
AcDbLine
 10
7.4039186087
 20
2.7829394608
 30
0.0
 11
7.4815525856
 21
2.7233688151
 31
0.0
  0
LINE
  5
288
330
11D
100
AcDbEntity
  8
SLD-0
100
AcDbLine
 10
7.4815525856
 20
2.7233688151
 30
0.0
 11
7.5411232313
 21
2.6457348382
 31
0.0
  0
LINE
  5
289
330
11D
100
AcDbEntity
  8
SLD-0
100
AcDbLine
 10
7.5411232313
 20
2.6457348382
 30
0.0
 11
7.5785709047
 21
2.5553281572
 31
0.0
  0
LINE
  5
28A
330
11D
100
AcDbEntity
  8
SLD-0
100
AcDbLine
 10
7.5785709047
 20
2.5553281572
 30
0.0
 11
7.5913436087
 21
2.4583098382
 31
0.0
  0
LINE
  5
28B
330
11D
100
AcDbEntity
  8
SLD-0
100
AcDbLine
 10
7.5913436087
 20
2.4583098382
 30
0.0
 11
7.5785709047
 21
2.3612915191
 31
0.0
  0
LINE
  5
28C
330
11D
100
AcDbEntity
  8
SLD-0
100
AcDbLine
 10
7.5785709047
 20
2.3612915191
 30
0.0
 11
7.5411232313
 21
2.2708848382
 31
0.0
  0
LINE
  5
28D
330
11D
100
AcDbEntity
  8
SLD-0
100
AcDbLine
 10
9.9679999191
 20
2.1932508612
 30
0.0
 11
9.8903659422
 21
2.1336802156
 31
0.0
  0
LINE
  5
28E
330
11D
100
AcDbEntity
  8
SLD-0
100
AcDbLine
 10
9.8903659422
 20
2.1336802156
 30
0.0
 11
9.7999592612
 21
2.0962325422
 31
0.0
  0
LINE
  5
28F
330
11D
100
AcDbEntity
  8
SLD-0
100
AcDbLine
 10
9.7999592612
 20
2.0962325422
 30
0.0
 11
9.7029409422
 21
2.0834598382
 31
0.0
  0
LINE
  5
290
330
11D
100
AcDbEntity
  8
SLD-0
100
AcDbLine
 10
9.7029409422
 20
2.0834598382
 30
0.0
 11
9.6059226231
 21
2.0962325422
 31
0.0
  0
LINE
  5
291
330
11D
100
AcDbEntity
  8
SLD-0
100
AcDbLine
 10
9.6059226231
 20
2.0962325422
 30
0.0
 11
9.5155159422
 21
2.1336802156
 31
0.0
  0
LINE
  5
292
330
11D
100
AcDbEntity
  8
SLD-0
100
AcDbLine
 10
9.5155159422
 20
2.1336802156
 30
0.0
 11
9.4378819652
 21
2.1932508612
 31
0.0
  0
LINE
  5
293
330
11D
100
AcDbEntity
  8
SLD-0
100
AcDbLine
 10
9.4378819652
 20
2.1932508612
 30
0.0
 11
9.3783113195
 21
2.2708848382
 31
0.0
  0
LINE
  5
294
330
11D
100
AcDbEntity
  8
SLD-0
100
AcDbLine
 10
9.3783113195
 20
2.2708848382
 30
0.0
 11
9.3408636462
 21
2.3612915191
 31
0.0
  0
LINE
  5
295
330
11D
100
AcDbEntity
  8
SLD-0
100
AcDbLine
 10
9.3408636462
 20
2.3612915191
 30
0.0
 11
9.3280909422
 21
2.4583098382
 31
0.0
  0
LINE
  5
296
330
11D
100
AcDbEntity
  8
SLD-0
100
AcDbLine
 10
9.3280909422
 20
2.4583098382
 30
0.0
 11
9.3408636462
 21
2.5553281572
 31
0.0
  0
LINE
  5
297
330
11D
100
AcDbEntity
  8
SLD-0
100
AcDbLine
 10
9.3408636462
 20
2.5553281572
 30
0.0
 11
9.3783113195
 21
2.6457348382
 31
0.0
  0
LINE
  5
298
330
11D
100
AcDbEntity
  8
SLD-0
100
AcDbLine
 10
9.3783113195
 20
2.6457348382
 30
0.0
 11
9.4378819652
 21
2.7233688151
 31
0.0
  0
LINE
  5
299
330
11D
100
AcDbEntity
  8
SLD-0
100
AcDbLine
 10
9.4378819652
 20
2.7233688151
 30
0.0
 11
9.5155159422
 21
2.7829394608
 31
0.0
  0
LINE
  5
29A
330
11D
100
AcDbEntity
  8
SLD-0
100
AcDbLine
 10
9.5155159422
 20
2.7829394608
 30
0.0
 11
9.6059226231
 21
2.8203871341
 31
0.0
  0
LINE
  5
29B
330
11D
100
AcDbEntity
  8
SLD-0
100
AcDbLine
 10
9.6059226231
 20
2.8203871341
 30
0.0
 11
9.7029409422
 21
2.8331598382
 31
0.0
  0
LINE
  5
29C
330
11D
100
AcDbEntity
  8
SLD-0
100
AcDbLine
 10
9.7029409422
 20
2.8331598382
 30
0.0
 11
9.7999592612
 21
2.8203871341
 31
0.0
  0
LINE
  5
29D
330
11D
100
AcDbEntity
  8
SLD-0
100
AcDbLine
 10
9.7999592612
 20
2.8203871341
 30
0.0
 11
9.8903659422
 21
2.7829394608
 31
0.0
  0
LINE
  5
29E
330
11D
100
AcDbEntity
  8
SLD-0
100
AcDbLine
 10
9.8903659422
 20
2.7829394608
 30
0.0
 11
9.9679999191
 21
2.7233688151
 31
0.0
  0
LINE
  5
29F
330
11D
100
AcDbEntity
  8
SLD-0
100
AcDbLine
 10
9.9679999191
 20
2.7233688151
 30
0.0
 11
10.0275705648
 21
2.6457348382
 31
0.0
  0
LINE
  5
2A0
330
11D
100
AcDbEntity
  8
SLD-0
100
AcDbLine
 10
10.0275705648
 20
2.6457348382
 30
0.0
 11
10.0650182381
 21
2.5553281572
 31
0.0
  0
LINE
  5
2A1
330
11D
100
AcDbEntity
  8
SLD-0
100
AcDbLine
 10
10.0650182381
 20
2.5553281572
 30
0.0
 11
10.0777909422
 21
2.4583098382
 31
0.0
  0
LINE
  5
2A2
330
11D
100
AcDbEntity
  8
SLD-0
100
AcDbLine
 10
10.0777909422
 20
2.4583098382
 30
0.0
 11
10.0650182381
 21
2.3612915191
 31
0.0
  0
LINE
  5
2A3
330
11D
100
AcDbEntity
  8
SLD-0
100
AcDbLine
 10
10.0650182381
 20
2.3612915191
 30
0.0
 11
10.0275705648
 21
2.2708848382
 31
0.0
  0
LINE
  5
2A4
330
11D
100
AcDbEntity
  8
SLD-0
100
AcDbLine
 10
10.0275705648
 20
2.2708848382
 30
0.0
 11
9.9679999191
 21
2.1932508612
 31
0.0
  0
LINE
  5
2A5
330
11D
100
AcDbEntity
  8
SLD-0
100
AcDbLine
 10
11.7261836896
 20
3.9514346318
 30
0.0
 11
11.6485497127
 21
3.8918639861
 31
0.0
  0
LINE
  5
2A6
330
11D
100
AcDbEntity
  8
SLD-0
100
AcDbLine
 10
11.6485497127
 20
3.8918639861
 30
0.0
 11
11.5581430318
 21
3.8544163127
 31
0.0
  0
LINE
  5
2A7
330
11D
100
AcDbEntity
  8
SLD-0
100
AcDbLine
 10
11.5581430318
 20
3.8544163127
 30
0.0
 11
11.4611247127
 21
3.8416436087
 31
0.0
  0
LINE
  5
2A8
330
11D
100
AcDbEntity
  8
SLD-0
100
AcDbLine
 10
11.4611247127
 20
3.8416436087
 30
0.0
 11
11.3641063936
 21
3.8544163127
 31
0.0
  0
LINE
  5
2A9
330
11D
100
AcDbEntity
  8
SLD-0
100
AcDbLine
 10
11.3641063936
 20
3.8544163127
 30
0.0
 11
11.2736997127
 21
3.8918639861
 31
0.0
  0
LINE
  5
2AA
330
11D
100
AcDbEntity
  8
SLD-0
100
AcDbLine
 10
11.2736997127
 20
3.8918639861
 30
0.0
 11
11.1960657358
 21
3.9514346318
 31
0.0
  0
LINE
  5
2AB
330
11D
100
AcDbEntity
  8
SLD-0
100
AcDbLine
 10
11.1960657358
 20
3.9514346318
 30
0.0
 11
11.1364950901
 21
4.0290686087
 31
0.0
  0
LINE
  5
2AC
330
11D
100
AcDbEntity
  8
SLD-0
100
AcDbLine
 10
11.1364950901
 20
4.0290686087
 30
0.0
 11
11.0990474167
 21
4.1194752897
 31
0.0
  0
LINE
  5
2AD
330
11D
100
AcDbEntity
  8
SLD-0
100
AcDbLine
 10
11.0990474167
 20
4.1194752897
 30
0.0
 11
11.0862747127
 21
4.2164936087
 31
0.0
  0
LINE
  5
2AE
330
11D
100
AcDbEntity
  8
SLD-0
100
AcDbLine
 10
11.0862747127
 20
4.2164936087
 30
0.0
 11
11.0990474167
 21
4.3135119278
 31
0.0
  0
LINE
  5
2AF
330
11D
100
AcDbEntity
  8
SLD-0
100
AcDbLine
 10
11.0990474167
 20
4.3135119278
 30
0.0
 11
11.1364950901
 21
4.4039186087
 31
0.0
  0
LINE
  5
2B0
330
11D
100
AcDbEntity
  8
SLD-0
100
AcDbLine
 10
11.1364950901
 20
4.4039186087
 30
0.0
 11
11.1960657358
 21
4.4815525856
 31
0.0
  0
LINE
  5
2B1
330
11D
100
AcDbEntity
  8
SLD-0
100
AcDbLine
 10
11.1960657358
 20
4.4815525856
 30
0.0
 11
11.2736997127
 21
4.5411232313
 31
0.0
  0
LINE
  5
2B2
330
11D
100
AcDbEntity
  8
SLD-0
100
AcDbLine
 10
11.2736997127
 20
4.5411232313
 30
0.0
 11
11.3641063936
 21
4.5785709047
 31
0.0
  0
LINE
  5
2B3
330
11D
100
AcDbEntity
  8
SLD-0
100
AcDbLine
 10
11.3641063936
 20
4.5785709047
 30
0.0
 11
11.4611247127
 21
4.5913436087
 31
0.0
  0
LINE
  5
2B4
330
11D
100
AcDbEntity
  8
SLD-0
100
AcDbLine
 10
11.4611247127
 20
4.5913436087
 30
0.0
 11
11.5581430318
 21
4.5785709047
 31
0.0
  0
LINE
  5
2B5
330
11D
100
AcDbEntity
  8
SLD-0
100
AcDbLine
 10
11.5581430318
 20
4.5785709047
 30
0.0
 11
11.6485497127
 21
4.5411232313
 31
0.0
  0
LINE
  5
2B6
330
11D
100
AcDbEntity
  8
SLD-0
100
AcDbLine
 10
11.6485497127
 20
4.5411232313
 30
0.0
 11
11.7261836896
 21
4.4815525856
 31
0.0
  0
LINE
  5
2B7
330
11D
100
AcDbEntity
  8
SLD-0
100
AcDbLine
 10
11.7261836896
 20
4.4815525856
 30
0.0
 11
11.7857543353
 21
4.4039186087
 31
0.0
  0
LINE
  5
2B8
330
11D
100
AcDbEntity
  8
SLD-0
100
AcDbLine
 10
11.7857543353
 20
4.4039186087
 30
0.0
 11
11.8232020087
 21
4.3135119278
 31
0.0
  0
LINE
  5
2B9
330
11D
100
AcDbEntity
  8
SLD-0
100
AcDbLine
 10
11.8232020087
 20
4.3135119278
 30
0.0
 11
11.8359747127
 21
4.2164936087
 31
0.0
  0
LINE
  5
2BA
330
11D
100
AcDbEntity
  8
SLD-0
100
AcDbLine
 10
11.8359747127
 20
4.2164936087
 30
0.0
 11
11.8232020087
 21
4.1194752897
 31
0.0
  0
LINE
  5
2BB
330
11D
100
AcDbEntity
  8
SLD-0
100
AcDbLine
 10
11.8232020087
 20
4.1194752897
 30
0.0
 11
11.7857543353
 21
4.0290686087
 31
0.0
  0
LINE
  5
2BC
330
11D
100
AcDbEntity
  8
SLD-0
100
AcDbLine
 10
11.7857543353
 20
4.0290686087
 30
0.0
 11
11.7261836896
 21
3.9514346318
 31
0.0
  0
LINE
  5
2BD
330
11D
100
AcDbEntity
  8
SLD-0
100
AcDbLine
 10
11.1364950901
 20
6.5155159422
 30
0.0
 11
11.0990474167
 21
6.6059226231
 31
0.0
  0
LINE
  5
2BE
330
11D
100
AcDbEntity
  8
SLD-0
100
AcDbLine
 10
11.0990474167
 20
6.6059226231
 30
0.0
 11
11.0862747127
 21
6.7029409422
 31
0.0
  0
LINE
  5
2BF
330
11D
100
AcDbEntity
  8
SLD-0
100
AcDbLine
 10
11.0862747127
 20
6.7029409422
 30
0.0
 11
11.0990474167
 21
6.7999592612
 31
0.0
  0
LINE
  5
2C0
330
11D
100
AcDbEntity
  8
SLD-0
100
AcDbLine
 10
11.0990474167
 20
6.7999592612
 30
0.0
 11
11.1364950901
 21
6.8903659422
 31
0.0
  0
LINE
  5
2C1
330
11D
100
AcDbEntity
  8
SLD-0
100
AcDbLine
 10
11.1364950901
 20
6.8903659422
 30
0.0
 11
11.1960657358
 21
6.9679999191
 31
0.0
  0
LINE
  5
2C2
330
11D
100
AcDbEntity
  8
SLD-0
100
AcDbLine
 10
11.1960657358
 20
6.9679999191
 30
0.0
 11
11.2736997127
 21
7.0275705648
 31
0.0
  0
LINE
  5
2C3
330
11D
100
AcDbEntity
  8
SLD-0
100
AcDbLine
 10
11.2736997127
 20
7.0275705648
 30
0.0
 11
11.3641063936
 21
7.0650182381
 31
0.0
  0
LINE
  5
2C4
330
11D
100
AcDbEntity
  8
SLD-0
100
AcDbLine
 10
11.3641063936
 20
7.0650182381
 30
0.0
 11
11.4611247127
 21
7.0777909422
 31
0.0
  0
LINE
  5
2C5
330
11D
100
AcDbEntity
  8
SLD-0
100
AcDbLine
 10
11.4611247127
 20
7.0777909422
 30
0.0
 11
11.5581430318
 21
7.0650182381
 31
0.0
  0
LINE
  5
2C6
330
11D
100
AcDbEntity
  8
SLD-0
100
AcDbLine
 10
11.5581430318
 20
7.0650182381
 30
0.0
 11
11.6485497127
 21
7.0275705648
 31
0.0
  0
LINE
  5
2C7
330
11D
100
AcDbEntity
  8
SLD-0
100
AcDbLine
 10
11.6485497127
 20
7.0275705648
 30
0.0
 11
11.7261836896
 21
6.9679999191
 31
0.0
  0
LINE
  5
2C8
330
11D
100
AcDbEntity
  8
SLD-0
100
AcDbLine
 10
11.7261836896
 20
6.9679999191
 30
0.0
 11
11.7857543353
 21
6.8903659422
 31
0.0
  0
LINE
  5
2C9
330
11D
100
AcDbEntity
  8
SLD-0
100
AcDbLine
 10
11.7857543353
 20
6.8903659422
 30
0.0
 11
11.8232020087
 21
6.7999592612
 31
0.0
  0
LINE
  5
2CA
330
11D
100
AcDbEntity
  8
SLD-0
100
AcDbLine
 10
11.8232020087
 20
6.7999592612
 30
0.0
 11
11.8359747127
 21
6.7029409422
 31
0.0
  0
LINE
  5
2CB
330
11D
100
AcDbEntity
  8
SLD-0
100
AcDbLine
 10
11.8359747127
 20
6.7029409422
 30
0.0
 11
11.8232020087
 21
6.6059226231
 31
0.0
  0
LINE
  5
2CC
330
11D
100
AcDbEntity
  8
SLD-0
100
AcDbLine
 10
11.8232020087
 20
6.6059226231
 30
0.0
 11
11.7857543353
 21
6.5155159422
 31
0.0
  0
LINE
  5
2CD
330
11D
100
AcDbEntity
  8
SLD-0
100
AcDbLine
 10
11.7857543353
 20
6.5155159422
 30
0.0
 11
11.7261836896
 21
6.4378819652
 31
0.0
  0
LINE
  5
2CE
330
11D
100
AcDbEntity
  8
SLD-0
100
AcDbLine
 10
11.7261836896
 20
6.4378819652
 30
0.0
 11
11.6485497127
 21
6.3783113195
 31
0.0
  0
LINE
  5
2CF
330
11D
100
AcDbEntity
  8
SLD-0
100
AcDbLine
 10
11.6485497127
 20
6.3783113195
 30
0.0
 11
11.5581430318
 21
6.3408636462
 31
0.0
  0
LINE
  5
2D0
330
11D
100
AcDbEntity
  8
SLD-0
100
AcDbLine
 10
11.5581430318
 20
6.3408636462
 30
0.0
 11
11.4611247127
 21
6.3280909422
 31
0.0
  0
LINE
  5
2D1
330
11D
100
AcDbEntity
  8
SLD-0
100
AcDbLine
 10
11.4611247127
 20
6.3280909422
 30
0.0
 11
11.3641063936
 21
6.3408636462
 31
0.0
  0
LINE
  5
2D2
330
11D
100
AcDbEntity
  8
SLD-0
100
AcDbLine
 10
11.3641063936
 20
6.3408636462
 30
0.0
 11
11.2736997127
 21
6.3783113195
 31
0.0
  0
LINE
  5
2D3
330
11D
100
AcDbEntity
  8
SLD-0
100
AcDbLine
 10
11.2736997127
 20
6.3783113195
 30
0.0
 11
11.1960657358
 21
6.4378819652
 31
0.0
  0
LINE
  5
2D4
330
11D
100
AcDbEntity
  8
SLD-0
100
AcDbLine
 10
11.1960657358
 20
6.4378819652
 30
0.0
 11
11.1364950901
 21
6.5155159422
 31
0.0
  0
LINE
  5
2D5
330
11D
100
AcDbEntity
  8
SLD-0
100
AcDbLine
 10
8.4942104698
 20
3.4593206295
 30
0.0
 11
8.4942104698
 21
3.936336729
 31
0.0
  0
LINE
  5
2D6
330
11D
100
AcDbEntity
  8
SLD-0
100
AcDbLine
 10
8.4942104698
 20
6.9905706295
 30
0.0
 11
8.4942104698
 21
7.4593206295
 31
0.0
  0
LINE
  5
2D7
330
11D
100
AcDbEntity
  8
SLD-0
100
AcDbLine
 10
8.4942104698
 20
6.9905706295
 30
0.0
 11
8.4942104698
 21
7.4593206295
 31
0.0
  0
LINE
  5
2D8
330
11D
100
AcDbEntity
  8
SLD-0
100
AcDbLine
 10
11.1960657358
 20
6.4378819652
 30
0.0
 11
11.1364950901
 21
6.5155159422
 31
0.0
  0
LINE
  5
2D9
330
11D
100
AcDbEntity
  8
SLD-0
100
AcDbLine
 10
11.1364950901
 20
6.5155159422
 30
0.0
 11
11.1960657358
 21
6.4378819652
 31
0.0
  0
LINE
  5
2DA
330
11D
100
AcDbEntity
  8
SLD-0
100
AcDbLine
 10
11.1960657358
 20
6.4378819652
 30
0.0
 11
11.2736997127
 21
6.3783113195
 31
0.0
  0
LINE
  5
2DB
330
11D
100
AcDbEntity
  8
SLD-0
100
AcDbLine
 10
11.2736997127
 20
6.3783113195
 30
0.0
 11
11.1960657358
 21
6.4378819652
 31
0.0
  0
LINE
  5
2DC
330
11D
100
AcDbEntity
  8
SLD-0
100
AcDbLine
 10
11.2736997127
 20
6.3783113195
 30
0.0
 11
11.3641063936
 21
6.3408636462
 31
0.0
  0
LINE
  5
2DD
330
11D
100
AcDbEntity
  8
SLD-0
100
AcDbLine
 10
11.3641063936
 20
6.3408636462
 30
0.0
 11
11.2736997127
 21
6.3783113195
 31
0.0
  0
LINE
  5
2DE
330
11D
100
AcDbEntity
  8
SLD-0
100
AcDbLine
 10
11.3641063936
 20
6.3408636462
 30
0.0
 11
11.4611247127
 21
6.3280909422
 31
0.0
  0
LINE
  5
2DF
330
11D
100
AcDbEntity
  8
SLD-0
100
AcDbLine
 10
11.4611247127
 20
6.3280909422
 30
0.0
 11
11.3641063936
 21
6.3408636462
 31
0.0
  0
LINE
  5
2E0
330
11D
100
AcDbEntity
  8
SLD-0
100
AcDbLine
 10
11.4611247127
 20
6.3280909422
 30
0.0
 11
11.5581430318
 21
6.3408636462
 31
0.0
  0
LINE
  5
2E1
330
11D
100
AcDbEntity
  8
SLD-0
100
AcDbLine
 10
11.5581430318
 20
6.3408636462
 30
0.0
 11
11.4611247127
 21
6.3280909422
 31
0.0
  0
LINE
  5
2E2
330
11D
100
AcDbEntity
  8
SLD-0
100
AcDbLine
 10
11.5581430318
 20
6.3408636462
 30
0.0
 11
11.6485497127
 21
6.3783113195
 31
0.0
  0
LINE
  5
2E3
330
11D
100
AcDbEntity
  8
SLD-0
100
AcDbLine
 10
11.6485497127
 20
6.3783113195
 30
0.0
 11
11.5581430318
 21
6.3408636462
 31
0.0
  0
LINE
  5
2E4
330
11D
100
AcDbEntity
  8
SLD-0
100
AcDbLine
 10
11.6485497127
 20
6.3783113195
 30
0.0
 11
11.7261836896
 21
6.4378819652
 31
0.0
  0
LINE
  5
2E5
330
11D
100
AcDbEntity
  8
SLD-0
100
AcDbLine
 10
11.7261836896
 20
6.4378819652
 30
0.0
 11
11.6485497127
 21
6.3783113195
 31
0.0
  0
LINE
  5
2E6
330
11D
100
AcDbEntity
  8
SLD-0
100
AcDbLine
 10
11.7261836896
 20
6.4378819652
 30
0.0
 11
11.7857543353
 21
6.5155159422
 31
0.0
  0
LINE
  5
2E7
330
11D
100
AcDbEntity
  8
SLD-0
100
AcDbLine
 10
11.7857543353
 20
6.5155159422
 30
0.0
 11
11.7261836896
 21
6.4378819652
 31
0.0
  0
LINE
  5
2E8
330
11D
100
AcDbEntity
  8
SLD-0
100
AcDbLine
 10
11.7857543353
 20
6.5155159422
 30
0.0
 11
11.8232020087
 21
6.6059226231
 31
0.0
  0
LINE
  5
2E9
330
11D
100
AcDbEntity
  8
SLD-0
100
AcDbLine
 10
11.8232020087
 20
6.6059226231
 30
0.0
 11
11.7857543353
 21
6.5155159422
 31
0.0
  0
LINE
  5
2EA
330
11D
100
AcDbEntity
  8
SLD-0
100
AcDbLine
 10
11.8232020087
 20
6.6059226231
 30
0.0
 11
11.8359747127
 21
6.7029409422
 31
0.0
  0
LINE
  5
2EB
330
11D
100
AcDbEntity
  8
SLD-0
100
AcDbLine
 10
11.8359747127
 20
6.7029409422
 30
0.0
 11
11.8232020087
 21
6.6059226231
 31
0.0
  0
LINE
  5
2EC
330
11D
100
AcDbEntity
  8
SLD-0
100
AcDbLine
 10
11.8359747127
 20
6.7029409422
 30
0.0
 11
11.8232020087
 21
6.7999592612
 31
0.0
  0
LINE
  5
2ED
330
11D
100
AcDbEntity
  8
SLD-0
100
AcDbLine
 10
11.8232020087
 20
6.7999592612
 30
0.0
 11
11.8359747127
 21
6.7029409422
 31
0.0
  0
LINE
  5
2EE
330
11D
100
AcDbEntity
  8
SLD-0
100
AcDbLine
 10
11.8232020087
 20
6.7999592612
 30
0.0
 11
11.7857543353
 21
6.8903659422
 31
0.0
  0
LINE
  5
2EF
330
11D
100
AcDbEntity
  8
SLD-0
100
AcDbLine
 10
11.7857543353
 20
6.8903659422
 30
0.0
 11
11.8232020087
 21
6.7999592612
 31
0.0
  0
LINE
  5
2F0
330
11D
100
AcDbEntity
  8
SLD-0
100
AcDbLine
 10
11.7857543353
 20
6.8903659422
 30
0.0
 11
11.7261836896
 21
6.9679999191
 31
0.0
  0
LINE
  5
2F1
330
11D
100
AcDbEntity
  8
SLD-0
100
AcDbLine
 10
11.7261836896
 20
6.9679999191
 30
0.0
 11
11.7857543353
 21
6.8903659422
 31
0.0
  0
LINE
  5
2F2
330
11D
100
AcDbEntity
  8
SLD-0
100
AcDbLine
 10
11.7261836896
 20
6.9679999191
 30
0.0
 11
11.6485497127
 21
7.0275705648
 31
0.0
  0
LINE
  5
2F3
330
11D
100
AcDbEntity
  8
SLD-0
100
AcDbLine
 10
11.6485497127
 20
7.0275705648
 30
0.0
 11
11.7261836896
 21
6.9679999191
 31
0.0
  0
LINE
  5
2F4
330
11D
100
AcDbEntity
  8
SLD-0
100
AcDbLine
 10
11.6485497127
 20
7.0275705648
 30
0.0
 11
11.5581430318
 21
7.0650182381
 31
0.0
  0
LINE
  5
2F5
330
11D
100
AcDbEntity
  8
SLD-0
100
AcDbLine
 10
11.5581430318
 20
7.0650182381
 30
0.0
 11
11.6485497127
 21
7.0275705648
 31
0.0
  0
LINE
  5
2F6
330
11D
100
AcDbEntity
  8
SLD-0
100
AcDbLine
 10
11.5581430318
 20
7.0650182381
 30
0.0
 11
11.4611247127
 21
7.0777909422
 31
0.0
  0
LINE
  5
2F7
330
11D
100
AcDbEntity
  8
SLD-0
100
AcDbLine
 10
11.4611247127
 20
7.0777909422
 30
0.0
 11
11.5581430318
 21
7.0650182381
 31
0.0
  0
LINE
  5
2F8
330
11D
100
AcDbEntity
  8
SLD-0
100
AcDbLine
 10
11.4611247127
 20
7.0777909422
 30
0.0
 11
11.3641063936
 21
7.0650182381
 31
0.0
  0
LINE
  5
2F9
330
11D
100
AcDbEntity
  8
SLD-0
100
AcDbLine
 10
11.3641063936
 20
7.0650182381
 30
0.0
 11
11.4611247127
 21
7.0777909422
 31
0.0
  0
LINE
  5
2FA
330
11D
100
AcDbEntity
  8
SLD-0
100
AcDbLine
 10
11.3641063936
 20
7.0650182381
 30
0.0
 11
11.2736997127
 21
7.0275705648
 31
0.0
  0
LINE
  5
2FB
330
11D
100
AcDbEntity
  8
SLD-0
100
AcDbLine
 10
11.2736997127
 20
7.0275705648
 30
0.0
 11
11.3641063936
 21
7.0650182381
 31
0.0
  0
LINE
  5
2FC
330
11D
100
AcDbEntity
  8
SLD-0
100
AcDbLine
 10
11.2736997127
 20
7.0275705648
 30
0.0
 11
11.1960657358
 21
6.9679999191
 31
0.0
  0
LINE
  5
2FD
330
11D
100
AcDbEntity
  8
SLD-0
100
AcDbLine
 10
11.1960657358
 20
6.9679999191
 30
0.0
 11
11.2736997127
 21
7.0275705648
 31
0.0
  0
LINE
  5
2FE
330
11D
100
AcDbEntity
  8
SLD-0
100
AcDbLine
 10
11.1364950901
 20
6.8903659422
 30
0.0
 11
11.1960657358
 21
6.9679999191
 31
0.0
  0
LINE
  5
2FF
330
11D
100
AcDbEntity
  8
SLD-0
100
AcDbLine
 10
11.1960657358
 20
6.9679999191
 30
0.0
 11
11.1364950901
 21
6.8903659422
 31
0.0
  0
LINE
  5
300
330
11D
100
AcDbEntity
  8
SLD-0
100
AcDbLine
 10
11.0990474167
 20
6.7999592612
 30
0.0
 11
11.1364950901
 21
6.8903659422
 31
0.0
  0
LINE
  5
301
330
11D
100
AcDbEntity
  8
SLD-0
100
AcDbLine
 10
11.1364950901
 20
6.8903659422
 30
0.0
 11
11.0990474167
 21
6.7999592612
 31
0.0
  0
LINE
  5
302
330
11D
100
AcDbEntity
  8
SLD-0
100
AcDbLine
 10
11.0862747127
 20
6.7029409422
 30
0.0
 11
11.0990474167
 21
6.7999592612
 31
0.0
  0
LINE
  5
303
330
11D
100
AcDbEntity
  8
SLD-0
100
AcDbLine
 10
11.0990474167
 20
6.7999592612
 30
0.0
 11
11.0862747127
 21
6.7029409422
 31
0.0
  0
LINE
  5
304
330
11D
100
AcDbEntity
  8
SLD-0
100
AcDbLine
 10
11.0990474167
 20
6.6059226231
 30
0.0
 11
11.0862747127
 21
6.7029409422
 31
0.0
  0
LINE
  5
305
330
11D
100
AcDbEntity
  8
SLD-0
100
AcDbLine
 10
11.0862747127
 20
6.7029409422
 30
0.0
 11
11.0990474167
 21
6.6059226231
 31
0.0
  0
LINE
  5
306
330
11D
100
AcDbEntity
  8
SLD-0
100
AcDbLine
 10
11.1364950901
 20
6.5155159422
 30
0.0
 11
11.0990474167
 21
6.6059226231
 31
0.0
  0
LINE
  5
307
330
11D
100
AcDbEntity
  8
SLD-0
100
AcDbLine
 10
11.0990474167
 20
6.6059226231
 30
0.0
 11
11.1364950901
 21
6.5155159422
 31
0.0
  0
LINE
  5
308
330
11D
100
AcDbEntity
  8
SLD-0
100
AcDbLine
 10
11.7261836896
 20
3.9514346318
 30
0.0
 11
11.7857543353
 21
4.0290686087
 31
0.0
  0
LINE
  5
309
330
11D
100
AcDbEntity
  8
SLD-0
100
AcDbLine
 10
11.7857543353
 20
4.0290686087
 30
0.0
 11
11.7261836896
 21
3.9514346318
 31
0.0
  0
LINE
  5
30A
330
11D
100
AcDbEntity
  8
SLD-0
100
AcDbLine
 10
11.7857543353
 20
4.0290686087
 30
0.0
 11
11.8232020087
 21
4.1194752897
 31
0.0
  0
LINE
  5
30B
330
11D
100
AcDbEntity
  8
SLD-0
100
AcDbLine
 10
11.8232020087
 20
4.1194752897
 30
0.0
 11
11.7857543353
 21
4.0290686087
 31
0.0
  0
LINE
  5
30C
330
11D
100
AcDbEntity
  8
SLD-0
100
AcDbLine
 10
11.8232020087
 20
4.1194752897
 30
0.0
 11
11.8359747127
 21
4.2164936087
 31
0.0
  0
LINE
  5
30D
330
11D
100
AcDbEntity
  8
SLD-0
100
AcDbLine
 10
11.8359747127
 20
4.2164936087
 30
0.0
 11
11.8232020087
 21
4.1194752897
 31
0.0
  0
LINE
  5
30E
330
11D
100
AcDbEntity
  8
SLD-0
100
AcDbLine
 10
11.8359747127
 20
4.2164936087
 30
0.0
 11
11.8232020087
 21
4.3135119278
 31
0.0
  0
LINE
  5
30F
330
11D
100
AcDbEntity
  8
SLD-0
100
AcDbLine
 10
11.8232020087
 20
4.3135119278
 30
0.0
 11
11.8359747127
 21
4.2164936087
 31
0.0
  0
LINE
  5
310
330
11D
100
AcDbEntity
  8
SLD-0
100
AcDbLine
 10
11.8232020087
 20
4.3135119278
 30
0.0
 11
11.7857543353
 21
4.4039186087
 31
0.0
  0
LINE
  5
311
330
11D
100
AcDbEntity
  8
SLD-0
100
AcDbLine
 10
11.7857543353
 20
4.4039186087
 30
0.0
 11
11.8232020087
 21
4.3135119278
 31
0.0
  0
LINE
  5
312
330
11D
100
AcDbEntity
  8
SLD-0
100
AcDbLine
 10
11.7857543353
 20
4.4039186087
 30
0.0
 11
11.7261836896
 21
4.4815525856
 31
0.0
  0
LINE
  5
313
330
11D
100
AcDbEntity
  8
SLD-0
100
AcDbLine
 10
11.7261836896
 20
4.4815525856
 30
0.0
 11
11.7857543353
 21
4.4039186087
 31
0.0
  0
LINE
  5
314
330
11D
100
AcDbEntity
  8
SLD-0
100
AcDbLine
 10
11.7261836896
 20
4.4815525856
 30
0.0
 11
11.6485497127
 21
4.5411232313
 31
0.0
  0
LINE
  5
315
330
11D
100
AcDbEntity
  8
SLD-0
100
AcDbLine
 10
11.6485497127
 20
4.5411232313
 30
0.0
 11
11.7261836896
 21
4.4815525856
 31
0.0
  0
LINE
  5
316
330
11D
100
AcDbEntity
  8
SLD-0
100
AcDbLine
 10
11.6485497127
 20
4.5411232313
 30
0.0
 11
11.5581430318
 21
4.5785709047
 31
0.0
  0
LINE
  5
317
330
11D
100
AcDbEntity
  8
SLD-0
100
AcDbLine
 10
11.5581430318
 20
4.5785709047
 30
0.0
 11
11.6485497127
 21
4.5411232313
 31
0.0
  0
LINE
  5
318
330
11D
100
AcDbEntity
  8
SLD-0
100
AcDbLine
 10
11.5581430318
 20
4.5785709047
 30
0.0
 11
11.4611247127
 21
4.5913436087
 31
0.0
  0
LINE
  5
319
330
11D
100
AcDbEntity
  8
SLD-0
100
AcDbLine
 10
11.4611247127
 20
4.5913436087
 30
0.0
 11
11.5581430318
 21
4.5785709047
 31
0.0
  0
LINE
  5
31A
330
11D
100
AcDbEntity
  8
SLD-0
100
AcDbLine
 10
11.4611247127
 20
4.5913436087
 30
0.0
 11
11.3641063936
 21
4.5785709047
 31
0.0
  0
LINE
  5
31B
330
11D
100
AcDbEntity
  8
SLD-0
100
AcDbLine
 10
11.3641063936
 20
4.5785709047
 30
0.0
 11
11.4611247127
 21
4.5913436087
 31
0.0
  0
LINE
  5
31C
330
11D
100
AcDbEntity
  8
SLD-0
100
AcDbLine
 10
11.3641063936
 20
4.5785709047
 30
0.0
 11
11.2736997127
 21
4.5411232313
 31
0.0
  0
LINE
  5
31D
330
11D
100
AcDbEntity
  8
SLD-0
100
AcDbLine
 10
11.2736997127
 20
4.5411232313
 30
0.0
 11
11.3641063936
 21
4.5785709047
 31
0.0
  0
LINE
  5
31E
330
11D
100
AcDbEntity
  8
SLD-0
100
AcDbLine
 10
11.2736997127
 20
4.5411232313
 30
0.0
 11
11.1960657358
 21
4.4815525856
 31
0.0
  0
LINE
  5
31F
330
11D
100
AcDbEntity
  8
SLD-0
100
AcDbLine
 10
11.1960657358
 20
4.4815525856
 30
0.0
 11
11.2736997127
 21
4.5411232313
 31
0.0
  0
LINE
  5
320
330
11D
100
AcDbEntity
  8
SLD-0
100
AcDbLine
 10
11.1364950901
 20
4.4039186087
 30
0.0
 11
11.1960657358
 21
4.4815525856
 31
0.0
  0
LINE
  5
321
330
11D
100
AcDbEntity
  8
SLD-0
100
AcDbLine
 10
11.1960657358
 20
4.4815525856
 30
0.0
 11
11.1364950901
 21
4.4039186087
 31
0.0
  0
LINE
  5
322
330
11D
100
AcDbEntity
  8
SLD-0
100
AcDbLine
 10
11.0990474167
 20
4.3135119278
 30
0.0
 11
11.1364950901
 21
4.4039186087
 31
0.0
  0
LINE
  5
323
330
11D
100
AcDbEntity
  8
SLD-0
100
AcDbLine
 10
11.1364950901
 20
4.4039186087
 30
0.0
 11
11.0990474167
 21
4.3135119278
 31
0.0
  0
LINE
  5
324
330
11D
100
AcDbEntity
  8
SLD-0
100
AcDbLine
 10
11.0862747127
 20
4.2164936087
 30
0.0
 11
11.0990474167
 21
4.3135119278
 31
0.0
  0
LINE
  5
325
330
11D
100
AcDbEntity
  8
SLD-0
100
AcDbLine
 10
11.0990474167
 20
4.3135119278
 30
0.0
 11
11.0862747127
 21
4.2164936087
 31
0.0
  0
LINE
  5
326
330
11D
100
AcDbEntity
  8
SLD-0
100
AcDbLine
 10
11.0990474167
 20
4.1194752897
 30
0.0
 11
11.0862747127
 21
4.2164936087
 31
0.0
  0
LINE
  5
327
330
11D
100
AcDbEntity
  8
SLD-0
100
AcDbLine
 10
11.0862747127
 20
4.2164936087
 30
0.0
 11
11.0990474167
 21
4.1194752897
 31
0.0
  0
LINE
  5
328
330
11D
100
AcDbEntity
  8
SLD-0
100
AcDbLine
 10
11.1364950901
 20
4.0290686087
 30
0.0
 11
11.0990474167
 21
4.1194752897
 31
0.0
  0
LINE
  5
329
330
11D
100
AcDbEntity
  8
SLD-0
100
AcDbLine
 10
11.0990474167
 20
4.1194752897
 30
0.0
 11
11.1364950901
 21
4.0290686087
 31
0.0
  0
LINE
  5
32A
330
11D
100
AcDbEntity
  8
SLD-0
100
AcDbLine
 10
11.1960657358
 20
3.9514346318
 30
0.0
 11
11.1364950901
 21
4.0290686087
 31
0.0
  0
LINE
  5
32B
330
11D
100
AcDbEntity
  8
SLD-0
100
AcDbLine
 10
11.1364950901
 20
4.0290686087
 30
0.0
 11
11.1960657358
 21
3.9514346318
 31
0.0
  0
LINE
  5
32C
330
11D
100
AcDbEntity
  8
SLD-0
100
AcDbLine
 10
11.1960657358
 20
3.9514346318
 30
0.0
 11
11.2736997127
 21
3.8918639861
 31
0.0
  0
LINE
  5
32D
330
11D
100
AcDbEntity
  8
SLD-0
100
AcDbLine
 10
11.2736997127
 20
3.8918639861
 30
0.0
 11
11.1960657358
 21
3.9514346318
 31
0.0
  0
LINE
  5
32E
330
11D
100
AcDbEntity
  8
SLD-0
100
AcDbLine
 10
11.2736997127
 20
3.8918639861
 30
0.0
 11
11.3641063936
 21
3.8544163127
 31
0.0
  0
LINE
  5
32F
330
11D
100
AcDbEntity
  8
SLD-0
100
AcDbLine
 10
11.3641063936
 20
3.8544163127
 30
0.0
 11
11.2736997127
 21
3.8918639861
 31
0.0
  0
LINE
  5
330
330
11D
100
AcDbEntity
  8
SLD-0
100
AcDbLine
 10
11.3641063936
 20
3.8544163127
 30
0.0
 11
11.4611247127
 21
3.8416436087
 31
0.0
  0
LINE
  5
331
330
11D
100
AcDbEntity
  8
SLD-0
100
AcDbLine
 10
11.4611247127
 20
3.8416436087
 30
0.0
 11
11.3641063936
 21
3.8544163127
 31
0.0
  0
LINE
  5
332
330
11D
100
AcDbEntity
  8
SLD-0
100
AcDbLine
 10
11.4611247127
 20
3.8416436087
 30
0.0
 11
11.5581430318
 21
3.8544163127
 31
0.0
  0
LINE
  5
333
330
11D
100
AcDbEntity
  8
SLD-0
100
AcDbLine
 10
11.5581430318
 20
3.8544163127
 30
0.0
 11
11.4611247127
 21
3.8416436087
 31
0.0
  0
LINE
  5
334
330
11D
100
AcDbEntity
  8
SLD-0
100
AcDbLine
 10
11.5581430318
 20
3.8544163127
 30
0.0
 11
11.6485497127
 21
3.8918639861
 31
0.0
  0
LINE
  5
335
330
11D
100
AcDbEntity
  8
SLD-0
100
AcDbLine
 10
11.6485497127
 20
3.8918639861
 30
0.0
 11
11.5581430318
 21
3.8544163127
 31
0.0
  0
LINE
  5
336
330
11D
100
AcDbEntity
  8
SLD-0
100
AcDbLine
 10
11.6485497127
 20
3.8918639861
 30
0.0
 11
11.7261836896
 21
3.9514346318
 31
0.0
  0
LINE
  5
337
330
11D
100
AcDbEntity
  8
SLD-0
100
AcDbLine
 10
11.7261836896
 20
3.9514346318
 30
0.0
 11
11.6485497127
 21
3.8918639861
 31
0.0
  0
LINE
  5
338
330
11D
100
AcDbEntity
  8
SLD-0
100
AcDbLine
 10
9.9679999191
 20
2.1932508612
 30
0.0
 11
10.0275705648
 21
2.2708848382
 31
0.0
  0
LINE
  5
339
330
11D
100
AcDbEntity
  8
SLD-0
100
AcDbLine
 10
10.0275705648
 20
2.2708848382
 30
0.0
 11
9.9679999191
 21
2.1932508612
 31
0.0
  0
LINE
  5
33A
330
11D
100
AcDbEntity
  8
SLD-0
100
AcDbLine
 10
10.0275705648
 20
2.2708848382
 30
0.0
 11
10.0650182381
 21
2.3612915191
 31
0.0
  0
LINE
  5
33B
330
11D
100
AcDbEntity
  8
SLD-0
100
AcDbLine
 10
10.0650182381
 20
2.3612915191
 30
0.0
 11
10.0275705648
 21
2.2708848382
 31
0.0
  0
LINE
  5
33C
330
11D
100
AcDbEntity
  8
SLD-0
100
AcDbLine
 10
10.0650182381
 20
2.3612915191
 30
0.0
 11
10.0777909422
 21
2.4583098382
 31
0.0
  0
LINE
  5
33D
330
11D
100
AcDbEntity
  8
SLD-0
100
AcDbLine
 10
10.0777909422
 20
2.4583098382
 30
0.0
 11
10.0650182381
 21
2.3612915191
 31
0.0
  0
LINE
  5
33E
330
11D
100
AcDbEntity
  8
SLD-0
100
AcDbLine
 10
10.0777909422
 20
2.4583098382
 30
0.0
 11
10.0650182381
 21
2.5553281572
 31
0.0
  0
LINE
  5
33F
330
11D
100
AcDbEntity
  8
SLD-0
100
AcDbLine
 10
10.0650182381
 20
2.5553281572
 30
0.0
 11
10.0777909422
 21
2.4583098382
 31
0.0
  0
LINE
  5
340
330
11D
100
AcDbEntity
  8
SLD-0
100
AcDbLine
 10
10.0650182381
 20
2.5553281572
 30
0.0
 11
10.0275705648
 21
2.6457348382
 31
0.0
  0
LINE
  5
341
330
11D
100
AcDbEntity
  8
SLD-0
100
AcDbLine
 10
10.0275705648
 20
2.6457348382
 30
0.0
 11
10.0650182381
 21
2.5553281572
 31
0.0
  0
LINE
  5
342
330
11D
100
AcDbEntity
  8
SLD-0
100
AcDbLine
 10
10.0275705648
 20
2.6457348382
 30
0.0
 11
9.9679999191
 21
2.7233688151
 31
0.0
  0
LINE
  5
343
330
11D
100
AcDbEntity
  8
SLD-0
100
AcDbLine
 10
9.9679999191
 20
2.7233688151
 30
0.0
 11
10.0275705648
 21
2.6457348382
 31
0.0
  0
LINE
  5
344
330
11D
100
AcDbEntity
  8
SLD-0
100
AcDbLine
 10
9.9679999191
 20
2.7233688151
 30
0.0
 11
9.8903659422
 21
2.7829394608
 31
0.0
  0
LINE
  5
345
330
11D
100
AcDbEntity
  8
SLD-0
100
AcDbLine
 10
9.8903659422
 20
2.7829394608
 30
0.0
 11
9.9679999191
 21
2.7233688151
 31
0.0
  0
LINE
  5
346
330
11D
100
AcDbEntity
  8
SLD-0
100
AcDbLine
 10
9.8903659422
 20
2.7829394608
 30
0.0
 11
9.7999592612
 21
2.8203871341
 31
0.0
  0
LINE
  5
347
330
11D
100
AcDbEntity
  8
SLD-0
100
AcDbLine
 10
9.7999592612
 20
2.8203871341
 30
0.0
 11
9.8903659422
 21
2.7829394608
 31
0.0
  0
LINE
  5
348
330
11D
100
AcDbEntity
  8
SLD-0
100
AcDbLine
 10
9.7999592612
 20
2.8203871341
 30
0.0
 11
9.7029409422
 21
2.8331598382
 31
0.0
  0
LINE
  5
349
330
11D
100
AcDbEntity
  8
SLD-0
100
AcDbLine
 10
9.7029409422
 20
2.8331598382
 30
0.0
 11
9.7999592612
 21
2.8203871341
 31
0.0
  0
LINE
  5
34A
330
11D
100
AcDbEntity
  8
SLD-0
100
AcDbLine
 10
9.7029409422
 20
2.8331598382
 30
0.0
 11
9.6059226231
 21
2.8203871341
 31
0.0
  0
LINE
  5
34B
330
11D
100
AcDbEntity
  8
SLD-0
100
AcDbLine
 10
9.6059226231
 20
2.8203871341
 30
0.0
 11
9.7029409422
 21
2.8331598382
 31
0.0
  0
LINE
  5
34C
330
11D
100
AcDbEntity
  8
SLD-0
100
AcDbLine
 10
9.6059226231
 20
2.8203871341
 30
0.0
 11
9.5155159422
 21
2.7829394608
 31
0.0
  0
LINE
  5
34D
330
11D
100
AcDbEntity
  8
SLD-0
100
AcDbLine
 10
9.5155159422
 20
2.7829394608
 30
0.0
 11
9.6059226231
 21
2.8203871341
 31
0.0
  0
LINE
  5
34E
330
11D
100
AcDbEntity
  8
SLD-0
100
AcDbLine
 10
9.5155159422
 20
2.7829394608
 30
0.0
 11
9.4378819652
 21
2.7233688151
 31
0.0
  0
LINE
  5
34F
330
11D
100
AcDbEntity
  8
SLD-0
100
AcDbLine
 10
9.4378819652
 20
2.7233688151
 30
0.0
 11
9.5155159422
 21
2.7829394608
 31
0.0
  0
LINE
  5
350
330
11D
100
AcDbEntity
  8
SLD-0
100
AcDbLine
 10
9.3783113195
 20
2.6457348382
 30
0.0
 11
9.4378819652
 21
2.7233688151
 31
0.0
  0
LINE
  5
351
330
11D
100
AcDbEntity
  8
SLD-0
100
AcDbLine
 10
9.4378819652
 20
2.7233688151
 30
0.0
 11
9.3783113195
 21
2.6457348382
 31
0.0
  0
LINE
  5
352
330
11D
100
AcDbEntity
  8
SLD-0
100
AcDbLine
 10
5.2708848382
 20
7.0275705648
 30
0.0
 11
5.1932508612
 21
6.9679999191
 31
0.0
  0
LINE
  5
353
330
11D
100
AcDbEntity
  8
SLD-0
100
AcDbLine
 10
5.1932508612
 20
6.9679999191
 30
0.0
 11
5.2708848382
 21
7.0275705648
 31
0.0
  0
LINE
  5
354
330
11D
100
AcDbEntity
  8
SLD-0
100
AcDbLine
 10
5.1336802156
 20
6.8903659422
 30
0.0
 11
5.1932508612
 21
6.9679999191
 31
0.0
  0
LINE
  5
355
330
11D
100
AcDbEntity
  8
SLD-0
100
AcDbLine
 10
5.1932508612
 20
6.9679999191
 30
0.0
 11
5.1336802156
 21
6.8903659422
 31
0.0
  0
LINE
  5
356
330
11D
100
AcDbEntity
  8
SLD-0
100
AcDbLine
 10
5.0962325422
 20
6.7999592612
 30
0.0
 11
5.1336802156
 21
6.8903659422
 31
0.0
  0
LINE
  5
357
330
11D
100
AcDbEntity
  8
SLD-0
100
AcDbLine
 10
5.1336802156
 20
6.8903659422
 30
0.0
 11
5.0962325422
 21
6.7999592612
 31
0.0
  0
LINE
  5
358
330
11D
100
AcDbEntity
  8
SLD-0
100
AcDbLine
 10
5.0834598382
 20
6.7029409422
 30
0.0
 11
5.0962325422
 21
6.7999592612
 31
0.0
  0
LINE
  5
359
330
11D
100
AcDbEntity
  8
SLD-0
100
AcDbLine
 10
5.0962325422
 20
6.7999592612
 30
0.0
 11
5.0834598382
 21
6.7029409422
 31
0.0
  0
LINE
  5
35A
330
11D
100
AcDbEntity
  8
SLD-0
100
AcDbLine
 10
5.0962325422
 20
6.6059226231
 30
0.0
 11
5.0834598382
 21
6.7029409422
 31
0.0
  0
LINE
  5
35B
330
11D
100
AcDbEntity
  8
SLD-0
100
AcDbLine
 10
5.0834598382
 20
6.7029409422
 30
0.0
 11
5.0962325422
 21
6.6059226231
 31
0.0
  0
LINE
  5
35C
330
11D
100
AcDbEntity
  8
SLD-0
100
AcDbLine
 10
5.1336802156
 20
4.4039186087
 30
0.0
 11
5.1932508612
 21
4.4815525856
 31
0.0
  0
LINE
  5
35D
330
11D
100
AcDbEntity
  8
SLD-0
100
AcDbLine
 10
5.1932508612
 20
4.4815525856
 30
0.0
 11
5.1336802156
 21
4.4039186087
 31
0.0
  0
LINE
  5
35E
330
11D
100
AcDbEntity
  8
SLD-0
100
AcDbLine
 10
5.0962325422
 20
4.3135119278
 30
0.0
 11
5.1336802156
 21
4.4039186087
 31
0.0
  0
LINE
  5
35F
330
11D
100
AcDbEntity
  8
SLD-0
100
AcDbLine
 10
5.1336802156
 20
4.4039186087
 30
0.0
 11
5.0962325422
 21
4.3135119278
 31
0.0
  0
LINE
  5
360
330
11D
100
AcDbEntity
  8
SLD-0
100
AcDbLine
 10
5.0834598382
 20
4.2164936087
 30
0.0
 11
5.0962325422
 21
4.3135119278
 31
0.0
  0
LINE
  5
361
330
11D
100
AcDbEntity
  8
SLD-0
100
AcDbLine
 10
5.0962325422
 20
4.3135119278
 30
0.0
 11
5.0834598382
 21
4.2164936087
 31
0.0
  0
LINE
  5
362
330
11D
100
AcDbEntity
  8
SLD-0
100
AcDbLine
 10
5.0962325422
 20
4.1194752897
 30
0.0
 11
5.0834598382
 21
4.2164936087
 31
0.0
  0
LINE
  5
363
330
11D
100
AcDbEntity
  8
SLD-0
100
AcDbLine
 10
5.0834598382
 20
4.2164936087
 30
0.0
 11
5.0962325422
 21
4.1194752897
 31
0.0
  0
LINE
  5
364
330
11D
100
AcDbEntity
  8
SLD-0
100
AcDbLine
 10
5.1336802156
 20
4.0290686087
 30
0.0
 11
5.0962325422
 21
4.1194752897
 31
0.0
  0
LINE
  5
365
330
11D
100
AcDbEntity
  8
SLD-0
100
AcDbLine
 10
5.0962325422
 20
4.1194752897
 30
0.0
 11
5.1336802156
 21
4.0290686087
 31
0.0
  0
LINE
  5
366
330
11D
100
AcDbEntity
  8
SLD-0
100
AcDbLine
 10
5.1932508612
 20
3.9514346318
 30
0.0
 11
5.1336802156
 21
4.0290686087
 31
0.0
  0
LINE
  5
367
330
11D
100
AcDbEntity
  8
SLD-0
100
AcDbLine
 10
5.1336802156
 20
4.0290686087
 30
0.0
 11
5.1932508612
 21
3.9514346318
 31
0.0
  0
LINE
  5
368
330
11D
100
AcDbEntity
  8
SLD-0
100
AcDbLine
 10
5.1932508612
 20
3.9514346318
 30
0.0
 11
5.2708848382
 21
3.8918639861
 31
0.0
  0
LINE
  5
369
330
11D
100
AcDbEntity
  8
SLD-0
100
AcDbLine
 10
5.2708848382
 20
3.8918639861
 30
0.0
 11
5.1932508612
 21
3.9514346318
 31
0.0
  0
LINE
  5
36A
330
11D
100
AcDbEntity
  8
SLD-0
100
AcDbLine
 10
5.2708848382
 20
3.8918639861
 30
0.0
 11
5.3612915191
 21
3.8544163127
 31
0.0
  0
LINE
  5
36B
330
11D
100
AcDbEntity
  8
SLD-0
100
AcDbLine
 10
5.3612915191
 20
3.8544163127
 30
0.0
 11
5.2708848382
 21
3.8918639861
 31
0.0
  0
LINE
  5
36C
330
11D
100
AcDbEntity
  8
SLD-0
100
AcDbLine
 10
5.3612915191
 20
3.8544163127
 30
0.0
 11
5.4583098382
 21
3.8416436087
 31
0.0
  0
LINE
  5
36D
330
11D
100
AcDbEntity
  8
SLD-0
100
AcDbLine
 10
5.4583098382
 20
3.8416436087
 30
0.0
 11
5.3612915191
 21
3.8544163127
 31
0.0
  0
LINE
  5
36E
330
11D
100
AcDbEntity
  8
SLD-0
100
AcDbLine
 10
5.4583098382
 20
3.8416436087
 30
0.0
 11
5.5553281572
 21
3.8544163127
 31
0.0
  0
LINE
  5
36F
330
11D
100
AcDbEntity
  8
SLD-0
100
AcDbLine
 10
5.5553281572
 20
3.8544163127
 30
0.0
 11
5.4583098382
 21
3.8416436087
 31
0.0
  0
LINE
  5
370
330
11D
100
AcDbEntity
  8
SLD-0
100
AcDbLine
 10
5.5553281572
 20
3.8544163127
 30
0.0
 11
5.6457348382
 21
3.8918639861
 31
0.0
  0
LINE
  5
371
330
11D
100
AcDbEntity
  8
SLD-0
100
AcDbLine
 10
5.6457348382
 20
3.8918639861
 30
0.0
 11
5.5553281572
 21
3.8544163127
 31
0.0
  0
LINE
  5
372
330
11D
100
AcDbEntity
  8
SLD-0
100
AcDbLine
 10
5.6457348382
 20
3.8918639861
 30
0.0
 11
5.7233688151
 21
3.9514346318
 31
0.0
  0
LINE
  5
373
330
11D
100
AcDbEntity
  8
SLD-0
100
AcDbLine
 10
5.7233688151
 20
3.9514346318
 30
0.0
 11
5.6457348382
 21
3.8918639861
 31
0.0
  0
LINE
  5
374
330
11D
100
AcDbEntity
  8
SLD-0
100
AcDbLine
 10
5.7233688151
 20
3.9514346318
 30
0.0
 11
5.7829394608
 21
4.0290686087
 31
0.0
  0
LINE
  5
375
330
11D
100
AcDbEntity
  8
SLD-0
100
AcDbLine
 10
5.7829394608
 20
4.0290686087
 30
0.0
 11
5.7233688151
 21
3.9514346318
 31
0.0
  0
LINE
  5
376
330
11D
100
AcDbEntity
  8
SLD-0
100
AcDbLine
 10
5.7829394608
 20
4.0290686087
 30
0.0
 11
5.8203871341
 21
4.1194752897
 31
0.0
  0
LINE
  5
377
330
11D
100
AcDbEntity
  8
SLD-0
100
AcDbLine
 10
5.8203871341
 20
4.1194752897
 30
0.0
 11
5.7829394608
 21
4.0290686087
 31
0.0
  0
LINE
  5
378
330
11D
100
AcDbEntity
  8
SLD-0
100
AcDbLine
 10
5.8203871341
 20
4.1194752897
 30
0.0
 11
5.8331598382
 21
4.2164936087
 31
0.0
  0
LINE
  5
379
330
11D
100
AcDbEntity
  8
SLD-0
100
AcDbLine
 10
5.8331598382
 20
4.2164936087
 30
0.0
 11
5.8203871341
 21
4.1194752897
 31
0.0
  0
LINE
  5
37A
330
11D
100
AcDbEntity
  8
SLD-0
100
AcDbLine
 10
5.8331598382
 20
4.2164936087
 30
0.0
 11
5.8203871341
 21
4.3135119278
 31
0.0
  0
LINE
  5
37B
330
11D
100
AcDbEntity
  8
SLD-0
100
AcDbLine
 10
5.8203871341
 20
4.3135119278
 30
0.0
 11
5.8331598382
 21
4.2164936087
 31
0.0
  0
LINE
  5
37C
330
11D
100
AcDbEntity
  8
SLD-0
100
AcDbLine
 10
5.8203871341
 20
4.3135119278
 30
0.0
 11
5.7829394608
 21
4.4039186087
 31
0.0
  0
LINE
  5
37D
330
11D
100
AcDbEntity
  8
SLD-0
100
AcDbLine
 10
5.7829394608
 20
4.4039186087
 30
0.0
 11
5.8203871341
 21
4.3135119278
 31
0.0
  0
LINE
  5
37E
330
11D
100
AcDbEntity
  8
SLD-0
100
AcDbLine
 10
5.7829394608
 20
4.4039186087
 30
0.0
 11
5.7233688151
 21
4.4815525856
 31
0.0
  0
LINE
  5
37F
330
11D
100
AcDbEntity
  8
SLD-0
100
AcDbLine
 10
5.7233688151
 20
4.4815525856
 30
0.0
 11
5.7829394608
 21
4.4039186087
 31
0.0
  0
LINE
  5
380
330
11D
100
AcDbEntity
  8
SLD-0
100
AcDbLine
 10
5.7233688151
 20
4.4815525856
 30
0.0
 11
5.6457348382
 21
4.5411232313
 31
0.0
  0
LINE
  5
381
330
11D
100
AcDbEntity
  8
SLD-0
100
AcDbLine
 10
5.6457348382
 20
4.5411232313
 30
0.0
 11
5.7233688151
 21
4.4815525856
 31
0.0
  0
LINE
  5
382
330
11D
100
AcDbEntity
  8
SLD-0
100
AcDbLine
 10
5.6457348382
 20
4.5411232313
 30
0.0
 11
5.5553281572
 21
4.5785709047
 31
0.0
  0
LINE
  5
383
330
11D
100
AcDbEntity
  8
SLD-0
100
AcDbLine
 10
5.5553281572
 20
4.5785709047
 30
0.0
 11
5.6457348382
 21
4.5411232313
 31
0.0
  0
LINE
  5
384
330
11D
100
AcDbEntity
  8
SLD-0
100
AcDbLine
 10
5.5553281572
 20
4.5785709047
 30
0.0
 11
5.4583098382
 21
4.5913436087
 31
0.0
  0
LINE
  5
385
330
11D
100
AcDbEntity
  8
SLD-0
100
AcDbLine
 10
5.4583098382
 20
4.5913436087
 30
0.0
 11
5.5553281572
 21
4.5785709047
 31
0.0
  0
LINE
  5
386
330
11D
100
AcDbEntity
  8
SLD-0
100
AcDbLine
 10
5.4583098382
 20
4.5913436087
 30
0.0
 11
5.3612915191
 21
4.5785709047
 31
0.0
  0
LINE
  5
387
330
11D
100
AcDbEntity
  8
SLD-0
100
AcDbLine
 10
5.3612915191
 20
4.5785709047
 30
0.0
 11
5.4583098382
 21
4.5913436087
 31
0.0
  0
LINE
  5
388
330
11D
100
AcDbEntity
  8
SLD-0
100
AcDbLine
 10
5.3612915191
 20
4.5785709047
 30
0.0
 11
5.2708848382
 21
4.5411232313
 31
0.0
  0
LINE
  5
389
330
11D
100
AcDbEntity
  8
SLD-0
100
AcDbLine
 10
5.2708848382
 20
4.5411232313
 30
0.0
 11
5.3612915191
 21
4.5785709047
 31
0.0
  0
LINE
  5
38A
330
11D
100
AcDbEntity
  8
SLD-0
100
AcDbLine
 10
5.2708848382
 20
4.5411232313
 30
0.0
 11
5.1932508612
 21
4.4815525856
 31
0.0
  0
LINE
  5
38B
330
11D
100
AcDbEntity
  8
SLD-0
100
AcDbLine
 10
5.1932508612
 20
4.4815525856
 30
0.0
 11
5.2708848382
 21
4.5411232313
 31
0.0
  0
LINE
  5
38C
330
11D
100
AcDbEntity
  8
SLD-0
100
AcDbLine
 10
7.2164936087
 20
8.0862747127
 30
0.0
 11
7.3135119278
 21
8.0990474167
 31
0.0
  0
LINE
  5
38D
330
11D
100
AcDbEntity
  8
SLD-0
100
AcDbLine
 10
7.3135119278
 20
8.0990474167
 30
0.0
 11
7.2164936087
 21
8.0862747127
 31
0.0
  0
LINE
  5
38E
330
11D
100
AcDbEntity
  8
SLD-0
100
AcDbLine
 10
7.3135119278
 20
8.0990474167
 30
0.0
 11
7.4039186087
 21
8.1364950901
 31
0.0
  0
LINE
  5
38F
330
11D
100
AcDbEntity
  8
SLD-0
100
AcDbLine
 10
7.4039186087
 20
8.1364950901
 30
0.0
 11
7.3135119278
 21
8.0990474167
 31
0.0
  0
LINE
  5
390
330
11D
100
AcDbEntity
  8
SLD-0
100
AcDbLine
 10
7.4039186087
 20
8.1364950901
 30
0.0
 11
7.4815525856
 21
8.1960657358
 31
0.0
  0
LINE
  5
391
330
11D
100
AcDbEntity
  8
SLD-0
100
AcDbLine
 10
7.4815525856
 20
8.1960657358
 30
0.0
 11
7.4039186087
 21
8.1364950901
 31
0.0
  0
LINE
  5
392
330
11D
100
AcDbEntity
  8
SLD-0
100
AcDbLine
 10
7.4815525856
 20
8.1960657358
 30
0.0
 11
7.5411232313
 21
8.2736997127
 31
0.0
  0
LINE
  5
393
330
11D
100
AcDbEntity
  8
SLD-0
100
AcDbLine
 10
7.5411232313
 20
8.2736997127
 30
0.0
 11
7.4815525856
 21
8.1960657358
 31
0.0
  0
LINE
  5
394
330
11D
100
AcDbEntity
  8
SLD-0
100
AcDbLine
 10
7.5411232313
 20
8.2736997127
 30
0.0
 11
7.5785709047
 21
8.3641063936
 31
0.0
  0
LINE
  5
395
330
11D
100
AcDbEntity
  8
SLD-0
100
AcDbLine
 10
7.5785709047
 20
8.3641063936
 30
0.0
 11
7.5411232313
 21
8.2736997127
 31
0.0
  0
LINE
  5
396
330
11D
100
AcDbEntity
  8
SLD-0
100
AcDbLine
 10
7.5785709047
 20
8.3641063936
 30
0.0
 11
7.5913436087
 21
8.4611247127
 31
0.0
  0
LINE
  5
397
330
11D
100
AcDbEntity
  8
SLD-0
100
AcDbLine
 10
7.5913436087
 20
8.4611247127
 30
0.0
 11
7.5785709047
 21
8.3641063936
 31
0.0
  0
LINE
  5
398
330
11D
100
AcDbEntity
  8
SLD-0
100
AcDbLine
 10
7.5913436087
 20
8.4611247127
 30
0.0
 11
7.5785709047
 21
8.5581430318
 31
0.0
  0
LINE
  5
399
330
11D
100
AcDbEntity
  8
SLD-0
100
AcDbLine
 10
7.5785709047
 20
8.5581430318
 30
0.0
 11
7.5913436087
 21
8.4611247127
 31
0.0
  0
LINE
  5
39A
330
11D
100
AcDbEntity
  8
SLD-0
100
AcDbLine
 10
7.5785709047
 20
8.5581430318
 30
0.0
 11
7.5411232313
 21
8.6485497127
 31
0.0
  0
LINE
  5
39B
330
11D
100
AcDbEntity
  8
SLD-0
100
AcDbLine
 10
7.5411232313
 20
8.6485497127
 30
0.0
 11
7.5785709047
 21
8.5581430318
 31
0.0
  0
LINE
  5
39C
330
11D
100
AcDbEntity
  8
SLD-0
100
AcDbLine
 10
7.5411232313
 20
8.6485497127
 30
0.0
 11
7.4815525856
 21
8.7261836896
 31
0.0
  0
LINE
  5
39D
330
11D
100
AcDbEntity
  8
SLD-0
100
AcDbLine
 10
7.4815525856
 20
8.7261836896
 30
0.0
 11
7.5411232313
 21
8.6485497127
 31
0.0
  0
LINE
  5
39E
330
11D
100
AcDbEntity
  8
SLD-0
100
AcDbLine
 10
7.4815525856
 20
8.7261836896
 30
0.0
 11
7.4039186087
 21
8.7857543353
 31
0.0
  0
LINE
  5
39F
330
11D
100
AcDbEntity
  8
SLD-0
100
AcDbLine
 10
7.4039186087
 20
8.7857543353
 30
0.0
 11
7.4815525856
 21
8.7261836896
 31
0.0
  0
LINE
  5
3A0
330
11D
100
AcDbEntity
  8
SLD-0
100
AcDbLine
 10
7.4039186087
 20
8.7857543353
 30
0.0
 11
7.3135119278
 21
8.8232020087
 31
0.0
  0
LINE
  5
3A1
330
11D
100
AcDbEntity
  8
SLD-0
100
AcDbLine
 10
7.3135119278
 20
8.8232020087
 30
0.0
 11
7.4039186087
 21
8.7857543353
 31
0.0
  0
LINE
  5
3A2
330
11D
100
AcDbEntity
  8
SLD-0
100
AcDbLine
 10
7.3135119278
 20
8.8232020087
 30
0.0
 11
7.2164936087
 21
8.8359747127
 31
0.0
  0
LINE
  5
3A3
330
11D
100
AcDbEntity
  8
SLD-0
100
AcDbLine
 10
7.2164936087
 20
8.8359747127
 30
0.0
 11
7.3135119278
 21
8.8232020087
 31
0.0
  0
LINE
  5
3A4
330
11D
100
AcDbEntity
  8
SLD-0
100
AcDbLine
 10
7.2164936087
 20
8.8359747127
 30
0.0
 11
7.1194752897
 21
8.8232020087
 31
0.0
  0
LINE
  5
3A5
330
11D
100
AcDbEntity
  8
SLD-0
100
AcDbLine
 10
7.1194752897
 20
8.8232020087
 30
0.0
 11
7.2164936087
 21
8.8359747127
 31
0.0
  0
LINE
  5
3A6
330
11D
100
AcDbEntity
  8
SLD-0
100
AcDbLine
 10
7.1194752897
 20
8.8232020087
 30
0.0
 11
7.0290686087
 21
8.7857543353
 31
0.0
  0
LINE
  5
3A7
330
11D
100
AcDbEntity
  8
SLD-0
100
AcDbLine
 10
7.0290686087
 20
8.7857543353
 30
0.0
 11
7.1194752897
 21
8.8232020087
 31
0.0
  0
LINE
  5
3A8
330
11D
100
AcDbEntity
  8
SLD-0
100
AcDbLine
 10
7.0290686087
 20
8.7857543353
 30
0.0
 11
6.9514346318
 21
8.7261836896
 31
0.0
  0
LINE
  5
3A9
330
11D
100
AcDbEntity
  8
SLD-0
100
AcDbLine
 10
6.9514346318
 20
8.7261836896
 30
0.0
 11
7.0290686087
 21
8.7857543353
 31
0.0
  0
LINE
  5
3AA
330
11D
100
AcDbEntity
  8
SLD-0
100
AcDbLine
 10
6.8918639861
 20
8.6485497127
 30
0.0
 11
6.9514346318
 21
8.7261836896
 31
0.0
  0
LINE
  5
3AB
330
11D
100
AcDbEntity
  8
SLD-0
100
AcDbLine
 10
6.9514346318
 20
8.7261836896
 30
0.0
 11
6.8918639861
 21
8.6485497127
 31
0.0
  0
LINE
  5
3AC
330
11D
100
AcDbEntity
  8
SLD-0
100
AcDbLine
 10
6.8544163127
 20
8.5581430318
 30
0.0
 11
6.8918639861
 21
8.6485497127
 31
0.0
  0
LINE
  5
3AD
330
11D
100
AcDbEntity
  8
SLD-0
100
AcDbLine
 10
6.8918639861
 20
8.6485497127
 30
0.0
 11
6.8544163127
 21
8.5581430318
 31
0.0
  0
LINE
  5
3AE
330
11D
100
AcDbEntity
  8
SLD-0
100
AcDbLine
 10
6.8416436087
 20
8.4611247127
 30
0.0
 11
6.8544163127
 21
8.5581430318
 31
0.0
  0
LINE
  5
3AF
330
11D
100
AcDbEntity
  8
SLD-0
100
AcDbLine
 10
6.8544163127
 20
8.5581430318
 30
0.0
 11
6.8416436087
 21
8.4611247127
 31
0.0
  0
LINE
  5
3B0
330
11D
100
AcDbEntity
  8
SLD-0
100
AcDbLine
 10
6.8544163127
 20
8.3641063936
 30
0.0
 11
6.8416436087
 21
8.4611247127
 31
0.0
  0
LINE
  5
3B1
330
11D
100
AcDbEntity
  8
SLD-0
100
AcDbLine
 10
6.8416436087
 20
8.4611247127
 30
0.0
 11
6.8544163127
 21
8.3641063936
 31
0.0
  0
LINE
  5
3B2
330
11D
100
AcDbEntity
  8
SLD-0
100
AcDbLine
 10
6.8918639861
 20
8.2736997127
 30
0.0
 11
6.8544163127
 21
8.3641063936
 31
0.0
  0
LINE
  5
3B3
330
11D
100
AcDbEntity
  8
SLD-0
100
AcDbLine
 10
6.8544163127
 20
8.3641063936
 30
0.0
 11
6.8918639861
 21
8.2736997127
 31
0.0
  0
LINE
  5
3B4
330
11D
100
AcDbEntity
  8
SLD-0
100
AcDbLine
 10
6.9514346318
 20
8.1960657358
 30
0.0
 11
6.8918639861
 21
8.2736997127
 31
0.0
  0
LINE
  5
3B5
330
11D
100
AcDbEntity
  8
SLD-0
100
AcDbLine
 10
6.8918639861
 20
8.2736997127
 30
0.0
 11
6.9514346318
 21
8.1960657358
 31
0.0
  0
LINE
  5
3B6
330
11D
100
AcDbEntity
  8
SLD-0
100
AcDbLine
 10
6.9514346318
 20
8.1960657358
 30
0.0
 11
7.0290686087
 21
8.1364950901
 31
0.0
  0
LINE
  5
3B7
330
11D
100
AcDbEntity
  8
SLD-0
100
AcDbLine
 10
7.0290686087
 20
8.1364950901
 30
0.0
 11
6.9514346318
 21
8.1960657358
 31
0.0
  0
LINE
  5
3B8
330
11D
100
AcDbEntity
  8
SLD-0
100
AcDbLine
 10
7.0290686087
 20
8.1364950901
 30
0.0
 11
7.1194752897
 21
8.0990474167
 31
0.0
  0
LINE
  5
3B9
330
11D
100
AcDbEntity
  8
SLD-0
100
AcDbLine
 10
7.1194752897
 20
8.0990474167
 30
0.0
 11
7.0290686087
 21
8.1364950901
 31
0.0
  0
LINE
  5
3BA
330
11D
100
AcDbEntity
  8
SLD-0
100
AcDbLine
 10
7.1194752897
 20
8.0990474167
 30
0.0
 11
7.2164936087
 21
8.0862747127
 31
0.0
  0
LINE
  5
3BB
330
11D
100
AcDbEntity
  8
SLD-0
100
AcDbLine
 10
7.2164936087
 20
8.0862747127
 30
0.0
 11
7.1194752897
 21
8.0990474167
 31
0.0
  0
LINE
  5
3BC
330
11D
100
AcDbEntity
  8
SLD-0
100
AcDbLine
 10
9.0468501933
 20
9.9194345509
 30
0.0
 11
10.1811038909
 21
9.6155121886
 31
0.0
  0
LINE
  5
3BD
330
11D
100
AcDbEntity
  8
SLD-0
100
AcDbLine
 10
10.1811038909
 20
9.6155121886
 30
0.0
 11
9.0468501933
 21
9.9194345509
 31
0.0
  0
LINE
  5
3BE
330
11D
100
AcDbEntity
  8
SLD-0
100
AcDbLine
 10
10.1811038909
 20
9.6155121886
 30
0.0
 11
11.1980479354
 21
9.0283792707
 31
0.0
  0
LINE
  5
3BF
330
11D
100
AcDbEntity
  8
SLD-0
100
AcDbLine
 10
11.1980479354
 20
9.0283792707
 30
0.0
 11
10.1811038909
 21
9.6155121886
 31
0.0
  0
LINE
  5
3C0
330
11D
100
AcDbEntity
  8
SLD-0
100
AcDbLine
 10
12.0283792707
 20
8.1980479354
 30
0.0
 11
11.1980479354
 21
9.0283792707
 31
0.0
  0
LINE
  5
3C1
330
11D
100
AcDbEntity
  8
SLD-0
100
AcDbLine
 10
11.1980479354
 20
9.0283792707
 30
0.0
 11
12.0283792707
 21
8.1980479354
 31
0.0
  0
LINE
  5
3C2
330
11D
100
AcDbEntity
  8
SLD-0
100
AcDbLine
 10
12.6155121886
 20
7.1811038909
 30
0.0
 11
12.0283792707
 21
8.1980479354
 31
0.0
  0
LINE
  5
3C3
330
11D
100
AcDbEntity
  8
SLD-0
100
AcDbLine
 10
12.0283792707
 20
8.1980479354
 30
0.0
 11
12.6155121886
 21
7.1811038909
 31
0.0
  0
LINE
  5
3C4
330
11D
100
AcDbEntity
  8
SLD-0
100
AcDbLine
 10
12.9194345509
 20
6.0468501933
 30
0.0
 11
12.6155121886
 21
7.1811038909
 31
0.0
  0
LINE
  5
3C5
330
11D
100
AcDbEntity
  8
SLD-0
100
AcDbLine
 10
12.6155121886
 20
7.1811038909
 30
0.0
 11
12.9194345509
 21
6.0468501933
 31
0.0
  0
LINE
  5
3C6
330
11D
100
AcDbEntity
  8
SLD-0
100
AcDbLine
 10
12.9194345509
 20
4.8725843576
 30
0.0
 11
12.9194345509
 21
6.0468501933
 31
0.0
  0
LINE
  5
3C7
330
11D
100
AcDbEntity
  8
SLD-0
100
AcDbLine
 10
12.9194345509
 20
6.0468501933
 30
0.0
 11
12.9194345509
 21
4.8725843576
 31
0.0
  0
LINE
  5
3C8
330
11D
100
AcDbEntity
  8
SLD-0
100
AcDbLine
 10
12.6155121886
 20
3.73833066
 30
0.0
 11
12.9194345509
 21
4.8725843576
 31
0.0
  0
LINE
  5
3C9
330
11D
100
AcDbEntity
  8
SLD-0
100
AcDbLine
 10
12.9194345509
 20
4.8725843576
 30
0.0
 11
12.6155121886
 21
3.73833066
 31
0.0
  0
LINE
  5
3CA
330
11D
100
AcDbEntity
  8
SLD-0
100
AcDbLine
 10
12.0283792707
 20
2.7213866155
 30
0.0
 11
12.6155121886
 21
3.73833066
 31
0.0
  0
LINE
  5
3CB
330
11D
100
AcDbEntity
  8
SLD-0
100
AcDbLine
 10
12.6155121886
 20
3.73833066
 30
0.0
 11
12.0283792707
 21
2.7213866155
 31
0.0
  0
LINE
  5
3CC
330
11D
100
AcDbEntity
  8
SLD-0
100
AcDbLine
 10
12.0283792707
 20
2.7213866155
 30
0.0
 11
11.1980479354
 21
1.8910552801
 31
0.0
  0
LINE
  5
3CD
330
11D
100
AcDbEntity
  8
SLD-0
100
AcDbLine
 10
11.1980479354
 20
1.8910552801
 30
0.0
 11
12.0283792707
 21
2.7213866155
 31
0.0
  0
LINE
  5
3CE
330
11D
100
AcDbEntity
  8
SLD-0
100
AcDbLine
 10
11.1980479354
 20
1.8910552801
 30
0.0
 11
10.1811038909
 21
1.3039223623
 31
0.0
  0
LINE
  5
3CF
330
11D
100
AcDbEntity
  8
SLD-0
100
AcDbLine
 10
10.1811038909
 20
1.3039223623
 30
0.0
 11
11.1980479354
 21
1.8910552801
 31
0.0
  0
LINE
  5
3D0
330
11D
100
AcDbEntity
  8
SLD-0
100
AcDbLine
 10
10.1811038909
 20
1.3039223623
 30
0.0
 11
9.0468501933
 21
1.0
 31
0.0
  0
LINE
  5
3D1
330
11D
100
AcDbEntity
  8
SLD-0
100
AcDbLine
 10
9.0468501933
 20
1.0
 30
0.0
 11
10.1811038909
 21
1.3039223623
 31
0.0
  0
LINE
  5
3D2
330
11D
100
AcDbEntity
  8
SLD-0
100
AcDbLine
 10
9.0468501933
 20
1.0
 30
0.0
 11
7.8725843576
 21
1.0
 31
0.0
  0
LINE
  5
3D3
330
11D
100
AcDbEntity
  8
SLD-0
100
AcDbLine
 10
7.8725843576
 20
1.0
 30
0.0
 11
9.0468501933
 21
1.0
 31
0.0
  0
LINE
  5
3D4
330
11D
100
AcDbEntity
  8
SLD-0
100
AcDbLine
 10
7.8725843576
 20
1.0
 30
0.0
 11
6.73833066
 21
1.3039223623
 31
0.0
  0
LINE
  5
3D5
330
11D
100
AcDbEntity
  8
SLD-0
100
AcDbLine
 10
6.73833066
 20
1.3039223623
 30
0.0
 11
7.8725843576
 21
1.0
 31
0.0
  0
LINE
  5
3D6
330
11D
100
AcDbEntity
  8
SLD-0
100
AcDbLine
 10
6.73833066
 20
1.3039223623
 30
0.0
 11
5.7213866155
 21
1.8910552801
 31
0.0
  0
LINE
  5
3D7
330
11D
100
AcDbEntity
  8
SLD-0
100
AcDbLine
 10
5.7213866155
 20
1.8910552801
 30
0.0
 11
6.73833066
 21
1.3039223623
 31
0.0
  0
LINE
  5
3D8
330
11D
100
AcDbEntity
  8
SLD-0
100
AcDbLine
 10
5.7213866155
 20
1.8910552801
 30
0.0
 11
4.8910552801
 21
2.7213866155
 31
0.0
  0
LINE
  5
3D9
330
11D
100
AcDbEntity
  8
SLD-0
100
AcDbLine
 10
4.8910552801
 20
2.7213866155
 30
0.0
 11
5.7213866155
 21
1.8910552801
 31
0.0
  0
LINE
  5
3DA
330
11D
100
AcDbEntity
  8
SLD-0
100
AcDbLine
 10
4.8910552801
 20
2.7213866155
 30
0.0
 11
4.3039223623
 21
3.73833066
 31
0.0
  0
LINE
  5
3DB
330
11D
100
AcDbEntity
  8
SLD-0
100
AcDbLine
 10
4.3039223623
 20
3.73833066
 30
0.0
 11
4.8910552801
 21
2.7213866155
 31
0.0
  0
LINE
  5
3DC
330
11D
100
AcDbEntity
  8
SLD-0
100
AcDbLine
 10
4.3039223623
 20
3.73833066
 30
0.0
 11
4.0
 21
4.8725843576
 31
0.0
  0
LINE
  5
3DD
330
11D
100
AcDbEntity
  8
SLD-0
100
AcDbLine
 10
4.0
 20
4.8725843576
 30
0.0
 11
4.3039223623
 21
3.73833066
 31
0.0
  0
LINE
  5
3DE
330
11D
100
AcDbEntity
  8
SLD-0
100
AcDbLine
 10
4.0
 20
4.8725843576
 30
0.0
 11
4.0
 21
6.0468501933
 31
0.0
  0
LINE
  5
3DF
330
11D
100
AcDbEntity
  8
SLD-0
100
AcDbLine
 10
4.0
 20
6.0468501933
 30
0.0
 11
4.0
 21
4.8725843576
 31
0.0
  0
LINE
  5
3E0
330
11D
100
AcDbEntity
  8
SLD-0
100
AcDbLine
 10
4.0
 20
6.0468501933
 30
0.0
 11
4.3039223623
 21
7.1811038909
 31
0.0
  0
LINE
  5
3E1
330
11D
100
AcDbEntity
  8
SLD-0
100
AcDbLine
 10
4.3039223623
 20
7.1811038909
 30
0.0
 11
4.0
 21
6.0468501933
 31
0.0
  0
LINE
  5
3E2
330
11D
100
AcDbEntity
  8
SLD-0
100
AcDbLine
 10
4.3039223623
 20
7.1811038909
 30
0.0
 11
4.8910552801
 21
8.1980479354
 31
0.0
  0
LINE
  5
3E3
330
11D
100
AcDbEntity
  8
SLD-0
100
AcDbLine
 10
4.8910552801
 20
8.1980479354
 30
0.0
 11
4.3039223623
 21
7.1811038909
 31
0.0
  0
LINE
  5
3E4
330
11D
100
AcDbEntity
  8
SLD-0
100
AcDbLine
 10
4.8910552801
 20
8.1980479354
 30
0.0
 11
5.7213866155
 21
9.0283792707
 31
0.0
  0
LINE
  5
3E5
330
11D
100
AcDbEntity
  8
SLD-0
100
AcDbLine
 10
5.7213866155
 20
9.0283792707
 30
0.0
 11
4.8910552801
 21
8.1980479354
 31
0.0
  0
LINE
  5
3E6
330
11D
100
AcDbEntity
  8
SLD-0
100
AcDbLine
 10
5.7213866155
 20
9.0283792707
 30
0.0
 11
6.73833066
 21
9.6155121886
 31
0.0
  0
LINE
  5
3E7
330
11D
100
AcDbEntity
  8
SLD-0
100
AcDbLine
 10
6.73833066
 20
9.6155121886
 30
0.0
 11
5.7213866155
 21
9.0283792707
 31
0.0
  0
LINE
  5
3E8
330
11D
100
AcDbEntity
  8
SLD-0
100
AcDbLine
 10
6.73833066
 20
9.6155121886
 30
0.0
 11
7.8725843576
 21
9.9194345509
 31
0.0
  0
LINE
  5
3E9
330
11D
100
AcDbEntity
  8
SLD-0
100
AcDbLine
 10
7.8725843576
 20
9.9194345509
 30
0.0
 11
6.73833066
 21
9.6155121886
 31
0.0
  0
LINE
  5
3EA
330
11D
100
AcDbEntity
  8
SLD-0
100
AcDbLine
 10
7.8725843576
 20
9.9194345509
 30
0.0
 11
9.0468501933
 21
9.9194345509
 31
0.0
  0
LINE
  5
3EB
330
11D
100
AcDbEntity
  8
SLD-0
100
AcDbLine
 10
9.0468501933
 20
9.9194345509
 30
0.0
 11
7.8725843576
 21
9.9194345509
 31
0.0
  0
LINE
  5
3EC
330
11D
100
AcDbEntity
  8
SLD-0
100
AcDbLine
 10
10.0650182381
 20
8.3641063936
 30
0.0
 11
10.0777909422
 21
8.4611247127
 31
0.0
  0
LINE
  5
3ED
330
11D
100
AcDbEntity
  8
SLD-0
100
AcDbLine
 10
10.0777909422
 20
2.4583098382
 30
0.0
 11
10.0650182381
 21
2.5553281572
 31
0.0
  0
LINE
  5
3EE
330
11D
100
AcDbEntity
  8
SLD-0
100
AcDbLine
 10
10.0275705648
 20
8.2736997127
 30
0.0
 11
10.0650182381
 21
8.3641063936
 31
0.0
  0
LINE
  5
3EF
330
11D
100
AcDbEntity
  8
SLD-0
100
AcDbLine
 10
10.0650182381
 20
2.5553281572
 30
0.0
 11
10.0275705648
 21
2.6457348382
 31
0.0
  0
LINE
  5
3F0
330
11D
100
AcDbEntity
  8
SLD-0
100
AcDbLine
 10
9.9679999191
 20
8.1960657358
 30
0.0
 11
10.0275705648
 21
8.2736997127
 31
0.0
  0
LINE
  5
3F1
330
11D
100
AcDbEntity
  8
SLD-0
100
AcDbLine
 10
10.0213274201
 20
5.4634536792
 30
0.0
 11
9.9692921718
 21
5.8587006301
 31
0.0
  0
LINE
  5
3F2
330
11D
100
AcDbEntity
  8
SLD-0
100
AcDbLine
 10
9.9692921718
 20
5.8587006301
 30
0.0
 11
9.8167325433
 21
6.2270121544
 31
0.0
  0
LINE
  5
3F3
330
11D
100
AcDbEntity
  8
SLD-0
100
AcDbLine
 10
9.8903659422
 20
8.1364950901
 30
0.0
 11
9.9679999191
 21
8.1960657358
 31
0.0
  0
LINE
  5
3F4
330
11D
100
AcDbEntity
  8
SLD-0
100
AcDbLine
 10
9.7999592612
 20
8.0990474167
 30
0.0
 11
9.8903659422
 21
8.1364950901
 31
0.0
  0
LINE
  5
3F5
330
11D
100
AcDbEntity
  8
SLD-0
100
AcDbLine
 10
9.8167325433
 20
6.2270121544
 30
0.0
 11
9.574045221
 21
6.5432884304
 31
0.0
  0
LINE
  5
3F6
330
11D
100
AcDbEntity
  8
SLD-0
100
AcDbLine
 10
9.7029409422
 20
8.0862747127
 30
0.0
 11
9.7999592612
 21
8.0990474167
 31
0.0
  0
LINE
  5
3F7
330
11D
100
AcDbEntity
  8
SLD-0
100
AcDbLine
 10
9.6059226231
 20
8.0990474167
 30
0.0
 11
9.7029409422
 21
8.0862747127
 31
0.0
  0
LINE
  5
3F8
330
11D
100
AcDbEntity
  8
SLD-0
100
AcDbLine
 10
9.5155159422
 20
8.1364950901
 30
0.0
 11
9.6059226231
 21
8.0990474167
 31
0.0
  0
LINE
  5
3F9
330
11D
100
AcDbEntity
  8
SLD-0
100
AcDbLine
 10
9.574045221
 20
6.5432884304
 30
0.0
 11
9.2577689449
 21
6.7859757527
 31
0.0
  0
LINE
  5
3FA
330
11D
100
AcDbEntity
  8
SLD-0
100
AcDbLine
 10
9.4378819652
 20
8.1960657358
 30
0.0
 11
9.5155159422
 21
8.1364950901
 31
0.0
  0
LINE
  5
3FB
330
11D
100
AcDbEntity
  8
SLD-0
100
AcDbLine
 10
9.3783113195
 20
8.2736997127
 30
0.0
 11
9.4378819652
 21
8.1960657358
 31
0.0
  0
LINE
  5
3FC
330
11D
100
AcDbEntity
  8
SLD-0
100
AcDbLine
 10
9.3408636462
 20
8.3641063936
 30
0.0
 11
9.3783113195
 21
8.2736997127
 31
0.0
  0
LINE
  5
3FD
330
11D
100
AcDbEntity
  8
SLD-0
100
AcDbLine
 10
9.3280909422
 20
8.4611247127
 30
0.0
 11
9.3408636462
 21
8.3641063936
 31
0.0
  0
LINE
  5
3FE
330
11D
100
AcDbEntity
  8
SLD-0
100
AcDbLine
 10
10.0275705648
 20
2.6457348382
 30
0.0
 11
9.9679999191
 21
2.7233688151
 31
0.0
  0
LINE
  5
3FF
330
11D
100
AcDbEntity
  8
SLD-0
100
AcDbLine
 10
9.9692921718
 20
5.0682067284
 30
0.0
 11
10.0213274201
 21
5.4634536792
 31
0.0
  0
LINE
  5
400
330
11D
100
AcDbEntity
  8
SLD-0
100
AcDbLine
 10
9.8167325433
 20
4.6998952041
 30
0.0
 11
9.9692921718
 21
5.0682067284
 31
0.0
  0
LINE
  5
401
330
11D
100
AcDbEntity
  8
SLD-0
100
AcDbLine
 10
9.9679999191
 20
2.7233688151
 30
0.0
 11
9.8903659422
 21
2.7829394608
 31
0.0
  0
LINE
  5
402
330
11D
100
AcDbEntity
  8
SLD-0
100
AcDbLine
 10
9.8903659422
 20
2.7829394608
 30
0.0
 11
9.7999592612
 21
2.8203871341
 31
0.0
  0
LINE
  5
403
330
11D
100
AcDbEntity
  8
SLD-0
100
AcDbLine
 10
9.574045221
 20
4.383618928
 30
0.0
 11
9.8167325433
 21
4.6998952041
 31
0.0
  0
LINE
  5
404
330
11D
100
AcDbEntity
  8
SLD-0
100
AcDbLine
 10
9.7999592612
 20
2.8203871341
 30
0.0
 11
9.7029409422
 21
2.8331598382
 31
0.0
  0
LINE
  5
405
330
11D
100
AcDbEntity
  8
SLD-0
100
AcDbLine
 10
9.7029409422
 20
2.8331598382
 30
0.0
 11
9.6059226231
 21
2.8203871341
 31
0.0
  0
LINE
  5
406
330
11D
100
AcDbEntity
  8
SLD-0
100
AcDbLine
 10
9.6059226231
 20
2.8203871341
 30
0.0
 11
9.5155159422
 21
2.7829394608
 31
0.0
  0
LINE
  5
407
330
11D
100
AcDbEntity
  8
SLD-0
100
AcDbLine
 10
9.2577689449
 20
4.1409316057
 30
0.0
 11
9.574045221
 21
4.383618928
 31
0.0
  0
LINE
  5
408
330
11D
100
AcDbEntity
  8
SLD-0
100
AcDbLine
 10
9.5155159422
 20
2.7829394608
 30
0.0
 11
9.4378819652
 21
2.7233688151
 31
0.0
  0
LINE
  5
409
330
11D
100
AcDbEntity
  8
SLD-0
100
AcDbLine
 10
9.4378819652
 20
2.7233688151
 30
0.0
 11
9.3783113195
 21
2.6457348382
 31
0.0
  0
LINE
  5
40A
330
11D
100
AcDbEntity
  8
SLD-0
100
AcDbLine
 10
9.3783113195
 20
2.6457348382
 30
0.0
 11
9.3408636462
 21
2.5553281572
 31
0.0
  0
LINE
  5
40B
330
11D
100
AcDbEntity
  8
SLD-0
100
AcDbLine
 10
9.3408636462
 20
2.5553281572
 30
0.0
 11
9.3280909422
 21
2.4583098382
 31
0.0
  0
LINE
  5
40C
330
11D
100
AcDbEntity
  8
SLD-0
100
AcDbLine
 10
11.8232020087
 20
4.1194752897
 30
0.0
 11
11.8359747127
 21
4.2164936087
 31
0.0
  0
LINE
  5
40D
330
11D
100
AcDbEntity
  8
SLD-0
100
AcDbLine
 10
12.0283792707
 20
2.7213866155
 30
0.0
 11
11.1980479354
 21
1.8910552801
 31
0.0
  0
LINE
  5
40E
330
11D
100
AcDbEntity
  8
SLD-0
100
AcDbLine
 10
11.7857543353
 20
4.0290686087
 30
0.0
 11
11.8232020087
 21
4.1194752897
 31
0.0
  0
LINE
  5
40F
330
11D
100
AcDbEntity
  8
SLD-0
100
AcDbLine
 10
11.7261836896
 20
3.9514346318
 30
0.0
 11
11.7857543353
 21
4.0290686087
 31
0.0
  0
LINE
  5
410
330
11D
100
AcDbEntity
  8
SLD-0
100
AcDbLine
 10
11.6485497127
 20
3.8918639861
 30
0.0
 11
11.7261836896
 21
3.9514346318
 31
0.0
  0
LINE
  5
411
330
11D
100
AcDbEntity
  8
SLD-0
100
AcDbLine
 10
11.5581430318
 20
3.8544163127
 30
0.0
 11
11.6485497127
 21
3.8918639861
 31
0.0
  0
LINE
  5
412
330
11D
100
AcDbEntity
  8
SLD-0
100
AcDbLine
 10
11.4611247127
 20
3.8416436087
 30
0.0
 11
11.5581430318
 21
3.8544163127
 31
0.0
  0
LINE
  5
413
330
11D
100
AcDbEntity
  8
SLD-0
100
AcDbLine
 10
11.3641063936
 20
3.8544163127
 30
0.0
 11
11.4611247127
 21
3.8416436087
 31
0.0
  0
LINE
  5
414
330
11D
100
AcDbEntity
  8
SLD-0
100
AcDbLine
 10
11.2736997127
 20
3.8918639861
 30
0.0
 11
11.3641063936
 21
3.8544163127
 31
0.0
  0
LINE
  5
415
330
11D
100
AcDbEntity
  8
SLD-0
100
AcDbLine
 10
11.1960657358
 20
3.9514346318
 30
0.0
 11
11.2736997127
 21
3.8918639861
 31
0.0
  0
LINE
  5
416
330
11D
100
AcDbEntity
  8
SLD-0
100
AcDbLine
 10
11.1980479354
 20
1.8910552801
 30
0.0
 11
10.1811038909
 21
1.3039223623
 31
0.0
  0
LINE
  5
417
330
11D
100
AcDbEntity
  8
SLD-0
100
AcDbLine
 10
11.1364950901
 20
4.0290686087
 30
0.0
 11
11.1960657358
 21
3.9514346318
 31
0.0
  0
LINE
  5
418
330
11D
100
AcDbEntity
  8
SLD-0
100
AcDbLine
 10
11.0990474167
 20
4.1194752897
 30
0.0
 11
11.1364950901
 21
4.0290686087
 31
0.0
  0
LINE
  5
419
330
11D
100
AcDbEntity
  8
SLD-0
100
AcDbLine
 10
11.0862747127
 20
4.2164936087
 30
0.0
 11
11.0990474167
 21
4.1194752897
 31
0.0
  0
LINE
  5
41A
330
11D
100
AcDbEntity
  8
SLD-0
100
AcDbLine
 10
10.0777909422
 20
8.4611247127
 30
0.0
 11
10.0650182381
 21
8.5581430318
 31
0.0
  0
LINE
  5
41B
330
11D
100
AcDbEntity
  8
SLD-0
100
AcDbLine
 10
10.0650182381
 20
8.5581430318
 30
0.0
 11
10.0275705648
 21
8.6485497127
 31
0.0
  0
LINE
  5
41C
330
11D
100
AcDbEntity
  8
SLD-0
100
AcDbLine
 10
10.0275705648
 20
8.6485497127
 30
0.0
 11
9.9679999191
 21
8.7261836896
 31
0.0
  0
LINE
  5
41D
330
11D
100
AcDbEntity
  8
SLD-0
100
AcDbLine
 10
9.0468501933
 20
9.9194345509
 30
0.0
 11
10.1811038909
 21
9.6155121886
 31
0.0
  0
LINE
  5
41E
330
11D
100
AcDbEntity
  8
SLD-0
100
AcDbLine
 10
9.9679999191
 20
8.7261836896
 30
0.0
 11
9.8903659422
 21
8.7857543353
 31
0.0
  0
LINE
  5
41F
330
11D
100
AcDbEntity
  8
SLD-0
100
AcDbLine
 10
9.8903659422
 20
8.7857543353
 30
0.0
 11
9.7999592612
 21
8.8232020087
 31
0.0
  0
LINE
  5
420
330
11D
100
AcDbEntity
  8
SLD-0
100
AcDbLine
 10
9.7999592612
 20
8.8232020087
 30
0.0
 11
9.7029409422
 21
8.8359747127
 31
0.0
  0
LINE
  5
421
330
11D
100
AcDbEntity
  8
SLD-0
100
AcDbLine
 10
9.7029409422
 20
8.8359747127
 30
0.0
 11
9.6059226231
 21
8.8232020087
 31
0.0
  0
LINE
  5
422
330
11D
100
AcDbEntity
  8
SLD-0
100
AcDbLine
 10
9.6059226231
 20
8.8232020087
 30
0.0
 11
9.5155159422
 21
8.7857543353
 31
0.0
  0
LINE
  5
423
330
11D
100
AcDbEntity
  8
SLD-0
100
AcDbLine
 10
9.5155159422
 20
8.7857543353
 30
0.0
 11
9.4378819652
 21
8.7261836896
 31
0.0
  0
LINE
  5
424
330
11D
100
AcDbEntity
  8
SLD-0
100
AcDbLine
 10
9.4378819652
 20
8.7261836896
 30
0.0
 11
9.3783113195
 21
8.6485497127
 31
0.0
  0
LINE
  5
425
330
11D
100
AcDbEntity
  8
SLD-0
100
AcDbLine
 10
9.3783113195
 20
8.6485497127
 30
0.0
 11
9.3408636462
 21
8.5581430318
 31
0.0
  0
LINE
  5
426
330
11D
100
AcDbEntity
  8
SLD-0
100
AcDbLine
 10
9.3408636462
 20
8.5581430318
 30
0.0
 11
9.3280909422
 21
8.4611247127
 31
0.0
  0
LINE
  5
427
330
11D
100
AcDbEntity
  8
SLD-0
100
AcDbLine
 10
9.2577689449
 20
6.7859757527
 30
0.0
 11
8.8894574206
 21
6.9385353813
 31
0.0
  0
LINE
  5
428
330
11D
100
AcDbEntity
  8
SLD-0
100
AcDbLine
 10
7.8725843576
 20
9.9194345509
 30
0.0
 11
9.0468501933
 21
9.9194345509
 31
0.0
  0
LINE
  5
429
330
11D
100
AcDbEntity
  8
SLD-0
100
AcDbLine
 10
8.8894574206
 20
6.9385353813
 30
0.0
 11
8.4942104698
 21
6.9905706295
 31
0.0
  0
LINE
  5
42A
330
11D
100
AcDbEntity
  8
SLD-0
100
AcDbLine
 10
8.4942104698
 20
6.9905706295
 30
0.0
 11
8.4942104698
 21
7.4593206295
 31
0.0
  0
LINE
  5
42B
330
11D
100
AcDbEntity
  8
SLD-0
100
AcDbLine
 10
8.4942104698
 20
7.4593206295
 30
0.0
 11
7.9765723796
 21
7.3911722821
 31
0.0
  0
LINE
  5
42C
330
11D
100
AcDbEntity
  8
SLD-0
100
AcDbLine
 10
7.9765723796
 20
7.3911722821
 30
0.0
 11
7.4942104698
 21
7.1913714371
 31
0.0
  0
LINE
  5
42D
330
11D
100
AcDbEntity
  8
SLD-0
100
AcDbLine
 10
7.5785709047
 20
8.3641063936
 30
0.0
 11
7.5913436087
 21
8.4611247127
 31
0.0
  0
LINE
  5
42E
330
11D
100
AcDbEntity
  8
SLD-0
100
AcDbLine
 10
7.5411232313
 20
8.2736997127
 30
0.0
 11
7.5785709047
 21
8.3641063936
 31
0.0
  0
LINE
  5
42F
330
11D
100
AcDbEntity
  8
SLD-0
100
AcDbLine
 10
7.4815525856
 20
8.1960657358
 30
0.0
 11
7.5411232313
 21
8.2736997127
 31
0.0
  0
LINE
  5
430
330
11D
100
AcDbEntity
  8
SLD-0
100
AcDbLine
 10
7.4942104698
 20
7.1913714371
 30
0.0
 11
7.0799969074
 21
6.8735341919
 31
0.0
  0
LINE
  5
431
330
11D
100
AcDbEntity
  8
SLD-0
100
AcDbLine
 10
7.4039186087
 20
8.1364950901
 30
0.0
 11
7.4815525856
 21
8.1960657358
 31
0.0
  0
LINE
  5
432
330
11D
100
AcDbEntity
  8
SLD-0
100
AcDbLine
 10
7.3135119278
 20
8.0990474167
 30
0.0
 11
7.4039186087
 21
8.1364950901
 31
0.0
  0
LINE
  5
433
330
11D
100
AcDbEntity
  8
SLD-0
100
AcDbLine
 10
7.2164936087
 20
8.0862747127
 30
0.0
 11
7.3135119278
 21
8.0990474167
 31
0.0
  0
LINE
  5
434
330
11D
100
AcDbEntity
  8
SLD-0
100
AcDbLine
 10
7.1194752897
 20
8.0990474167
 30
0.0
 11
7.2164936087
 21
8.0862747127
 31
0.0
  0
LINE
  5
435
330
11D
100
AcDbEntity
  8
SLD-0
100
AcDbLine
 10
7.0290686087
 20
8.1364950901
 30
0.0
 11
7.1194752897
 21
8.0990474167
 31
0.0
  0
LINE
  5
436
330
11D
100
AcDbEntity
  8
SLD-0
100
AcDbLine
 10
7.0799969074
 20
6.8735341919
 30
0.0
 11
6.7621596622
 21
6.4593206295
 31
0.0
  0
LINE
  5
437
330
11D
100
AcDbEntity
  8
SLD-0
100
AcDbLine
 10
6.9514346318
 20
8.1960657358
 30
0.0
 11
7.0290686087
 21
8.1364950901
 31
0.0
  0
LINE
  5
438
330
11D
100
AcDbEntity
  8
SLD-0
100
AcDbLine
 10
6.8918639861
 20
8.2736997127
 30
0.0
 11
6.9514346318
 21
8.1960657358
 31
0.0
  0
LINE
  5
439
330
11D
100
AcDbEntity
  8
SLD-0
100
AcDbLine
 10
6.8544163127
 20
8.3641063936
 30
0.0
 11
6.8918639861
 21
8.2736997127
 31
0.0
  0
LINE
  5
43A
330
11D
100
AcDbEntity
  8
SLD-0
100
AcDbLine
 10
6.8416436087
 20
8.4611247127
 30
0.0
 11
6.8544163127
 21
8.3641063936
 31
0.0
  0
LINE
  5
43B
330
11D
100
AcDbEntity
  8
SLD-0
100
AcDbLine
 10
7.5785709047
 20
2.3612915191
 30
0.0
 11
7.5913436087
 21
2.4583098382
 31
0.0
  0
LINE
  5
43C
330
11D
100
AcDbEntity
  8
SLD-0
100
AcDbLine
 10
7.5411232313
 20
2.2708848382
 30
0.0
 11
7.5785709047
 21
2.3612915191
 31
0.0
  0
LINE
  5
43D
330
11D
100
AcDbEntity
  8
SLD-0
100
AcDbLine
 10
7.4815525856
 20
2.1932508612
 30
0.0
 11
7.5411232313
 21
2.2708848382
 31
0.0
  0
LINE
  5
43E
330
11D
100
AcDbEntity
  8
SLD-0
100
AcDbLine
 10
7.8725843576
 20
1.0
 30
0.0
 11
6.73833066
 21
1.3039223623
 31
0.0
  0
LINE
  5
43F
330
11D
100
AcDbEntity
  8
SLD-0
100
AcDbLine
 10
7.4039186087
 20
2.1336802156
 30
0.0
 11
7.4815525856
 21
2.1932508612
 31
0.0
  0
LINE
  5
440
330
11D
100
AcDbEntity
  8
SLD-0
100
AcDbLine
 10
7.3135119278
 20
2.0962325422
 30
0.0
 11
7.4039186087
 21
2.1336802156
 31
0.0
  0
LINE
  5
441
330
11D
100
AcDbEntity
  8
SLD-0
100
AcDbLine
 10
7.2164936087
 20
2.0834598382
 30
0.0
 11
7.3135119278
 21
2.0962325422
 31
0.0
  0
LINE
  5
442
330
11D
100
AcDbEntity
  8
SLD-0
100
AcDbLine
 10
7.1194752897
 20
2.0962325422
 30
0.0
 11
7.2164936087
 21
2.0834598382
 31
0.0
  0
LINE
  5
443
330
11D
100
AcDbEntity
  8
SLD-0
100
AcDbLine
 10
7.0290686087
 20
2.1336802156
 30
0.0
 11
7.1194752897
 21
2.0962325422
 31
0.0
  0
LINE
  5
444
330
11D
100
AcDbEntity
  8
SLD-0
100
AcDbLine
 10
6.9514346318
 20
2.1932508612
 30
0.0
 11
7.0290686087
 21
2.1336802156
 31
0.0
  0
LINE
  5
445
330
11D
100
AcDbEntity
  8
SLD-0
100
AcDbLine
 10
6.8918639861
 20
2.2708848382
 30
0.0
 11
6.9514346318
 21
2.1932508612
 31
0.0
  0
LINE
  5
446
330
11D
100
AcDbEntity
  8
SLD-0
100
AcDbLine
 10
6.8544163127
 20
2.3612915191
 30
0.0
 11
6.8918639861
 21
2.2708848382
 31
0.0
  0
LINE
  5
447
330
11D
100
AcDbEntity
  8
SLD-0
100
AcDbLine
 10
6.8416436087
 20
2.4583098382
 30
0.0
 11
6.8544163127
 21
2.3612915191
 31
0.0
  0
LINE
  5
448
330
11D
100
AcDbEntity
  8
SLD-0
100
AcDbLine
 10
6.5623588172
 20
4.9416825393
 30
0.0
 11
6.7621596622
 21
4.4593206295
 31
0.0
  0
LINE
  5
449
330
11D
100
AcDbEntity
  8
SLD-0
100
AcDbLine
 10
6.73833066
 20
1.3039223623
 30
0.0
 11
5.7213866155
 21
1.8910552801
 31
0.0
  0
LINE
  5
44A
330
11D
100
AcDbEntity
  8
SLD-0
100
AcDbLine
 10
6.4942104698
 20
5.4593206295
 30
0.0
 11
6.5623588172
 21
4.9416825393
 31
0.0
  0
LINE
  5
44B
330
11D
100
AcDbEntity
  8
SLD-0
100
AcDbLine
 10
5.8203871341
 20
4.1194752897
 30
0.0
 11
5.8331598382
 21
4.2164936087
 31
0.0
  0
LINE
  5
44C
330
11D
100
AcDbEntity
  8
SLD-0
100
AcDbLine
 10
5.7829394608
 20
4.0290686087
 30
0.0
 11
5.8203871341
 21
4.1194752897
 31
0.0
  0
LINE
  5
44D
330
11D
100
AcDbEntity
  8
SLD-0
100
AcDbLine
 10
5.7233688151
 20
3.9514346318
 30
0.0
 11
5.7829394608
 21
4.0290686087
 31
0.0
  0
LINE
  5
44E
330
11D
100
AcDbEntity
  8
SLD-0
100
AcDbLine
 10
5.6457348382
 20
3.8918639861
 30
0.0
 11
5.7233688151
 21
3.9514346318
 31
0.0
  0
LINE
  5
44F
330
11D
100
AcDbEntity
  8
SLD-0
100
AcDbLine
 10
5.7213866155
 20
1.8910552801
 30
0.0
 11
4.8910552801
 21
2.7213866155
 31
0.0
  0
LINE
  5
450
330
11D
100
AcDbEntity
  8
SLD-0
100
AcDbLine
 10
5.5553281572
 20
3.8544163127
 30
0.0
 11
5.6457348382
 21
3.8918639861
 31
0.0
  0
LINE
  5
451
330
11D
100
AcDbEntity
  8
SLD-0
100
AcDbLine
 10
5.4583098382
 20
3.8416436087
 30
0.0
 11
5.5553281572
 21
3.8544163127
 31
0.0
  0
LINE
  5
452
330
11D
100
AcDbEntity
  8
SLD-0
100
AcDbLine
 10
5.3612915191
 20
3.8544163127
 30
0.0
 11
5.4583098382
 21
3.8416436087
 31
0.0
  0
LINE
  5
453
330
11D
100
AcDbEntity
  8
SLD-0
100
AcDbLine
 10
5.2708848382
 20
3.8918639861
 30
0.0
 11
5.3612915191
 21
3.8544163127
 31
0.0
  0
LINE
  5
454
330
11D
100
AcDbEntity
  8
SLD-0
100
AcDbLine
 10
5.1932508612
 20
3.9514346318
 30
0.0
 11
5.2708848382
 21
3.8918639861
 31
0.0
  0
LINE
  5
455
330
11D
100
AcDbEntity
  8
SLD-0
100
AcDbLine
 10
5.1336802156
 20
4.0290686087
 30
0.0
 11
5.1932508612
 21
3.9514346318
 31
0.0
  0
LINE
  5
456
330
11D
100
AcDbEntity
  8
SLD-0
100
AcDbLine
 10
5.0962325422
 20
4.1194752897
 30
0.0
 11
5.1336802156
 21
4.0290686087
 31
0.0
  0
LINE
  5
457
330
11D
100
AcDbEntity
  8
SLD-0
100
AcDbLine
 10
5.0834598382
 20
4.2164936087
 30
0.0
 11
5.0962325422
 21
4.1194752897
 31
0.0
  0
LINE
  5
458
330
11D
100
AcDbEntity
  8
SLD-0
100
AcDbLine
 10
4.3039223623
 20
7.1811038909
 30
0.0
 11
4.8910552801
 21
8.1980479354
 31
0.0
  0
LINE
  5
459
330
11D
100
AcDbEntity
  8
SLD-0
100
AcDbLine
 10
4.8910552801
 20
2.7213866155
 30
0.0
 11
4.3039223623
 21
3.73833066
 31
0.0
  0
LINE
  5
45A
330
11D
100
AcDbEntity
  8
SLD-0
100
AcDbLine
 10
4.3039223623
 20
3.73833066
 30
0.0
 11
4.0
 21
4.8725843576
 31
0.0
  0
LINE
  5
45B
330
11D
100
AcDbEntity
  8
SLD-0
100
AcDbLine
 10
4.0
 20
4.8725843576
 30
0.0
 11
4.0
 21
6.0468501933
 31
0.0
  0
LINE
  5
45C
330
11D
100
AcDbEntity
  8
SLD-0
100
AcDbLine
 10
4.0
 20
6.0468501933
 30
0.0
 11
4.3039223623
 21
7.1811038909
 31
0.0
  0
LINE
  5
45D
330
11D
100
AcDbEntity
  8
SLD-0
100
AcDbLine
 10
6.73833066
 20
9.6155121886
 30
0.0
 11
7.8725843576
 21
9.9194345509
 31
0.0
  0
LINE
  5
45E
330
11D
100
AcDbEntity
  8
SLD-0
100
AcDbLine
 10
7.5411232313
 20
8.6485497127
 30
0.0
 11
7.4815525856
 21
8.7261836896
 31
0.0
  0
LINE
  5
45F
330
11D
100
AcDbEntity
  8
SLD-0
100
AcDbLine
 10
7.5785709047
 20
8.5581430318
 30
0.0
 11
7.5411232313
 21
8.6485497127
 31
0.0
  0
LINE
  5
460
330
11D
100
AcDbEntity
  8
SLD-0
100
AcDbLine
 10
7.5913436087
 20
8.4611247127
 30
0.0
 11
7.5785709047
 21
8.5581430318
 31
0.0
  0
LINE
  5
461
330
11D
100
AcDbEntity
  8
SLD-0
100
AcDbLine
 10
7.4815525856
 20
8.7261836896
 30
0.0
 11
7.4039186087
 21
8.7857543353
 31
0.0
  0
LINE
  5
462
330
11D
100
AcDbEntity
  8
SLD-0
100
AcDbLine
 10
7.4039186087
 20
8.7857543353
 30
0.0
 11
7.3135119278
 21
8.8232020087
 31
0.0
  0
LINE
  5
463
330
11D
100
AcDbEntity
  8
SLD-0
100
AcDbLine
 10
7.3135119278
 20
8.8232020087
 30
0.0
 11
7.2164936087
 21
8.8359747127
 31
0.0
  0
LINE
  5
464
330
11D
100
AcDbEntity
  8
SLD-0
100
AcDbLine
 10
7.2164936087
 20
8.8359747127
 30
0.0
 11
7.1194752897
 21
8.8232020087
 31
0.0
  0
LINE
  5
465
330
11D
100
AcDbEntity
  8
SLD-0
100
AcDbLine
 10
7.1194752897
 20
8.8232020087
 30
0.0
 11
7.0290686087
 21
8.7857543353
 31
0.0
  0
LINE
  5
466
330
11D
100
AcDbEntity
  8
SLD-0
100
AcDbLine
 10
7.0290686087
 20
8.7857543353
 30
0.0
 11
6.9514346318
 21
8.7261836896
 31
0.0
  0
LINE
  5
467
330
11D
100
AcDbEntity
  8
SLD-0
100
AcDbLine
 10
6.9514346318
 20
8.7261836896
 30
0.0
 11
6.8918639861
 21
8.6485497127
 31
0.0
  0
LINE
  5
468
330
11D
100
AcDbEntity
  8
SLD-0
100
AcDbLine
 10
6.8918639861
 20
8.6485497127
 30
0.0
 11
6.8544163127
 21
8.5581430318
 31
0.0
  0
LINE
  5
469
330
11D
100
AcDbEntity
  8
SLD-0
100
AcDbLine
 10
6.8544163127
 20
8.5581430318
 30
0.0
 11
6.8416436087
 21
8.4611247127
 31
0.0
  0
LINE
  5
46A
330
11D
100
AcDbEntity
  8
SLD-0
100
AcDbLine
 10
6.7621596622
 20
6.4593206295
 30
0.0
 11
6.5623588172
 21
5.9769587197
 31
0.0
  0
LINE
  5
46B
330
11D
100
AcDbEntity
  8
SLD-0
100
AcDbLine
 10
5.7213866155
 20
9.0283792707
 30
0.0
 11
6.73833066
 21
9.6155121886
 31
0.0
  0
LINE
  5
46C
330
11D
100
AcDbEntity
  8
SLD-0
100
AcDbLine
 10
6.5623588172
 20
5.9769587197
 30
0.0
 11
6.4942104698
 21
5.4593206295
 31
0.0
  0
LINE
  5
46D
330
11D
100
AcDbEntity
  8
SLD-0
100
AcDbLine
 10
5.8331598382
 20
6.7029409422
 30
0.0
 11
5.8203871341
 21
6.7999592612
 31
0.0
  0
LINE
  5
46E
330
11D
100
AcDbEntity
  8
SLD-0
100
AcDbLine
 10
5.8203871341
 20
6.7999592612
 30
0.0
 11
5.7829394608
 21
6.8903659422
 31
0.0
  0
LINE
  5
46F
330
11D
100
AcDbEntity
  8
SLD-0
100
AcDbLine
 10
5.7829394608
 20
6.8903659422
 30
0.0
 11
5.7233688151
 21
6.9679999191
 31
0.0
  0
LINE
  5
470
330
11D
100
AcDbEntity
  8
SLD-0
100
AcDbLine
 10
5.7233688151
 20
6.9679999191
 30
0.0
 11
5.6457348382
 21
7.0275705648
 31
0.0
  0
LINE
  5
471
330
11D
100
AcDbEntity
  8
SLD-0
100
AcDbLine
 10
4.8910552801
 20
8.1980479354
 30
0.0
 11
5.7213866155
 21
9.0283792707
 31
0.0
  0
LINE
  5
472
330
11D
100
AcDbEntity
  8
SLD-0
100
AcDbLine
 10
5.6457348382
 20
7.0275705648
 30
0.0
 11
5.5553281572
 21
7.0650182381
 31
0.0
  0
LINE
  5
473
330
11D
100
AcDbEntity
  8
SLD-0
100
AcDbLine
 10
5.5553281572
 20
7.0650182381
 30
0.0
 11
5.4583098382
 21
7.0777909422
 31
0.0
  0
LINE
  5
474
330
11D
100
AcDbEntity
  8
SLD-0
100
AcDbLine
 10
5.4583098382
 20
7.0777909422
 30
0.0
 11
5.3612915191
 21
7.0650182381
 31
0.0
  0
LINE
  5
475
330
11D
100
AcDbEntity
  8
SLD-0
100
AcDbLine
 10
5.3612915191
 20
7.0650182381
 30
0.0
 11
5.2708848382
 21
7.0275705648
 31
0.0
  0
LINE
  5
476
330
11D
100
AcDbEntity
  8
SLD-0
100
AcDbLine
 10
5.2708848382
 20
7.0275705648
 30
0.0
 11
5.1932508612
 21
6.9679999191
 31
0.0
  0
LINE
  5
477
330
11D
100
AcDbEntity
  8
SLD-0
100
AcDbLine
 10
5.1932508612
 20
6.9679999191
 30
0.0
 11
5.1336802156
 21
6.8903659422
 31
0.0
  0
LINE
  5
478
330
11D
100
AcDbEntity
  8
SLD-0
100
AcDbLine
 10
5.1336802156
 20
6.8903659422
 30
0.0
 11
5.0962325422
 21
6.7999592612
 31
0.0
  0
LINE
  5
479
330
11D
100
AcDbEntity
  8
SLD-0
100
AcDbLine
 10
5.0962325422
 20
6.7999592612
 30
0.0
 11
5.0834598382
 21
6.7029409422
 31
0.0
  0
LINE
  5
47A
330
11D
100
AcDbEntity
  8
SLD-0
100
AcDbLine
 10
5.8331598382
 20
4.2164936087
 30
0.0
 11
5.8203871341
 21
4.3135119278
 31
0.0
  0
LINE
  5
47B
330
11D
100
AcDbEntity
  8
SLD-0
100
AcDbLine
 10
5.8203871341
 20
6.6059226231
 30
0.0
 11
5.8331598382
 21
6.7029409422
 31
0.0
  0
LINE
  5
47C
330
11D
100
AcDbEntity
  8
SLD-0
100
AcDbLine
 10
5.8203871341
 20
4.3135119278
 30
0.0
 11
5.7829394608
 21
4.4039186087
 31
0.0
  0
LINE
  5
47D
330
11D
100
AcDbEntity
  8
SLD-0
100
AcDbLine
 10
5.7829394608
 20
6.5155159422
 30
0.0
 11
5.8203871341
 21
6.6059226231
 31
0.0
  0
LINE
  5
47E
330
11D
100
AcDbEntity
  8
SLD-0
100
AcDbLine
 10
5.7829394608
 20
4.4039186087
 30
0.0
 11
5.7233688151
 21
4.4815525856
 31
0.0
  0
LINE
  5
47F
330
11D
100
AcDbEntity
  8
SLD-0
100
AcDbLine
 10
5.7233688151
 20
6.4378819652
 30
0.0
 11
5.7829394608
 21
6.5155159422
 31
0.0
  0
LINE
  5
480
330
11D
100
AcDbEntity
  8
SLD-0
100
AcDbLine
 10
5.7233688151
 20
4.4815525856
 30
0.0
 11
5.6457348382
 21
4.5411232313
 31
0.0
  0
LINE
  5
481
330
11D
100
AcDbEntity
  8
SLD-0
100
AcDbLine
 10
5.6457348382
 20
6.3783113195
 30
0.0
 11
5.7233688151
 21
6.4378819652
 31
0.0
  0
LINE
  5
482
330
11D
100
AcDbEntity
  8
SLD-0
100
AcDbLine
 10
5.6457348382
 20
4.5411232313
 30
0.0
 11
5.5553281572
 21
4.5785709047
 31
0.0
  0
LINE
  5
483
330
11D
100
AcDbEntity
  8
SLD-0
100
AcDbLine
 10
5.5553281572
 20
6.3408636462
 30
0.0
 11
5.6457348382
 21
6.3783113195
 31
0.0
  0
LINE
  5
484
330
11D
100
AcDbEntity
  8
SLD-0
100
AcDbLine
 10
5.5553281572
 20
4.5785709047
 30
0.0
 11
5.4583098382
 21
4.5913436087
 31
0.0
  0
LINE
  5
485
330
11D
100
AcDbEntity
  8
SLD-0
100
AcDbLine
 10
5.4583098382
 20
6.3280909422
 30
0.0
 11
5.5553281572
 21
6.3408636462
 31
0.0
  0
LINE
  5
486
330
11D
100
AcDbEntity
  8
SLD-0
100
AcDbLine
 10
5.3612915191
 20
6.3408636462
 30
0.0
 11
5.4583098382
 21
6.3280909422
 31
0.0
  0
LINE
  5
487
330
11D
100
AcDbEntity
  8
SLD-0
100
AcDbLine
 10
5.4583098382
 20
4.5913436087
 30
0.0
 11
5.3612915191
 21
4.5785709047
 31
0.0
  0
LINE
  5
488
330
11D
100
AcDbEntity
  8
SLD-0
100
AcDbLine
 10
5.3612915191
 20
4.5785709047
 30
0.0
 11
5.2708848382
 21
4.5411232313
 31
0.0
  0
LINE
  5
489
330
11D
100
AcDbEntity
  8
SLD-0
100
AcDbLine
 10
5.2708848382
 20
6.3783113195
 30
0.0
 11
5.3612915191
 21
6.3408636462
 31
0.0
  0
LINE
  5
48A
330
11D
100
AcDbEntity
  8
SLD-0
100
AcDbLine
 10
5.2708848382
 20
4.5411232313
 30
0.0
 11
5.1932508612
 21
4.4815525856
 31
0.0
  0
LINE
  5
48B
330
11D
100
AcDbEntity
  8
SLD-0
100
AcDbLine
 10
5.1932508612
 20
6.4378819652
 30
0.0
 11
5.2708848382
 21
6.3783113195
 31
0.0
  0
LINE
  5
48C
330
11D
100
AcDbEntity
  8
SLD-0
100
AcDbLine
 10
5.1932508612
 20
4.4815525856
 30
0.0
 11
5.1336802156
 21
4.4039186087
 31
0.0
  0
LINE
  5
48D
330
11D
100
AcDbEntity
  8
SLD-0
100
AcDbLine
 10
5.1336802156
 20
6.5155159422
 30
0.0
 11
5.1932508612
 21
6.4378819652
 31
0.0
  0
LINE
  5
48E
330
11D
100
AcDbEntity
  8
SLD-0
100
AcDbLine
 10
5.1336802156
 20
4.4039186087
 30
0.0
 11
5.0962325422
 21
4.3135119278
 31
0.0
  0
LINE
  5
48F
330
11D
100
AcDbEntity
  8
SLD-0
100
AcDbLine
 10
5.0962325422
 20
6.6059226231
 30
0.0
 11
5.1336802156
 21
6.5155159422
 31
0.0
  0
LINE
  5
490
330
11D
100
AcDbEntity
  8
SLD-0
100
AcDbLine
 10
5.0962325422
 20
4.3135119278
 30
0.0
 11
5.0834598382
 21
4.2164936087
 31
0.0
  0
LINE
  5
491
330
11D
100
AcDbEntity
  8
SLD-0
100
AcDbLine
 10
5.0834598382
 20
6.7029409422
 30
0.0
 11
5.0962325422
 21
6.6059226231
 31
0.0
  0
LINE
  5
492
330
11D
100
AcDbEntity
  8
SLD-0
100
AcDbLine
 10
10.0650182381
 20
2.3612915191
 30
0.0
 11
10.0777909422
 21
2.4583098382
 31
0.0
  0
LINE
  5
493
330
11D
100
AcDbEntity
  8
SLD-0
100
AcDbLine
 10
10.0275705648
 20
2.2708848382
 30
0.0
 11
10.0650182381
 21
2.3612915191
 31
0.0
  0
LINE
  5
494
330
11D
100
AcDbEntity
  8
SLD-0
100
AcDbLine
 10
9.9679999191
 20
2.1932508612
 30
0.0
 11
10.0275705648
 21
2.2708848382
 31
0.0
  0
LINE
  5
495
330
11D
100
AcDbEntity
  8
SLD-0
100
AcDbLine
 10
10.1811038909
 20
1.3039223623
 30
0.0
 11
9.0468501933
 21
1.0
 31
0.0
  0
LINE
  5
496
330
11D
100
AcDbEntity
  8
SLD-0
100
AcDbLine
 10
9.8903659422
 20
2.1336802156
 30
0.0
 11
9.9679999191
 21
2.1932508612
 31
0.0
  0
LINE
  5
497
330
11D
100
AcDbEntity
  8
SLD-0
100
AcDbLine
 10
9.7999592612
 20
2.0962325422
 30
0.0
 11
9.8903659422
 21
2.1336802156
 31
0.0
  0
LINE
  5
498
330
11D
100
AcDbEntity
  8
SLD-0
100
AcDbLine
 10
9.7029409422
 20
2.0834598382
 30
0.0
 11
9.7999592612
 21
2.0962325422
 31
0.0
  0
LINE
  5
499
330
11D
100
AcDbEntity
  8
SLD-0
100
AcDbLine
 10
9.6059226231
 20
2.0962325422
 30
0.0
 11
9.7029409422
 21
2.0834598382
 31
0.0
  0
LINE
  5
49A
330
11D
100
AcDbEntity
  8
SLD-0
100
AcDbLine
 10
9.5155159422
 20
2.1336802156
 30
0.0
 11
9.6059226231
 21
2.0962325422
 31
0.0
  0
LINE
  5
49B
330
11D
100
AcDbEntity
  8
SLD-0
100
AcDbLine
 10
9.4378819652
 20
2.1932508612
 30
0.0
 11
9.5155159422
 21
2.1336802156
 31
0.0
  0
LINE
  5
49C
330
11D
100
AcDbEntity
  8
SLD-0
100
AcDbLine
 10
9.3783113195
 20
2.2708848382
 30
0.0
 11
9.4378819652
 21
2.1932508612
 31
0.0
  0
LINE
  5
49D
330
11D
100
AcDbEntity
  8
SLD-0
100
AcDbLine
 10
9.3408636462
 20
2.3612915191
 30
0.0
 11
9.3783113195
 21
2.2708848382
 31
0.0
  0
LINE
  5
49E
330
11D
100
AcDbEntity
  8
SLD-0
100
AcDbLine
 10
9.3280909422
 20
2.4583098382
 30
0.0
 11
9.3408636462
 21
2.3612915191
 31
0.0
  0
LINE
  5
49F
330
11D
100
AcDbEntity
  8
SLD-0
100
AcDbLine
 10
8.8894574206
 20
3.9883719772
 30
0.0
 11
9.2577689449
 21
4.1409316057
 31
0.0
  0
LINE
  5
4A0
330
11D
100
AcDbEntity
  8
SLD-0
100
AcDbLine
 10
9.0468501933
 20
1.0
 30
0.0
 11
7.8725843576
 21
1.0
 31
0.0
  0
LINE
  5
4A1
330
11D
100
AcDbEntity
  8
SLD-0
100
AcDbLine
 10
8.4942104698
 20
3.4593206295
 30
0.0
 11
8.4942104698
 21
3.936336729
 31
0.0
  0
LINE
  5
4A2
330
11D
100
AcDbEntity
  8
SLD-0
100
AcDbLine
 10
8.4942104698
 20
3.936336729
 30
0.0
 11
8.8894574206
 21
3.9883719772
 31
0.0
  0
LINE
  5
4A3
330
11D
100
AcDbEntity
  8
SLD-0
100
AcDbLine
 10
7.9765723796
 20
3.5274689769
 30
0.0
 11
8.4942104698
 21
3.4593206295
 31
0.0
  0
LINE
  5
4A4
330
11D
100
AcDbEntity
  8
SLD-0
100
AcDbLine
 10
7.4942104698
 20
3.7272698219
 30
0.0
 11
7.9765723796
 21
3.5274689769
 31
0.0
  0
LINE
  5
4A5
330
11D
100
AcDbEntity
  8
SLD-0
100
AcDbLine
 10
7.5913436087
 20
2.4583098382
 30
0.0
 11
7.5785709047
 21
2.5553281572
 31
0.0
  0
LINE
  5
4A6
330
11D
100
AcDbEntity
  8
SLD-0
100
AcDbLine
 10
7.5785709047
 20
2.5553281572
 30
0.0
 11
7.5411232313
 21
2.6457348382
 31
0.0
  0
LINE
  5
4A7
330
11D
100
AcDbEntity
  8
SLD-0
100
AcDbLine
 10
7.5411232313
 20
2.6457348382
 30
0.0
 11
7.4815525856
 21
2.7233688151
 31
0.0
  0
LINE
  5
4A8
330
11D
100
AcDbEntity
  8
SLD-0
100
AcDbLine
 10
7.0799969074
 20
4.0451070671
 30
0.0
 11
7.4942104698
 21
3.7272698219
 31
0.0
  0
LINE
  5
4A9
330
11D
100
AcDbEntity
  8
SLD-0
100
AcDbLine
 10
7.4815525856
 20
2.7233688151
 30
0.0
 11
7.4039186087
 21
2.7829394608
 31
0.0
  0
LINE
  5
4AA
330
11D
100
AcDbEntity
  8
SLD-0
100
AcDbLine
 10
7.4039186087
 20
2.7829394608
 30
0.0
 11
7.3135119278
 21
2.8203871341
 31
0.0
  0
LINE
  5
4AB
330
11D
100
AcDbEntity
  8
SLD-0
100
AcDbLine
 10
7.3135119278
 20
2.8203871341
 30
0.0
 11
7.2164936087
 21
2.8331598382
 31
0.0
  0
LINE
  5
4AC
330
11D
100
AcDbEntity
  8
SLD-0
100
AcDbLine
 10
7.2164936087
 20
2.8331598382
 30
0.0
 11
7.1194752897
 21
2.8203871341
 31
0.0
  0
LINE
  5
4AD
330
11D
100
AcDbEntity
  8
SLD-0
100
AcDbLine
 10
7.1194752897
 20
2.8203871341
 30
0.0
 11
7.0290686087
 21
2.7829394608
 31
0.0
  0
LINE
  5
4AE
330
11D
100
AcDbEntity
  8
SLD-0
100
AcDbLine
 10
6.7621596622
 20
4.4593206295
 30
0.0
 11
7.0799969074
 21
4.0451070671
 31
0.0
  0
LINE
  5
4AF
330
11D
100
AcDbEntity
  8
SLD-0
100
AcDbLine
 10
7.0290686087
 20
2.7829394608
 30
0.0
 11
6.9514346318
 21
2.7233688151
 31
0.0
  0
LINE
  5
4B0
330
11D
100
AcDbEntity
  8
SLD-0
100
AcDbLine
 10
6.9514346318
 20
2.7233688151
 30
0.0
 11
6.8918639861
 21
2.6457348382
 31
0.0
  0
LINE
  5
4B1
330
11D
100
AcDbEntity
  8
SLD-0
100
AcDbLine
 10
6.8918639861
 20
2.6457348382
 30
0.0
 11
6.8544163127
 21
2.5553281572
 31
0.0
  0
LINE
  5
4B2
330
11D
100
AcDbEntity
  8
SLD-0
100
AcDbLine
 10
6.8544163127
 20
2.5553281572
 30
0.0
 11
6.8416436087
 21
2.4583098382
 31
0.0
  0
LINE
  5
4B3
330
11D
100
AcDbEntity
  8
SLD-0
100
AcDbLine
 10
12.9194345509
 20
6.0468501933
 30
0.0
 11
12.9194345509
 21
4.8725843576
 31
0.0
  0
LINE
  5
4B4
330
11D
100
AcDbEntity
  8
SLD-0
100
AcDbLine
 10
12.9194345509
 20
4.8725843576
 30
0.0
 11
12.6155121886
 21
3.73833066
 31
0.0
  0
LINE
  5
4B5
330
11D
100
AcDbEntity
  8
SLD-0
100
AcDbLine
 10
12.6155121886
 20
7.1811038909
 30
0.0
 11
12.9194345509
 21
6.0468501933
 31
0.0
  0
LINE
  5
4B6
330
11D
100
AcDbEntity
  8
SLD-0
100
AcDbLine
 10
12.6155121886
 20
3.73833066
 30
0.0
 11
12.0283792707
 21
2.7213866155
 31
0.0
  0
LINE
  5
4B7
330
11D
100
AcDbEntity
  8
SLD-0
100
AcDbLine
 10
12.0283792707
 20
8.1980479354
 30
0.0
 11
12.6155121886
 21
7.1811038909
 31
0.0
  0
LINE
  5
4B8
330
11D
100
AcDbEntity
  8
SLD-0
100
AcDbLine
 10
11.8359747127
 20
6.7029409422
 30
0.0
 11
11.8232020087
 21
6.7999592612
 31
0.0
  0
LINE
  5
4B9
330
11D
100
AcDbEntity
  8
SLD-0
100
AcDbLine
 10
11.1980479354
 20
9.0283792707
 30
0.0
 11
12.0283792707
 21
8.1980479354
 31
0.0
  0
LINE
  5
4BA
330
11D
100
AcDbEntity
  8
SLD-0
100
AcDbLine
 10
11.8232020087
 20
6.7999592612
 30
0.0
 11
11.7857543353
 21
6.8903659422
 31
0.0
  0
LINE
  5
4BB
330
11D
100
AcDbEntity
  8
SLD-0
100
AcDbLine
 10
11.7857543353
 20
6.8903659422
 30
0.0
 11
11.7261836896
 21
6.9679999191
 31
0.0
  0
LINE
  5
4BC
330
11D
100
AcDbEntity
  8
SLD-0
100
AcDbLine
 10
11.7261836896
 20
6.9679999191
 30
0.0
 11
11.6485497127
 21
7.0275705648
 31
0.0
  0
LINE
  5
4BD
330
11D
100
AcDbEntity
  8
SLD-0
100
AcDbLine
 10
11.6485497127
 20
7.0275705648
 30
0.0
 11
11.5581430318
 21
7.0650182381
 31
0.0
  0
LINE
  5
4BE
330
11D
100
AcDbEntity
  8
SLD-0
100
AcDbLine
 10
11.5581430318
 20
7.0650182381
 30
0.0
 11
11.4611247127
 21
7.0777909422
 31
0.0
  0
LINE
  5
4BF
330
11D
100
AcDbEntity
  8
SLD-0
100
AcDbLine
 10
11.4611247127
 20
7.0777909422
 30
0.0
 11
11.3641063936
 21
7.0650182381
 31
0.0
  0
LINE
  5
4C0
330
11D
100
AcDbEntity
  8
SLD-0
100
AcDbLine
 10
11.3641063936
 20
7.0650182381
 30
0.0
 11
11.2736997127
 21
7.0275705648
 31
0.0
  0
LINE
  5
4C1
330
11D
100
AcDbEntity
  8
SLD-0
100
AcDbLine
 10
11.2736997127
 20
7.0275705648
 30
0.0
 11
11.1960657358
 21
6.9679999191
 31
0.0
  0
LINE
  5
4C2
330
11D
100
AcDbEntity
  8
SLD-0
100
AcDbLine
 10
10.1811038909
 20
9.6155121886
 30
0.0
 11
11.1980479354
 21
9.0283792707
 31
0.0
  0
LINE
  5
4C3
330
11D
100
AcDbEntity
  8
SLD-0
100
AcDbLine
 10
11.1960657358
 20
6.9679999191
 30
0.0
 11
11.1364950901
 21
6.8903659422
 31
0.0
  0
LINE
  5
4C4
330
11D
100
AcDbEntity
  8
SLD-0
100
AcDbLine
 10
11.1364950901
 20
6.8903659422
 30
0.0
 11
11.0990474167
 21
6.7999592612
 31
0.0
  0
LINE
  5
4C5
330
11D
100
AcDbEntity
  8
SLD-0
100
AcDbLine
 10
11.0990474167
 20
6.7999592612
 30
0.0
 11
11.0862747127
 21
6.7029409422
 31
0.0
  0
LINE
  5
4C6
330
11D
100
AcDbEntity
  8
SLD-0
100
AcDbLine
 10
11.8359747127
 20
4.2164936087
 30
0.0
 11
11.8232020087
 21
4.3135119278
 31
0.0
  0
LINE
  5
4C7
330
11D
100
AcDbEntity
  8
SLD-0
100
AcDbLine
 10
11.8232020087
 20
6.6059226231
 30
0.0
 11
11.8359747127
 21
6.7029409422
 31
0.0
  0
LINE
  5
4C8
330
11D
100
AcDbEntity
  8
SLD-0
100
AcDbLine
 10
11.8232020087
 20
4.3135119278
 30
0.0
 11
11.7857543353
 21
4.4039186087
 31
0.0
  0
LINE
  5
4C9
330
11D
100
AcDbEntity
  8
SLD-0
100
AcDbLine
 10
11.7857543353
 20
6.5155159422
 30
0.0
 11
11.8232020087
 21
6.6059226231
 31
0.0
  0
LINE
  5
4CA
330
11D
100
AcDbEntity
  8
SLD-0
100
AcDbLine
 10
11.7857543353
 20
4.4039186087
 30
0.0
 11
11.7261836896
 21
4.4815525856
 31
0.0
  0
LINE
  5
4CB
330
11D
100
AcDbEntity
  8
SLD-0
100
AcDbLine
 10
11.7261836896
 20
6.4378819652
 30
0.0
 11
11.7857543353
 21
6.5155159422
 31
0.0
  0
LINE
  5
4CC
330
11D
100
AcDbEntity
  8
SLD-0
100
AcDbLine
 10
11.7261836896
 20
4.4815525856
 30
0.0
 11
11.6485497127
 21
4.5411232313
 31
0.0
  0
LINE
  5
4CD
330
11D
100
AcDbEntity
  8
SLD-0
100
AcDbLine
 10
11.6485497127
 20
6.3783113195
 30
0.0
 11
11.7261836896
 21
6.4378819652
 31
0.0
  0
LINE
  5
4CE
330
11D
100
AcDbEntity
  8
SLD-0
100
AcDbLine
 10
11.6485497127
 20
4.5411232313
 30
0.0
 11
11.5581430318
 21
4.5785709047
 31
0.0
  0
LINE
  5
4CF
330
11D
100
AcDbEntity
  8
SLD-0
100
AcDbLine
 10
11.5581430318
 20
6.3408636462
 30
0.0
 11
11.6485497127
 21
6.3783113195
 31
0.0
  0
LINE
  5
4D0
330
11D
100
AcDbEntity
  8
SLD-0
100
AcDbLine
 10
11.5581430318
 20
4.5785709047
 30
0.0
 11
11.4611247127
 21
4.5913436087
 31
0.0
  0
LINE
  5
4D1
330
11D
100
AcDbEntity
  8
SLD-0
100
AcDbLine
 10
11.4611247127
 20
6.3280909422
 30
0.0
 11
11.5581430318
 21
6.3408636462
 31
0.0
  0
LINE
  5
4D2
330
11D
100
AcDbEntity
  8
SLD-0
100
AcDbLine
 10
11.4611247127
 20
4.5913436087
 30
0.0
 11
11.3641063936
 21
4.5785709047
 31
0.0
  0
LINE
  5
4D3
330
11D
100
AcDbEntity
  8
SLD-0
100
AcDbLine
 10
11.3641063936
 20
6.3408636462
 30
0.0
 11
11.4611247127
 21
6.3280909422
 31
0.0
  0
LINE
  5
4D4
330
11D
100
AcDbEntity
  8
SLD-0
100
AcDbLine
 10
11.3641063936
 20
4.5785709047
 30
0.0
 11
11.2736997127
 21
4.5411232313
 31
0.0
  0
LINE
  5
4D5
330
11D
100
AcDbEntity
  8
SLD-0
100
AcDbLine
 10
11.2736997127
 20
6.3783113195
 30
0.0
 11
11.3641063936
 21
6.3408636462
 31
0.0
  0
LINE
  5
4D6
330
11D
100
AcDbEntity
  8
SLD-0
100
AcDbLine
 10
11.2736997127
 20
4.5411232313
 30
0.0
 11
11.1960657358
 21
4.4815525856
 31
0.0
  0
LINE
  5
4D7
330
11D
100
AcDbEntity
  8
SLD-0
100
AcDbLine
 10
11.1960657358
 20
6.4378819652
 30
0.0
 11
11.2736997127
 21
6.3783113195
 31
0.0
  0
LINE
  5
4D8
330
11D
100
AcDbEntity
  8
SLD-0
100
AcDbLine
 10
11.1960657358
 20
4.4815525856
 30
0.0
 11
11.1364950901
 21
4.4039186087
 31
0.0
  0
LINE
  5
4D9
330
11D
100
AcDbEntity
  8
SLD-0
100
AcDbLine
 10
11.1364950901
 20
6.5155159422
 30
0.0
 11
11.1960657358
 21
6.4378819652
 31
0.0
  0
LINE
  5
4DA
330
11D
100
AcDbEntity
  8
SLD-0
100
AcDbLine
 10
11.1364950901
 20
4.4039186087
 30
0.0
 11
11.0990474167
 21
4.3135119278
 31
0.0
  0
LINE
  5
4DB
330
11D
100
AcDbEntity
  8
SLD-0
100
AcDbLine
 10
11.0990474167
 20
6.6059226231
 30
0.0
 11
11.1364950901
 21
6.5155159422
 31
0.0
  0
LINE
  5
4DC
330
11D
100
AcDbEntity
  8
SLD-0
100
AcDbLine
 10
11.0990474167
 20
4.3135119278
 30
0.0
 11
11.0862747127
 21
4.2164936087
 31
0.0
  0
LINE
  5
4DD
330
11D
100
AcDbEntity
  8
SLD-0
100
AcDbLine
 10
11.0862747127
 20
6.7029409422
 30
0.0
 11
11.0990474167
 21
6.6059226231
 31
0.0
  0
LINE
  5
4DE
330
11D
100
AcDbEntity
  8
SLD-0
100
AcDbLine
 10
9.3408636462
 20
2.5553281572
 30
0.0
 11
9.3783113195
 21
2.6457348382
 31
0.0
  0
LINE
  5
4DF
330
11D
100
AcDbEntity
  8
SLD-0
100
AcDbLine
 10
9.3783113195
 20
2.6457348382
 30
0.0
 11
9.3408636462
 21
2.5553281572
 31
0.0
  0
LINE
  5
4E0
330
11D
100
AcDbEntity
  8
SLD-0
100
AcDbLine
 10
9.3280909422
 20
2.4583098382
 30
0.0
 11
9.3408636462
 21
2.5553281572
 31
0.0
  0
LINE
  5
4E1
330
11D
100
AcDbEntity
  8
SLD-0
100
AcDbLine
 10
9.3408636462
 20
2.5553281572
 30
0.0
 11
9.3280909422
 21
2.4583098382
 31
0.0
  0
LINE
  5
4E2
330
11D
100
AcDbEntity
  8
SLD-0
100
AcDbLine
 10
9.3408636462
 20
2.3612915191
 30
0.0
 11
9.3280909422
 21
2.4583098382
 31
0.0
  0
LINE
  5
4E3
330
11D
100
AcDbEntity
  8
SLD-0
100
AcDbLine
 10
9.3280909422
 20
2.4583098382
 30
0.0
 11
9.3408636462
 21
2.3612915191
 31
0.0
  0
LINE
  5
4E4
330
11D
100
AcDbEntity
  8
SLD-0
100
AcDbLine
 10
9.3783113195
 20
2.2708848382
 30
0.0
 11
9.3408636462
 21
2.3612915191
 31
0.0
  0
LINE
  5
4E5
330
11D
100
AcDbEntity
  8
SLD-0
100
AcDbLine
 10
9.3408636462
 20
2.3612915191
 30
0.0
 11
9.3783113195
 21
2.2708848382
 31
0.0
  0
LINE
  5
4E6
330
11D
100
AcDbEntity
  8
SLD-0
100
AcDbLine
 10
9.4378819652
 20
2.1932508612
 30
0.0
 11
9.3783113195
 21
2.2708848382
 31
0.0
  0
LINE
  5
4E7
330
11D
100
AcDbEntity
  8
SLD-0
100
AcDbLine
 10
9.3783113195
 20
2.2708848382
 30
0.0
 11
9.4378819652
 21
2.1932508612
 31
0.0
  0
LINE
  5
4E8
330
11D
100
AcDbEntity
  8
SLD-0
100
AcDbLine
 10
9.4378819652
 20
2.1932508612
 30
0.0
 11
9.5155159422
 21
2.1336802156
 31
0.0
  0
LINE
  5
4E9
330
11D
100
AcDbEntity
  8
SLD-0
100
AcDbLine
 10
9.5155159422
 20
2.1336802156
 30
0.0
 11
9.4378819652
 21
2.1932508612
 31
0.0
  0
LINE
  5
4EA
330
11D
100
AcDbEntity
  8
SLD-0
100
AcDbLine
 10
9.5155159422
 20
2.1336802156
 30
0.0
 11
9.6059226231
 21
2.0962325422
 31
0.0
  0
LINE
  5
4EB
330
11D
100
AcDbEntity
  8
SLD-0
100
AcDbLine
 10
9.6059226231
 20
2.0962325422
 30
0.0
 11
9.5155159422
 21
2.1336802156
 31
0.0
  0
LINE
  5
4EC
330
11D
100
AcDbEntity
  8
SLD-0
100
AcDbLine
 10
9.6059226231
 20
2.0962325422
 30
0.0
 11
9.7029409422
 21
2.0834598382
 31
0.0
  0
LINE
  5
4ED
330
11D
100
AcDbEntity
  8
SLD-0
100
AcDbLine
 10
9.7029409422
 20
2.0834598382
 30
0.0
 11
9.6059226231
 21
2.0962325422
 31
0.0
  0
LINE
  5
4EE
330
11D
100
AcDbEntity
  8
SLD-0
100
AcDbLine
 10
9.7029409422
 20
2.0834598382
 30
0.0
 11
9.7999592612
 21
2.0962325422
 31
0.0
  0
LINE
  5
4EF
330
11D
100
AcDbEntity
  8
SLD-0
100
AcDbLine
 10
9.7999592612
 20
2.0962325422
 30
0.0
 11
9.7029409422
 21
2.0834598382
 31
0.0
  0
LINE
  5
4F0
330
11D
100
AcDbEntity
  8
SLD-0
100
AcDbLine
 10
9.7999592612
 20
2.0962325422
 30
0.0
 11
9.8903659422
 21
2.1336802156
 31
0.0
  0
LINE
  5
4F1
330
11D
100
AcDbEntity
  8
SLD-0
100
AcDbLine
 10
9.8903659422
 20
2.1336802156
 30
0.0
 11
9.7999592612
 21
2.0962325422
 31
0.0
  0
LINE
  5
4F2
330
11D
100
AcDbEntity
  8
SLD-0
100
AcDbLine
 10
9.8903659422
 20
2.1336802156
 30
0.0
 11
9.9679999191
 21
2.1932508612
 31
0.0
  0
LINE
  5
4F3
330
11D
100
AcDbEntity
  8
SLD-0
100
AcDbLine
 10
9.9679999191
 20
2.1932508612
 30
0.0
 11
9.8903659422
 21
2.1336802156
 31
0.0
  0
LINE
  5
4F4
330
11D
100
AcDbEntity
  8
SLD-0
100
AcDbLine
 10
7.5411232313
 20
2.2708848382
 30
0.0
 11
7.5785709047
 21
2.3612915191
 31
0.0
  0
LINE
  5
4F5
330
11D
100
AcDbEntity
  8
SLD-0
100
AcDbLine
 10
7.5785709047
 20
2.3612915191
 30
0.0
 11
7.5411232313
 21
2.2708848382
 31
0.0
  0
LINE
  5
4F6
330
11D
100
AcDbEntity
  8
SLD-0
100
AcDbLine
 10
7.5785709047
 20
2.3612915191
 30
0.0
 11
7.5913436087
 21
2.4583098382
 31
0.0
  0
LINE
  5
4F7
330
11D
100
AcDbEntity
  8
SLD-0
100
AcDbLine
 10
7.5913436087
 20
2.4583098382
 30
0.0
 11
7.5785709047
 21
2.3612915191
 31
0.0
  0
LINE
  5
4F8
330
11D
100
AcDbEntity
  8
SLD-0
100
AcDbLine
 10
7.5913436087
 20
2.4583098382
 30
0.0
 11
7.5785709047
 21
2.5553281572
 31
0.0
  0
LINE
  5
4F9
330
11D
100
AcDbEntity
  8
SLD-0
100
AcDbLine
 10
7.5785709047
 20
2.5553281572
 30
0.0
 11
7.5913436087
 21
2.4583098382
 31
0.0
  0
LINE
  5
4FA
330
11D
100
AcDbEntity
  8
SLD-0
100
AcDbLine
 10
7.5785709047
 20
2.5553281572
 30
0.0
 11
7.5411232313
 21
2.6457348382
 31
0.0
  0
LINE
  5
4FB
330
11D
100
AcDbEntity
  8
SLD-0
100
AcDbLine
 10
7.5411232313
 20
2.6457348382
 30
0.0
 11
7.5785709047
 21
2.5553281572
 31
0.0
  0
LINE
  5
4FC
330
11D
100
AcDbEntity
  8
SLD-0
100
AcDbLine
 10
7.5411232313
 20
2.6457348382
 30
0.0
 11
7.4815525856
 21
2.7233688151
 31
0.0
  0
LINE
  5
4FD
330
11D
100
AcDbEntity
  8
SLD-0
100
AcDbLine
 10
7.4815525856
 20
2.7233688151
 30
0.0
 11
7.5411232313
 21
2.6457348382
 31
0.0
  0
LINE
  5
4FE
330
11D
100
AcDbEntity
  8
SLD-0
100
AcDbLine
 10
7.4815525856
 20
2.7233688151
 30
0.0
 11
7.4039186087
 21
2.7829394608
 31
0.0
  0
LINE
  5
4FF
330
11D
100
AcDbEntity
  8
SLD-0
100
AcDbLine
 10
7.4039186087
 20
2.7829394608
 30
0.0
 11
7.4815525856
 21
2.7233688151
 31
0.0
  0
LINE
  5
500
330
11D
100
AcDbEntity
  8
SLD-0
100
AcDbLine
 10
7.4039186087
 20
2.7829394608
 30
0.0
 11
7.3135119278
 21
2.8203871341
 31
0.0
  0
LINE
  5
501
330
11D
100
AcDbEntity
  8
SLD-0
100
AcDbLine
 10
7.3135119278
 20
2.8203871341
 30
0.0
 11
7.4039186087
 21
2.7829394608
 31
0.0
  0
LINE
  5
502
330
11D
100
AcDbEntity
  8
SLD-0
100
AcDbLine
 10
7.3135119278
 20
2.8203871341
 30
0.0
 11
7.2164936087
 21
2.8331598382
 31
0.0
  0
LINE
  5
503
330
11D
100
AcDbEntity
  8
SLD-0
100
AcDbLine
 10
7.2164936087
 20
2.8331598382
 30
0.0
 11
7.3135119278
 21
2.8203871341
 31
0.0
  0
LINE
  5
504
330
11D
100
AcDbEntity
  8
SLD-0
100
AcDbLine
 10
7.2164936087
 20
2.8331598382
 30
0.0
 11
7.1194752897
 21
2.8203871341
 31
0.0
  0
LINE
  5
505
330
11D
100
AcDbEntity
  8
SLD-0
100
AcDbLine
 10
7.1194752897
 20
2.8203871341
 30
0.0
 11
7.2164936087
 21
2.8331598382
 31
0.0
  0
LINE
  5
506
330
11D
100
AcDbEntity
  8
SLD-0
100
AcDbLine
 10
7.1194752897
 20
2.8203871341
 30
0.0
 11
7.0290686087
 21
2.7829394608
 31
0.0
  0
LINE
  5
507
330
11D
100
AcDbEntity
  8
SLD-0
100
AcDbLine
 10
7.0290686087
 20
2.7829394608
 30
0.0
 11
7.1194752897
 21
2.8203871341
 31
0.0
  0
LINE
  5
508
330
11D
100
AcDbEntity
  8
SLD-0
100
AcDbLine
 10
7.0290686087
 20
2.7829394608
 30
0.0
 11
6.9514346318
 21
2.7233688151
 31
0.0
  0
LINE
  5
509
330
11D
100
AcDbEntity
  8
SLD-0
100
AcDbLine
 10
6.9514346318
 20
2.7233688151
 30
0.0
 11
7.0290686087
 21
2.7829394608
 31
0.0
  0
LINE
  5
50A
330
11D
100
AcDbEntity
  8
SLD-0
100
AcDbLine
 10
6.8918639861
 20
2.6457348382
 30
0.0
 11
6.9514346318
 21
2.7233688151
 31
0.0
  0
LINE
  5
50B
330
11D
100
AcDbEntity
  8
SLD-0
100
AcDbLine
 10
6.9514346318
 20
2.7233688151
 30
0.0
 11
6.8918639861
 21
2.6457348382
 31
0.0
  0
LINE
  5
50C
330
11D
100
AcDbEntity
  8
SLD-0
100
AcDbLine
 10
6.8544163127
 20
2.5553281572
 30
0.0
 11
6.8918639861
 21
2.6457348382
 31
0.0
  0
LINE
  5
50D
330
11D
100
AcDbEntity
  8
SLD-0
100
AcDbLine
 10
6.8918639861
 20
2.6457348382
 30
0.0
 11
6.8544163127
 21
2.5553281572
 31
0.0
  0
LINE
  5
50E
330
11D
100
AcDbEntity
  8
SLD-0
100
AcDbLine
 10
6.8416436087
 20
2.4583098382
 30
0.0
 11
6.8544163127
 21
2.5553281572
 31
0.0
  0
LINE
  5
50F
330
11D
100
AcDbEntity
  8
SLD-0
100
AcDbLine
 10
6.8544163127
 20
2.5553281572
 30
0.0
 11
6.8416436087
 21
2.4583098382
 31
0.0
  0
LINE
  5
510
330
11D
100
AcDbEntity
  8
SLD-0
100
AcDbLine
 10
6.8544163127
 20
2.3612915191
 30
0.0
 11
6.8416436087
 21
2.4583098382
 31
0.0
  0
LINE
  5
511
330
11D
100
AcDbEntity
  8
SLD-0
100
AcDbLine
 10
6.8416436087
 20
2.4583098382
 30
0.0
 11
6.8544163127
 21
2.3612915191
 31
0.0
  0
LINE
  5
512
330
11D
100
AcDbEntity
  8
SLD-0
100
AcDbLine
 10
6.8918639861
 20
2.2708848382
 30
0.0
 11
6.8544163127
 21
2.3612915191
 31
0.0
  0
LINE
  5
513
330
11D
100
AcDbEntity
  8
SLD-0
100
AcDbLine
 10
6.8544163127
 20
2.3612915191
 30
0.0
 11
6.8918639861
 21
2.2708848382
 31
0.0
  0
LINE
  5
514
330
11D
100
AcDbEntity
  8
SLD-0
100
AcDbLine
 10
6.9514346318
 20
2.1932508612
 30
0.0
 11
6.8918639861
 21
2.2708848382
 31
0.0
  0
LINE
  5
515
330
11D
100
AcDbEntity
  8
SLD-0
100
AcDbLine
 10
6.8918639861
 20
2.2708848382
 30
0.0
 11
6.9514346318
 21
2.1932508612
 31
0.0
  0
LINE
  5
516
330
11D
100
AcDbEntity
  8
SLD-0
100
AcDbLine
 10
6.9514346318
 20
2.1932508612
 30
0.0
 11
7.0290686087
 21
2.1336802156
 31
0.0
  0
LINE
  5
517
330
11D
100
AcDbEntity
  8
SLD-0
100
AcDbLine
 10
7.0290686087
 20
2.1336802156
 30
0.0
 11
6.9514346318
 21
2.1932508612
 31
0.0
  0
LINE
  5
518
330
11D
100
AcDbEntity
  8
SLD-0
100
AcDbLine
 10
7.0290686087
 20
2.1336802156
 30
0.0
 11
7.1194752897
 21
2.0962325422
 31
0.0
  0
LINE
  5
519
330
11D
100
AcDbEntity
  8
SLD-0
100
AcDbLine
 10
7.1194752897
 20
2.0962325422
 30
0.0
 11
7.0290686087
 21
2.1336802156
 31
0.0
  0
LINE
  5
51A
330
11D
100
AcDbEntity
  8
SLD-0
100
AcDbLine
 10
7.1194752897
 20
2.0962325422
 30
0.0
 11
7.2164936087
 21
2.0834598382
 31
0.0
  0
LINE
  5
51B
330
11D
100
AcDbEntity
  8
SLD-0
100
AcDbLine
 10
7.2164936087
 20
2.0834598382
 30
0.0
 11
7.1194752897
 21
2.0962325422
 31
0.0
  0
LINE
  5
51C
330
11D
100
AcDbEntity
  8
SLD-0
100
AcDbLine
 10
7.2164936087
 20
2.0834598382
 30
0.0
 11
7.3135119278
 21
2.0962325422
 31
0.0
  0
LINE
  5
51D
330
11D
100
AcDbEntity
  8
SLD-0
100
AcDbLine
 10
7.3135119278
 20
2.0962325422
 30
0.0
 11
7.2164936087
 21
2.0834598382
 31
0.0
  0
LINE
  5
51E
330
11D
100
AcDbEntity
  8
SLD-0
100
AcDbLine
 10
7.3135119278
 20
2.0962325422
 30
0.0
 11
7.4039186087
 21
2.1336802156
 31
0.0
  0
LINE
  5
51F
330
11D
100
AcDbEntity
  8
SLD-0
100
AcDbLine
 10
7.4039186087
 20
2.1336802156
 30
0.0
 11
7.3135119278
 21
2.0962325422
 31
0.0
  0
LINE
  5
520
330
11D
100
AcDbEntity
  8
SLD-0
100
AcDbLine
 10
7.4039186087
 20
2.1336802156
 30
0.0
 11
7.4815525856
 21
2.1932508612
 31
0.0
  0
LINE
  5
521
330
11D
100
AcDbEntity
  8
SLD-0
100
AcDbLine
 10
7.4815525856
 20
2.1932508612
 30
0.0
 11
7.4039186087
 21
2.1336802156
 31
0.0
  0
LINE
  5
522
330
11D
100
AcDbEntity
  8
SLD-0
100
AcDbLine
 10
7.4815525856
 20
2.1932508612
 30
0.0
 11
7.5411232313
 21
2.2708848382
 31
0.0
  0
LINE
  5
523
330
11D
100
AcDbEntity
  8
SLD-0
100
AcDbLine
 10
7.5411232313
 20
2.2708848382
 30
0.0
 11
7.4815525856
 21
2.1932508612
 31
0.0
  0
LINE
  5
524
330
11D
100
AcDbEntity
  8
SLD-0
100
AcDbLine
 10
9.6059226231
 20
8.0990474167
 30
0.0
 11
9.7029409422
 21
8.0862747127
 31
0.0
  0
LINE
  5
525
330
11D
100
AcDbEntity
  8
SLD-0
100
AcDbLine
 10
9.7029409422
 20
8.0862747127
 30
0.0
 11
9.6059226231
 21
8.0990474167
 31
0.0
  0
LINE
  5
526
330
11D
100
AcDbEntity
  8
SLD-0
100
AcDbLine
 10
9.7029409422
 20
8.0862747127
 30
0.0
 11
9.7999592612
 21
8.0990474167
 31
0.0
  0
LINE
  5
527
330
11D
100
AcDbEntity
  8
SLD-0
100
AcDbLine
 10
9.7999592612
 20
8.0990474167
 30
0.0
 11
9.7029409422
 21
8.0862747127
 31
0.0
  0
LINE
  5
528
330
11D
100
AcDbEntity
  8
SLD-0
100
AcDbLine
 10
9.7999592612
 20
8.0990474167
 30
0.0
 11
9.8903659422
 21
8.1364950901
 31
0.0
  0
LINE
  5
529
330
11D
100
AcDbEntity
  8
SLD-0
100
AcDbLine
 10
9.8903659422
 20
8.1364950901
 30
0.0
 11
9.7999592612
 21
8.0990474167
 31
0.0
  0
LINE
  5
52A
330
11D
100
AcDbEntity
  8
SLD-0
100
AcDbLine
 10
9.8903659422
 20
8.1364950901
 30
0.0
 11
9.9679999191
 21
8.1960657358
 31
0.0
  0
LINE
  5
52B
330
11D
100
AcDbEntity
  8
SLD-0
100
AcDbLine
 10
9.9679999191
 20
8.1960657358
 30
0.0
 11
9.8903659422
 21
8.1364950901
 31
0.0
  0
LINE
  5
52C
330
11D
100
AcDbEntity
  8
SLD-0
100
AcDbLine
 10
9.9679999191
 20
8.1960657358
 30
0.0
 11
10.0275705648
 21
8.2736997127
 31
0.0
  0
LINE
  5
52D
330
11D
100
AcDbEntity
  8
SLD-0
100
AcDbLine
 10
10.0275705648
 20
8.2736997127
 30
0.0
 11
9.9679999191
 21
8.1960657358
 31
0.0
  0
LINE
  5
52E
330
11D
100
AcDbEntity
  8
SLD-0
100
AcDbLine
 10
10.0275705648
 20
8.2736997127
 30
0.0
 11
10.0650182381
 21
8.3641063936
 31
0.0
  0
LINE
  5
52F
330
11D
100
AcDbEntity
  8
SLD-0
100
AcDbLine
 10
10.0650182381
 20
8.3641063936
 30
0.0
 11
10.0275705648
 21
8.2736997127
 31
0.0
  0
LINE
  5
530
330
11D
100
AcDbEntity
  8
SLD-0
100
AcDbLine
 10
10.0650182381
 20
8.3641063936
 30
0.0
 11
10.0777909422
 21
8.4611247127
 31
0.0
  0
LINE
  5
531
330
11D
100
AcDbEntity
  8
SLD-0
100
AcDbLine
 10
10.0777909422
 20
8.4611247127
 30
0.0
 11
10.0650182381
 21
8.3641063936
 31
0.0
  0
LINE
  5
532
330
11D
100
AcDbEntity
  8
SLD-0
100
AcDbLine
 10
10.0777909422
 20
8.4611247127
 30
0.0
 11
10.0650182381
 21
8.5581430318
 31
0.0
  0
LINE
  5
533
330
11D
100
AcDbEntity
  8
SLD-0
100
AcDbLine
 10
10.0650182381
 20
8.5581430318
 30
0.0
 11
10.0777909422
 21
8.4611247127
 31
0.0
  0
LINE
  5
534
330
11D
100
AcDbEntity
  8
SLD-0
100
AcDbLine
 10
10.0650182381
 20
8.5581430318
 30
0.0
 11
10.0275705648
 21
8.6485497127
 31
0.0
  0
LINE
  5
535
330
11D
100
AcDbEntity
  8
SLD-0
100
AcDbLine
 10
10.0275705648
 20
8.6485497127
 30
0.0
 11
10.0650182381
 21
8.5581430318
 31
0.0
  0
LINE
  5
536
330
11D
100
AcDbEntity
  8
SLD-0
100
AcDbLine
 10
10.0275705648
 20
8.6485497127
 30
0.0
 11
9.9679999191
 21
8.7261836896
 31
0.0
  0
LINE
  5
537
330
11D
100
AcDbEntity
  8
SLD-0
100
AcDbLine
 10
9.9679999191
 20
8.7261836896
 30
0.0
 11
10.0275705648
 21
8.6485497127
 31
0.0
  0
LINE
  5
538
330
11D
100
AcDbEntity
  8
SLD-0
100
AcDbLine
 10
9.9679999191
 20
8.7261836896
 30
0.0
 11
9.8903659422
 21
8.7857543353
 31
0.0
  0
LINE
  5
539
330
11D
100
AcDbEntity
  8
SLD-0
100
AcDbLine
 10
9.8903659422
 20
8.7857543353
 30
0.0
 11
9.9679999191
 21
8.7261836896
 31
0.0
  0
LINE
  5
53A
330
11D
100
AcDbEntity
  8
SLD-0
100
AcDbLine
 10
9.8903659422
 20
8.7857543353
 30
0.0
 11
9.7999592612
 21
8.8232020087
 31
0.0
  0
LINE
  5
53B
330
11D
100
AcDbEntity
  8
SLD-0
100
AcDbLine
 10
9.7999592612
 20
8.8232020087
 30
0.0
 11
9.8903659422
 21
8.7857543353
 31
0.0
  0
LINE
  5
53C
330
11D
100
AcDbEntity
  8
SLD-0
100
AcDbLine
 10
9.7999592612
 20
8.8232020087
 30
0.0
 11
9.7029409422
 21
8.8359747127
 31
0.0
  0
LINE
  5
53D
330
11D
100
AcDbEntity
  8
SLD-0
100
AcDbLine
 10
9.7029409422
 20
8.8359747127
 30
0.0
 11
9.7999592612
 21
8.8232020087
 31
0.0
  0
LINE
  5
53E
330
11D
100
AcDbEntity
  8
SLD-0
100
AcDbLine
 10
9.7029409422
 20
8.8359747127
 30
0.0
 11
9.6059226231
 21
8.8232020087
 31
0.0
  0
LINE
  5
53F
330
11D
100
AcDbEntity
  8
SLD-0
100
AcDbLine
 10
9.6059226231
 20
8.8232020087
 30
0.0
 11
9.7029409422
 21
8.8359747127
 31
0.0
  0
LINE
  5
540
330
11D
100
AcDbEntity
  8
SLD-0
100
AcDbLine
 10
9.6059226231
 20
8.8232020087
 30
0.0
 11
9.5155159422
 21
8.7857543353
 31
0.0
  0
LINE
  5
541
330
11D
100
AcDbEntity
  8
SLD-0
100
AcDbLine
 10
9.5155159422
 20
8.7857543353
 30
0.0
 11
9.6059226231
 21
8.8232020087
 31
0.0
  0
LINE
  5
542
330
11D
100
AcDbEntity
  8
SLD-0
100
AcDbLine
 10
9.5155159422
 20
8.7857543353
 30
0.0
 11
9.4378819652
 21
8.7261836896
 31
0.0
  0
LINE
  5
543
330
11D
100
AcDbEntity
  8
SLD-0
100
AcDbLine
 10
9.4378819652
 20
8.7261836896
 30
0.0
 11
9.5155159422
 21
8.7857543353
 31
0.0
  0
LINE
  5
544
330
11D
100
AcDbEntity
  8
SLD-0
100
AcDbLine
 10
9.3783113195
 20
8.6485497127
 30
0.0
 11
9.4378819652
 21
8.7261836896
 31
0.0
  0
LINE
  5
545
330
11D
100
AcDbEntity
  8
SLD-0
100
AcDbLine
 10
9.4378819652
 20
8.7261836896
 30
0.0
 11
9.3783113195
 21
8.6485497127
 31
0.0
  0
LINE
  5
546
330
11D
100
AcDbEntity
  8
SLD-0
100
AcDbLine
 10
9.3408636462
 20
8.5581430318
 30
0.0
 11
9.3783113195
 21
8.6485497127
 31
0.0
  0
LINE
  5
547
330
11D
100
AcDbEntity
  8
SLD-0
100
AcDbLine
 10
9.3783113195
 20
8.6485497127
 30
0.0
 11
9.3408636462
 21
8.5581430318
 31
0.0
  0
LINE
  5
548
330
11D
100
AcDbEntity
  8
SLD-0
100
AcDbLine
 10
9.3280909422
 20
8.4611247127
 30
0.0
 11
9.3408636462
 21
8.5581430318
 31
0.0
  0
LINE
  5
549
330
11D
100
AcDbEntity
  8
SLD-0
100
AcDbLine
 10
9.3408636462
 20
8.5581430318
 30
0.0
 11
9.3280909422
 21
8.4611247127
 31
0.0
  0
LINE
  5
54A
330
11D
100
AcDbEntity
  8
SLD-0
100
AcDbLine
 10
9.3408636462
 20
8.3641063936
 30
0.0
 11
9.3280909422
 21
8.4611247127
 31
0.0
  0
LINE
  5
54B
330
11D
100
AcDbEntity
  8
SLD-0
100
AcDbLine
 10
9.3280909422
 20
8.4611247127
 30
0.0
 11
9.3408636462
 21
8.3641063936
 31
0.0
  0
LINE
  5
54C
330
11D
100
AcDbEntity
  8
SLD-0
100
AcDbLine
 10
9.3783113195
 20
8.2736997127
 30
0.0
 11
9.3408636462
 21
8.3641063936
 31
0.0
  0
LINE
  5
54D
330
11D
100
AcDbEntity
  8
SLD-0
100
AcDbLine
 10
9.3408636462
 20
8.3641063936
 30
0.0
 11
9.3783113195
 21
8.2736997127
 31
0.0
  0
LINE
  5
54E
330
11D
100
AcDbEntity
  8
SLD-0
100
AcDbLine
 10
9.4378819652
 20
8.1960657358
 30
0.0
 11
9.3783113195
 21
8.2736997127
 31
0.0
  0
LINE
  5
54F
330
11D
100
AcDbEntity
  8
SLD-0
100
AcDbLine
 10
9.3783113195
 20
8.2736997127
 30
0.0
 11
9.4378819652
 21
8.1960657358
 31
0.0
  0
LINE
  5
550
330
11D
100
AcDbEntity
  8
SLD-0
100
AcDbLine
 10
9.4378819652
 20
8.1960657358
 30
0.0
 11
9.5155159422
 21
8.1364950901
 31
0.0
  0
LINE
  5
551
330
11D
100
AcDbEntity
  8
SLD-0
100
AcDbLine
 10
9.5155159422
 20
8.1364950901
 30
0.0
 11
9.4378819652
 21
8.1960657358
 31
0.0
  0
LINE
  5
552
330
11D
100
AcDbEntity
  8
SLD-0
100
AcDbLine
 10
9.5155159422
 20
8.1364950901
 30
0.0
 11
9.6059226231
 21
8.0990474167
 31
0.0
  0
LINE
  5
553
330
11D
100
AcDbEntity
  8
SLD-0
100
AcDbLine
 10
9.6059226231
 20
8.0990474167
 30
0.0
 11
9.5155159422
 21
8.1364950901
 31
0.0
  0
LINE
  5
554
330
11D
100
AcDbEntity
  8
SLD-0
100
AcDbLine
 10
5.1336802156
 20
6.5155159422
 30
0.0
 11
5.0962325422
 21
6.6059226231
 31
0.0
  0
LINE
  5
555
330
11D
100
AcDbEntity
  8
SLD-0
100
AcDbLine
 10
5.0962325422
 20
6.6059226231
 30
0.0
 11
5.1336802156
 21
6.5155159422
 31
0.0
  0
LINE
  5
556
330
11D
100
AcDbEntity
  8
SLD-0
100
AcDbLine
 10
5.1932508612
 20
6.4378819652
 30
0.0
 11
5.1336802156
 21
6.5155159422
 31
0.0
  0
LINE
  5
557
330
11D
100
AcDbEntity
  8
SLD-0
100
AcDbLine
 10
5.1336802156
 20
6.5155159422
 30
0.0
 11
5.1932508612
 21
6.4378819652
 31
0.0
  0
LINE
  5
558
330
11D
100
AcDbEntity
  8
SLD-0
100
AcDbLine
 10
5.1932508612
 20
6.4378819652
 30
0.0
 11
5.2708848382
 21
6.3783113195
 31
0.0
  0
LINE
  5
559
330
11D
100
AcDbEntity
  8
SLD-0
100
AcDbLine
 10
5.2708848382
 20
6.3783113195
 30
0.0
 11
5.1932508612
 21
6.4378819652
 31
0.0
  0
LINE
  5
55A
330
11D
100
AcDbEntity
  8
SLD-0
100
AcDbLine
 10
5.2708848382
 20
6.3783113195
 30
0.0
 11
5.3612915191
 21
6.3408636462
 31
0.0
  0
LINE
  5
55B
330
11D
100
AcDbEntity
  8
SLD-0
100
AcDbLine
 10
5.3612915191
 20
6.3408636462
 30
0.0
 11
5.2708848382
 21
6.3783113195
 31
0.0
  0
LINE
  5
55C
330
11D
100
AcDbEntity
  8
SLD-0
100
AcDbLine
 10
5.3612915191
 20
6.3408636462
 30
0.0
 11
5.4583098382
 21
6.3280909422
 31
0.0
  0
LINE
  5
55D
330
11D
100
AcDbEntity
  8
SLD-0
100
AcDbLine
 10
5.4583098382
 20
6.3280909422
 30
0.0
 11
5.3612915191
 21
6.3408636462
 31
0.0
  0
LINE
  5
55E
330
11D
100
AcDbEntity
  8
SLD-0
100
AcDbLine
 10
5.4583098382
 20
6.3280909422
 30
0.0
 11
5.5553281572
 21
6.3408636462
 31
0.0
  0
LINE
  5
55F
330
11D
100
AcDbEntity
  8
SLD-0
100
AcDbLine
 10
5.5553281572
 20
6.3408636462
 30
0.0
 11
5.4583098382
 21
6.3280909422
 31
0.0
  0
LINE
  5
560
330
11D
100
AcDbEntity
  8
SLD-0
100
AcDbLine
 10
5.5553281572
 20
6.3408636462
 30
0.0
 11
5.6457348382
 21
6.3783113195
 31
0.0
  0
LINE
  5
561
330
11D
100
AcDbEntity
  8
SLD-0
100
AcDbLine
 10
5.6457348382
 20
6.3783113195
 30
0.0
 11
5.5553281572
 21
6.3408636462
 31
0.0
  0
LINE
  5
562
330
11D
100
AcDbEntity
  8
SLD-0
100
AcDbLine
 10
5.6457348382
 20
6.3783113195
 30
0.0
 11
5.7233688151
 21
6.4378819652
 31
0.0
  0
LINE
  5
563
330
11D
100
AcDbEntity
  8
SLD-0
100
AcDbLine
 10
5.7233688151
 20
6.4378819652
 30
0.0
 11
5.6457348382
 21
6.3783113195
 31
0.0
  0
LINE
  5
564
330
11D
100
AcDbEntity
  8
SLD-0
100
AcDbLine
 10
5.7233688151
 20
6.4378819652
 30
0.0
 11
5.7829394608
 21
6.5155159422
 31
0.0
  0
LINE
  5
565
330
11D
100
AcDbEntity
  8
SLD-0
100
AcDbLine
 10
5.7829394608
 20
6.5155159422
 30
0.0
 11
5.7233688151
 21
6.4378819652
 31
0.0
  0
LINE
  5
566
330
11D
100
AcDbEntity
  8
SLD-0
100
AcDbLine
 10
5.7829394608
 20
6.5155159422
 30
0.0
 11
5.8203871341
 21
6.6059226231
 31
0.0
  0
LINE
  5
567
330
11D
100
AcDbEntity
  8
SLD-0
100
AcDbLine
 10
5.8203871341
 20
6.6059226231
 30
0.0
 11
5.7829394608
 21
6.5155159422
 31
0.0
  0
LINE
  5
568
330
11D
100
AcDbEntity
  8
SLD-0
100
AcDbLine
 10
5.8203871341
 20
6.6059226231
 30
0.0
 11
5.8331598382
 21
6.7029409422
 31
0.0
  0
LINE
  5
569
330
11D
100
AcDbEntity
  8
SLD-0
100
AcDbLine
 10
5.8331598382
 20
6.7029409422
 30
0.0
 11
5.8203871341
 21
6.6059226231
 31
0.0
  0
LINE
  5
56A
330
11D
100
AcDbEntity
  8
SLD-0
100
AcDbLine
 10
5.8331598382
 20
6.7029409422
 30
0.0
 11
5.8203871341
 21
6.7999592612
 31
0.0
  0
LINE
  5
56B
330
11D
100
AcDbEntity
  8
SLD-0
100
AcDbLine
 10
5.8203871341
 20
6.7999592612
 30
0.0
 11
5.8331598382
 21
6.7029409422
 31
0.0
  0
LINE
  5
56C
330
11D
100
AcDbEntity
  8
SLD-0
100
AcDbLine
 10
5.8203871341
 20
6.7999592612
 30
0.0
 11
5.7829394608
 21
6.8903659422
 31
0.0
  0
LINE
  5
56D
330
11D
100
AcDbEntity
  8
SLD-0
100
AcDbLine
 10
5.7829394608
 20
6.8903659422
 30
0.0
 11
5.8203871341
 21
6.7999592612
 31
0.0
  0
LINE
  5
56E
330
11D
100
AcDbEntity
  8
SLD-0
100
AcDbLine
 10
5.7829394608
 20
6.8903659422
 30
0.0
 11
5.7233688151
 21
6.9679999191
 31
0.0
  0
LINE
  5
56F
330
11D
100
AcDbEntity
  8
SLD-0
100
AcDbLine
 10
5.7233688151
 20
6.9679999191
 30
0.0
 11
5.7829394608
 21
6.8903659422
 31
0.0
  0
LINE
  5
570
330
11D
100
AcDbEntity
  8
SLD-0
100
AcDbLine
 10
5.7233688151
 20
6.9679999191
 30
0.0
 11
5.6457348382
 21
7.0275705648
 31
0.0
  0
LINE
  5
571
330
11D
100
AcDbEntity
  8
SLD-0
100
AcDbLine
 10
5.6457348382
 20
7.0275705648
 30
0.0
 11
5.7233688151
 21
6.9679999191
 31
0.0
  0
LINE
  5
572
330
11D
100
AcDbEntity
  8
SLD-0
100
AcDbLine
 10
5.6457348382
 20
7.0275705648
 30
0.0
 11
5.5553281572
 21
7.0650182381
 31
0.0
  0
LINE
  5
573
330
11D
100
AcDbEntity
  8
SLD-0
100
AcDbLine
 10
5.5553281572
 20
7.0650182381
 30
0.0
 11
5.6457348382
 21
7.0275705648
 31
0.0
  0
LINE
  5
574
330
11D
100
AcDbEntity
  8
SLD-0
100
AcDbLine
 10
5.5553281572
 20
7.0650182381
 30
0.0
 11
5.4583098382
 21
7.0777909422
 31
0.0
  0
LINE
  5
575
330
11D
100
AcDbEntity
  8
SLD-0
100
AcDbLine
 10
5.4583098382
 20
7.0777909422
 30
0.0
 11
5.5553281572
 21
7.0650182381
 31
0.0
  0
LINE
  5
576
330
11D
100
AcDbEntity
  8
SLD-0
100
AcDbLine
 10
5.4583098382
 20
7.0777909422
 30
0.0
 11
5.3612915191
 21
7.0650182381
 31
0.0
  0
LINE
  5
577
330
11D
100
AcDbEntity
  8
SLD-0
100
AcDbLine
 10
5.3612915191
 20
7.0650182381
 30
0.0
 11
5.4583098382
 21
7.0777909422
 31
0.0
  0
LINE
  5
578
330
11D
100
AcDbEntity
  8
SLD-0
100
AcDbLine
 10
5.3612915191
 20
7.0650182381
 30
0.0
 11
5.2708848382
 21
7.0275705648
 31
0.0
  0
LINE
  5
579
330
11D
100
AcDbEntity
  8
SLD-0
100
AcDbLine
 10
5.2708848382
 20
7.0275705648
 30
0.0
 11
5.3612915191
 21
7.0650182381
 31
0.0
  0
LINE
  5
57A
330
11D
100
AcDbEntity
  8
SLD-0
100
AcDbLine
 10
9.9679999191
 20
2.7233688151
 30
0.0
 11
10.0275705648
 21
2.6457348382
 31
0.0
  0
LINE
  5
57B
330
11D
100
AcDbEntity
  8
SLD-0
100
AcDbLine
 10
10.0213274201
 20
5.4634536792
 30
0.0
 11
9.9692921718
 21
5.0682067284
 31
0.0
  0
LINE
  5
57C
330
11D
100
AcDbEntity
  8
SLD-0
100
AcDbLine
 10
9.9692921718
 20
5.0682067284
 30
0.0
 11
9.8167325433
 21
4.6998952041
 31
0.0
  0
LINE
  5
57D
330
11D
100
AcDbEntity
  8
SLD-0
100
AcDbLine
 10
9.8903659422
 20
2.7829394608
 30
0.0
 11
9.9679999191
 21
2.7233688151
 31
0.0
  0
LINE
  5
57E
330
11D
100
AcDbEntity
  8
SLD-0
100
AcDbLine
 10
9.7999592612
 20
2.8203871341
 30
0.0
 11
9.8903659422
 21
2.7829394608
 31
0.0
  0
LINE
  5
57F
330
11D
100
AcDbEntity
  8
SLD-0
100
AcDbLine
 10
9.8167325433
 20
4.6998952041
 30
0.0
 11
9.574045221
 21
4.383618928
 31
0.0
  0
LINE
  5
580
330
11D
100
AcDbEntity
  8
SLD-0
100
AcDbLine
 10
9.7029409422
 20
2.8331598382
 30
0.0
 11
9.7999592612
 21
2.8203871341
 31
0.0
  0
LINE
  5
581
330
11D
100
AcDbEntity
  8
SLD-0
100
AcDbLine
 10
9.6059226231
 20
2.8203871341
 30
0.0
 11
9.7029409422
 21
2.8331598382
 31
0.0
  0
LINE
  5
582
330
11D
100
AcDbEntity
  8
SLD-0
100
AcDbLine
 10
9.5155159422
 20
2.7829394608
 30
0.0
 11
9.6059226231
 21
2.8203871341
 31
0.0
  0
LINE
  5
583
330
11D
100
AcDbEntity
  8
SLD-0
100
AcDbLine
 10
9.574045221
 20
4.383618928
 30
0.0
 11
9.2577689449
 21
4.1409316057
 31
0.0
  0
LINE
  5
584
330
11D
100
AcDbEntity
  8
SLD-0
100
AcDbLine
 10
9.4378819652
 20
2.7233688151
 30
0.0
 11
9.5155159422
 21
2.7829394608
 31
0.0
  0
LINE
  5
585
330
11D
100
AcDbEntity
  8
SLD-0
100
AcDbLine
 10
9.3783113195
 20
2.6457348382
 30
0.0
 11
9.4378819652
 21
2.7233688151
 31
0.0
  0
LINE
  5
586
330
11D
100
AcDbEntity
  8
SLD-0
100
AcDbLine
 10
9.3408636462
 20
2.5553281572
 30
0.0
 11
9.3783113195
 21
2.6457348382
 31
0.0
  0
LINE
  5
587
330
11D
100
AcDbEntity
  8
SLD-0
100
AcDbLine
 10
9.3280909422
 20
2.4583098382
 30
0.0
 11
9.3408636462
 21
2.5553281572
 31
0.0
  0
LINE
  5
588
330
11D
100
AcDbEntity
  8
SLD-0
100
AcDbLine
 10
8.4942104698
 20
6.9905706295
 30
0.0
 11
8.8894574206
 21
6.9385353813
 31
0.0
  0
LINE
  5
589
330
11D
100
AcDbEntity
  8
SLD-0
100
AcDbLine
 10
8.4942104698
 20
7.4593206295
 30
0.0
 11
8.4942104698
 21
6.9905706295
 31
0.0
  0
LINE
  5
58A
330
11D
100
AcDbEntity
  8
SLD-0
100
AcDbLine
 10
10.0777909422
 20
8.4611247127
 30
0.0
 11
10.0650182381
 21
8.3641063936
 31
0.0
  0
LINE
  5
58B
330
11D
100
AcDbEntity
  8
SLD-0
100
AcDbLine
 10
10.0650182381
 20
2.5553281572
 30
0.0
 11
10.0777909422
 21
2.4583098382
 31
0.0
  0
LINE
  5
58C
330
11D
100
AcDbEntity
  8
SLD-0
100
AcDbLine
 10
10.0650182381
 20
8.3641063936
 30
0.0
 11
10.0275705648
 21
8.2736997127
 31
0.0
  0
LINE
  5
58D
330
11D
100
AcDbEntity
  8
SLD-0
100
AcDbLine
 10
10.0275705648
 20
2.6457348382
 30
0.0
 11
10.0650182381
 21
2.5553281572
 31
0.0
  0
LINE
  5
58E
330
11D
100
AcDbEntity
  8
SLD-0
100
AcDbLine
 10
10.0275705648
 20
8.2736997127
 30
0.0
 11
9.9679999191
 21
8.1960657358
 31
0.0
  0
LINE
  5
58F
330
11D
100
AcDbEntity
  8
SLD-0
100
AcDbLine
 10
9.9692921718
 20
5.8587006301
 30
0.0
 11
10.0213274201
 21
5.4634536792
 31
0.0
  0
LINE
  5
590
330
11D
100
AcDbEntity
  8
SLD-0
100
AcDbLine
 10
9.8167325433
 20
6.2270121544
 30
0.0
 11
9.9692921718
 21
5.8587006301
 31
0.0
  0
LINE
  5
591
330
11D
100
AcDbEntity
  8
SLD-0
100
AcDbLine
 10
9.9679999191
 20
8.1960657358
 30
0.0
 11
9.8903659422
 21
8.1364950901
 31
0.0
  0
LINE
  5
592
330
11D
100
AcDbEntity
  8
SLD-0
100
AcDbLine
 10
9.8903659422
 20
8.1364950901
 30
0.0
 11
9.7999592612
 21
8.0990474167
 31
0.0
  0
LINE
  5
593
330
11D
100
AcDbEntity
  8
SLD-0
100
AcDbLine
 10
9.574045221
 20
6.5432884304
 30
0.0
 11
9.8167325433
 21
6.2270121544
 31
0.0
  0
LINE
  5
594
330
11D
100
AcDbEntity
  8
SLD-0
100
AcDbLine
 10
9.7999592612
 20
8.0990474167
 30
0.0
 11
9.7029409422
 21
8.0862747127
 31
0.0
  0
LINE
  5
595
330
11D
100
AcDbEntity
  8
SLD-0
100
AcDbLine
 10
9.7029409422
 20
8.0862747127
 30
0.0
 11
9.6059226231
 21
8.0990474167
 31
0.0
  0
LINE
  5
596
330
11D
100
AcDbEntity
  8
SLD-0
100
AcDbLine
 10
9.6059226231
 20
8.0990474167
 30
0.0
 11
9.5155159422
 21
8.1364950901
 31
0.0
  0
LINE
  5
597
330
11D
100
AcDbEntity
  8
SLD-0
100
AcDbLine
 10
9.2577689449
 20
6.7859757527
 30
0.0
 11
9.574045221
 21
6.5432884304
 31
0.0
  0
LINE
  5
598
330
11D
100
AcDbEntity
  8
SLD-0
100
AcDbLine
 10
9.5155159422
 20
8.1364950901
 30
0.0
 11
9.4378819652
 21
8.1960657358
 31
0.0
  0
LINE
  5
599
330
11D
100
AcDbEntity
  8
SLD-0
100
AcDbLine
 10
9.4378819652
 20
8.1960657358
 30
0.0
 11
9.3783113195
 21
8.2736997127
 31
0.0
  0
LINE
  5
59A
330
11D
100
AcDbEntity
  8
SLD-0
100
AcDbLine
 10
9.3783113195
 20
8.2736997127
 30
0.0
 11
9.3408636462
 21
8.3641063936
 31
0.0
  0
LINE
  5
59B
330
11D
100
AcDbEntity
  8
SLD-0
100
AcDbLine
 10
9.3408636462
 20
8.3641063936
 30
0.0
 11
9.3280909422
 21
8.4611247127
 31
0.0
  0
LINE
  5
59C
330
11D
100
AcDbEntity
  8
SLD-0
100
AcDbLine
 10
12.6155121886
 20
3.73833066
 30
0.0
 11
12.9194345509
 21
4.8725843576
 31
0.0
  0
LINE
  5
59D
330
11D
100
AcDbEntity
  8
SLD-0
100
AcDbLine
 10
12.9194345509
 20
4.8725843576
 30
0.0
 11
12.9194345509
 21
6.0468501933
 31
0.0
  0
LINE
  5
59E
330
11D
100
AcDbEntity
  8
SLD-0
100
AcDbLine
 10
12.9194345509
 20
6.0468501933
 30
0.0
 11
12.6155121886
 21
7.1811038909
 31
0.0
  0
LINE
  5
59F
330
11D
100
AcDbEntity
  8
SLD-0
100
AcDbLine
 10
12.6155121886
 20
7.1811038909
 30
0.0
 11
12.0283792707
 21
8.1980479354
 31
0.0
  0
LINE
  5
5A0
330
11D
100
AcDbEntity
  8
SLD-0
100
AcDbLine
 10
12.0283792707
 20
2.7213866155
 30
0.0
 11
12.6155121886
 21
3.73833066
 31
0.0
  0
LINE
  5
5A1
330
11D
100
AcDbEntity
  8
SLD-0
100
AcDbLine
 10
11.8232020087
 20
6.7999592612
 30
0.0
 11
11.8359747127
 21
6.7029409422
 31
0.0
  0
LINE
  5
5A2
330
11D
100
AcDbEntity
  8
SLD-0
100
AcDbLine
 10
12.0283792707
 20
8.1980479354
 30
0.0
 11
11.1980479354
 21
9.0283792707
 31
0.0
  0
LINE
  5
5A3
330
11D
100
AcDbEntity
  8
SLD-0
100
AcDbLine
 10
11.7857543353
 20
6.8903659422
 30
0.0
 11
11.8232020087
 21
6.7999592612
 31
0.0
  0
LINE
  5
5A4
330
11D
100
AcDbEntity
  8
SLD-0
100
AcDbLine
 10
11.7261836896
 20
6.9679999191
 30
0.0
 11
11.7857543353
 21
6.8903659422
 31
0.0
  0
LINE
  5
5A5
330
11D
100
AcDbEntity
  8
SLD-0
100
AcDbLine
 10
11.6485497127
 20
7.0275705648
 30
0.0
 11
11.7261836896
 21
6.9679999191
 31
0.0
  0
LINE
  5
5A6
330
11D
100
AcDbEntity
  8
SLD-0
100
AcDbLine
 10
11.5581430318
 20
7.0650182381
 30
0.0
 11
11.6485497127
 21
7.0275705648
 31
0.0
  0
LINE
  5
5A7
330
11D
100
AcDbEntity
  8
SLD-0
100
AcDbLine
 10
11.4611247127
 20
7.0777909422
 30
0.0
 11
11.5581430318
 21
7.0650182381
 31
0.0
  0
LINE
  5
5A8
330
11D
100
AcDbEntity
  8
SLD-0
100
AcDbLine
 10
11.3641063936
 20
7.0650182381
 30
0.0
 11
11.4611247127
 21
7.0777909422
 31
0.0
  0
LINE
  5
5A9
330
11D
100
AcDbEntity
  8
SLD-0
100
AcDbLine
 10
11.2736997127
 20
7.0275705648
 30
0.0
 11
11.3641063936
 21
7.0650182381
 31
0.0
  0
LINE
  5
5AA
330
11D
100
AcDbEntity
  8
SLD-0
100
AcDbLine
 10
11.1960657358
 20
6.9679999191
 30
0.0
 11
11.2736997127
 21
7.0275705648
 31
0.0
  0
LINE
  5
5AB
330
11D
100
AcDbEntity
  8
SLD-0
100
AcDbLine
 10
11.1980479354
 20
9.0283792707
 30
0.0
 11
10.1811038909
 21
9.6155121886
 31
0.0
  0
LINE
  5
5AC
330
11D
100
AcDbEntity
  8
SLD-0
100
AcDbLine
 10
11.1364950901
 20
6.8903659422
 30
0.0
 11
11.1960657358
 21
6.9679999191
 31
0.0
  0
LINE
  5
5AD
330
11D
100
AcDbEntity
  8
SLD-0
100
AcDbLine
 10
11.0990474167
 20
6.7999592612
 30
0.0
 11
11.1364950901
 21
6.8903659422
 31
0.0
  0
LINE
  5
5AE
330
11D
100
AcDbEntity
  8
SLD-0
100
AcDbLine
 10
11.0862747127
 20
6.7029409422
 30
0.0
 11
11.0990474167
 21
6.7999592612
 31
0.0
  0
LINE
  5
5AF
330
11D
100
AcDbEntity
  8
SLD-0
100
AcDbLine
 10
11.8359747127
 20
6.7029409422
 30
0.0
 11
11.8232020087
 21
6.6059226231
 31
0.0
  0
LINE
  5
5B0
330
11D
100
AcDbEntity
  8
SLD-0
100
AcDbLine
 10
11.8232020087
 20
4.3135119278
 30
0.0
 11
11.8359747127
 21
4.2164936087
 31
0.0
  0
LINE
  5
5B1
330
11D
100
AcDbEntity
  8
SLD-0
100
AcDbLine
 10
11.8232020087
 20
6.6059226231
 30
0.0
 11
11.7857543353
 21
6.5155159422
 31
0.0
  0
LINE
  5
5B2
330
11D
100
AcDbEntity
  8
SLD-0
100
AcDbLine
 10
11.7857543353
 20
4.4039186087
 30
0.0
 11
11.8232020087
 21
4.3135119278
 31
0.0
  0
LINE
  5
5B3
330
11D
100
AcDbEntity
  8
SLD-0
100
AcDbLine
 10
11.7857543353
 20
6.5155159422
 30
0.0
 11
11.7261836896
 21
6.4378819652
 31
0.0
  0
LINE
  5
5B4
330
11D
100
AcDbEntity
  8
SLD-0
100
AcDbLine
 10
11.7261836896
 20
4.4815525856
 30
0.0
 11
11.7857543353
 21
4.4039186087
 31
0.0
  0
LINE
  5
5B5
330
11D
100
AcDbEntity
  8
SLD-0
100
AcDbLine
 10
11.6485497127
 20
4.5411232313
 30
0.0
 11
11.7261836896
 21
4.4815525856
 31
0.0
  0
LINE
  5
5B6
330
11D
100
AcDbEntity
  8
SLD-0
100
AcDbLine
 10
11.7261836896
 20
6.4378819652
 30
0.0
 11
11.6485497127
 21
6.3783113195
 31
0.0
  0
LINE
  5
5B7
330
11D
100
AcDbEntity
  8
SLD-0
100
AcDbLine
 10
11.6485497127
 20
6.3783113195
 30
0.0
 11
11.5581430318
 21
6.3408636462
 31
0.0
  0
LINE
  5
5B8
330
11D
100
AcDbEntity
  8
SLD-0
100
AcDbLine
 10
11.5581430318
 20
4.5785709047
 30
0.0
 11
11.6485497127
 21
4.5411232313
 31
0.0
  0
LINE
  5
5B9
330
11D
100
AcDbEntity
  8
SLD-0
100
AcDbLine
 10
11.5581430318
 20
6.3408636462
 30
0.0
 11
11.4611247127
 21
6.3280909422
 31
0.0
  0
LINE
  5
5BA
330
11D
100
AcDbEntity
  8
SLD-0
100
AcDbLine
 10
11.4611247127
 20
4.5913436087
 30
0.0
 11
11.5581430318
 21
4.5785709047
 31
0.0
  0
LINE
  5
5BB
330
11D
100
AcDbEntity
  8
SLD-0
100
AcDbLine
 10
11.4611247127
 20
6.3280909422
 30
0.0
 11
11.3641063936
 21
6.3408636462
 31
0.0
  0
LINE
  5
5BC
330
11D
100
AcDbEntity
  8
SLD-0
100
AcDbLine
 10
11.3641063936
 20
4.5785709047
 30
0.0
 11
11.4611247127
 21
4.5913436087
 31
0.0
  0
LINE
  5
5BD
330
11D
100
AcDbEntity
  8
SLD-0
100
AcDbLine
 10
11.2736997127
 20
4.5411232313
 30
0.0
 11
11.3641063936
 21
4.5785709047
 31
0.0
  0
LINE
  5
5BE
330
11D
100
AcDbEntity
  8
SLD-0
100
AcDbLine
 10
11.3641063936
 20
6.3408636462
 30
0.0
 11
11.2736997127
 21
6.3783113195
 31
0.0
  0
LINE
  5
5BF
330
11D
100
AcDbEntity
  8
SLD-0
100
AcDbLine
 10
11.2736997127
 20
6.3783113195
 30
0.0
 11
11.1960657358
 21
6.4378819652
 31
0.0
  0
LINE
  5
5C0
330
11D
100
AcDbEntity
  8
SLD-0
100
AcDbLine
 10
11.1960657358
 20
4.4815525856
 30
0.0
 11
11.2736997127
 21
4.5411232313
 31
0.0
  0
LINE
  5
5C1
330
11D
100
AcDbEntity
  8
SLD-0
100
AcDbLine
 10
11.1364950901
 20
4.4039186087
 30
0.0
 11
11.1960657358
 21
4.4815525856
 31
0.0
  0
LINE
  5
5C2
330
11D
100
AcDbEntity
  8
SLD-0
100
AcDbLine
 10
11.1960657358
 20
6.4378819652
 30
0.0
 11
11.1364950901
 21
6.5155159422
 31
0.0
  0
LINE
  5
5C3
330
11D
100
AcDbEntity
  8
SLD-0
100
AcDbLine
 10
11.1364950901
 20
6.5155159422
 30
0.0
 11
11.0990474167
 21
6.6059226231
 31
0.0
  0
LINE
  5
5C4
330
11D
100
AcDbEntity
  8
SLD-0
100
AcDbLine
 10
11.0990474167
 20
4.3135119278
 30
0.0
 11
11.1364950901
 21
4.4039186087
 31
0.0
  0
LINE
  5
5C5
330
11D
100
AcDbEntity
  8
SLD-0
100
AcDbLine
 10
11.0990474167
 20
6.6059226231
 30
0.0
 11
11.0862747127
 21
6.7029409422
 31
0.0
  0
LINE
  5
5C6
330
11D
100
AcDbEntity
  8
SLD-0
100
AcDbLine
 10
11.0862747127
 20
4.2164936087
 30
0.0
 11
11.0990474167
 21
4.3135119278
 31
0.0
  0
LINE
  5
5C7
330
11D
100
AcDbEntity
  8
SLD-0
100
AcDbLine
 10
9.0468501933
 20
1.0
 30
0.0
 11
10.1811038909
 21
1.3039223623
 31
0.0
  0
LINE
  5
5C8
330
11D
100
AcDbEntity
  8
SLD-0
100
AcDbLine
 10
10.0275705648
 20
2.2708848382
 30
0.0
 11
9.9679999191
 21
2.1932508612
 31
0.0
  0
LINE
  5
5C9
330
11D
100
AcDbEntity
  8
SLD-0
100
AcDbLine
 10
10.0650182381
 20
2.3612915191
 30
0.0
 11
10.0275705648
 21
2.2708848382
 31
0.0
  0
LINE
  5
5CA
330
11D
100
AcDbEntity
  8
SLD-0
100
AcDbLine
 10
10.0777909422
 20
2.4583098382
 30
0.0
 11
10.0650182381
 21
2.3612915191
 31
0.0
  0
LINE
  5
5CB
330
11D
100
AcDbEntity
  8
SLD-0
100
AcDbLine
 10
9.9679999191
 20
2.1932508612
 30
0.0
 11
9.8903659422
 21
2.1336802156
 31
0.0
  0
LINE
  5
5CC
330
11D
100
AcDbEntity
  8
SLD-0
100
AcDbLine
 10
9.8903659422
 20
2.1336802156
 30
0.0
 11
9.7999592612
 21
2.0962325422
 31
0.0
  0
LINE
  5
5CD
330
11D
100
AcDbEntity
  8
SLD-0
100
AcDbLine
 10
9.7999592612
 20
2.0962325422
 30
0.0
 11
9.7029409422
 21
2.0834598382
 31
0.0
  0
LINE
  5
5CE
330
11D
100
AcDbEntity
  8
SLD-0
100
AcDbLine
 10
9.7029409422
 20
2.0834598382
 30
0.0
 11
9.6059226231
 21
2.0962325422
 31
0.0
  0
LINE
  5
5CF
330
11D
100
AcDbEntity
  8
SLD-0
100
AcDbLine
 10
9.6059226231
 20
2.0962325422
 30
0.0
 11
9.5155159422
 21
2.1336802156
 31
0.0
  0
LINE
  5
5D0
330
11D
100
AcDbEntity
  8
SLD-0
100
AcDbLine
 10
9.5155159422
 20
2.1336802156
 30
0.0
 11
9.4378819652
 21
2.1932508612
 31
0.0
  0
LINE
  5
5D1
330
11D
100
AcDbEntity
  8
SLD-0
100
AcDbLine
 10
9.4378819652
 20
2.1932508612
 30
0.0
 11
9.3783113195
 21
2.2708848382
 31
0.0
  0
LINE
  5
5D2
330
11D
100
AcDbEntity
  8
SLD-0
100
AcDbLine
 10
9.3783113195
 20
2.2708848382
 30
0.0
 11
9.3408636462
 21
2.3612915191
 31
0.0
  0
LINE
  5
5D3
330
11D
100
AcDbEntity
  8
SLD-0
100
AcDbLine
 10
9.3408636462
 20
2.3612915191
 30
0.0
 11
9.3280909422
 21
2.4583098382
 31
0.0
  0
LINE
  5
5D4
330
11D
100
AcDbEntity
  8
SLD-0
100
AcDbLine
 10
9.2577689449
 20
4.1409316057
 30
0.0
 11
8.8894574206
 21
3.9883719772
 31
0.0
  0
LINE
  5
5D5
330
11D
100
AcDbEntity
  8
SLD-0
100
AcDbLine
 10
7.8725843576
 20
1.0
 30
0.0
 11
9.0468501933
 21
1.0
 31
0.0
  0
LINE
  5
5D6
330
11D
100
AcDbEntity
  8
SLD-0
100
AcDbLine
 10
8.8894574206
 20
3.9883719772
 30
0.0
 11
8.4942104698
 21
3.936336729
 31
0.0
  0
LINE
  5
5D7
330
11D
100
AcDbEntity
  8
SLD-0
100
AcDbLine
 10
8.4942104698
 20
3.936336729
 30
0.0
 11
8.4942104698
 21
3.4593206295
 31
0.0
  0
LINE
  5
5D8
330
11D
100
AcDbEntity
  8
SLD-0
100
AcDbLine
 10
8.4942104698
 20
3.4593206295
 30
0.0
 11
7.9765723796
 21
3.5274689769
 31
0.0
  0
LINE
  5
5D9
330
11D
100
AcDbEntity
  8
SLD-0
100
AcDbLine
 10
7.9765723796
 20
3.5274689769
 30
0.0
 11
7.4942104698
 21
3.7272698219
 31
0.0
  0
LINE
  5
5DA
330
11D
100
AcDbEntity
  8
SLD-0
100
AcDbLine
 10
7.5785709047
 20
2.5553281572
 30
0.0
 11
7.5913436087
 21
2.4583098382
 31
0.0
  0
LINE
  5
5DB
330
11D
100
AcDbEntity
  8
SLD-0
100
AcDbLine
 10
7.5411232313
 20
2.6457348382
 30
0.0
 11
7.5785709047
 21
2.5553281572
 31
0.0
  0
LINE
  5
5DC
330
11D
100
AcDbEntity
  8
SLD-0
100
AcDbLine
 10
7.4815525856
 20
2.7233688151
 30
0.0
 11
7.5411232313
 21
2.6457348382
 31
0.0
  0
LINE
  5
5DD
330
11D
100
AcDbEntity
  8
SLD-0
100
AcDbLine
 10
7.4942104698
 20
3.7272698219
 30
0.0
 11
7.0799969074
 21
4.0451070671
 31
0.0
  0
LINE
  5
5DE
330
11D
100
AcDbEntity
  8
SLD-0
100
AcDbLine
 10
7.4039186087
 20
2.7829394608
 30
0.0
 11
7.4815525856
 21
2.7233688151
 31
0.0
  0
LINE
  5
5DF
330
11D
100
AcDbEntity
  8
SLD-0
100
AcDbLine
 10
7.3135119278
 20
2.8203871341
 30
0.0
 11
7.4039186087
 21
2.7829394608
 31
0.0
  0
LINE
  5
5E0
330
11D
100
AcDbEntity
  8
SLD-0
100
AcDbLine
 10
7.2164936087
 20
2.8331598382
 30
0.0
 11
7.3135119278
 21
2.8203871341
 31
0.0
  0
LINE
  5
5E1
330
11D
100
AcDbEntity
  8
SLD-0
100
AcDbLine
 10
7.1194752897
 20
2.8203871341
 30
0.0
 11
7.2164936087
 21
2.8331598382
 31
0.0
  0
LINE
  5
5E2
330
11D
100
AcDbEntity
  8
SLD-0
100
AcDbLine
 10
7.0290686087
 20
2.7829394608
 30
0.0
 11
7.1194752897
 21
2.8203871341
 31
0.0
  0
LINE
  5
5E3
330
11D
100
AcDbEntity
  8
SLD-0
100
AcDbLine
 10
7.0799969074
 20
4.0451070671
 30
0.0
 11
6.7621596622
 21
4.4593206295
 31
0.0
  0
LINE
  5
5E4
330
11D
100
AcDbEntity
  8
SLD-0
100
AcDbLine
 10
6.9514346318
 20
2.7233688151
 30
0.0
 11
7.0290686087
 21
2.7829394608
 31
0.0
  0
LINE
  5
5E5
330
11D
100
AcDbEntity
  8
SLD-0
100
AcDbLine
 10
6.8918639861
 20
2.6457348382
 30
0.0
 11
6.9514346318
 21
2.7233688151
 31
0.0
  0
LINE
  5
5E6
330
11D
100
AcDbEntity
  8
SLD-0
100
AcDbLine
 10
6.8544163127
 20
2.5553281572
 30
0.0
 11
6.8918639861
 21
2.6457348382
 31
0.0
  0
LINE
  5
5E7
330
11D
100
AcDbEntity
  8
SLD-0
100
AcDbLine
 10
6.8416436087
 20
2.4583098382
 30
0.0
 11
6.8544163127
 21
2.5553281572
 31
0.0
  0
LINE
  5
5E8
330
11D
100
AcDbEntity
  8
SLD-0
100
AcDbLine
 10
7.5785709047
 20
8.5581430318
 30
0.0
 11
7.5913436087
 21
8.4611247127
 31
0.0
  0
LINE
  5
5E9
330
11D
100
AcDbEntity
  8
SLD-0
100
AcDbLine
 10
7.5411232313
 20
8.6485497127
 30
0.0
 11
7.5785709047
 21
8.5581430318
 31
0.0
  0
LINE
  5
5EA
330
11D
100
AcDbEntity
  8
SLD-0
100
AcDbLine
 10
7.4815525856
 20
8.7261836896
 30
0.0
 11
7.5411232313
 21
8.6485497127
 31
0.0
  0
LINE
  5
5EB
330
11D
100
AcDbEntity
  8
SLD-0
100
AcDbLine
 10
7.8725843576
 20
9.9194345509
 30
0.0
 11
6.73833066
 21
9.6155121886
 31
0.0
  0
LINE
  5
5EC
330
11D
100
AcDbEntity
  8
SLD-0
100
AcDbLine
 10
7.4039186087
 20
8.7857543353
 30
0.0
 11
7.4815525856
 21
8.7261836896
 31
0.0
  0
LINE
  5
5ED
330
11D
100
AcDbEntity
  8
SLD-0
100
AcDbLine
 10
7.3135119278
 20
8.8232020087
 30
0.0
 11
7.4039186087
 21
8.7857543353
 31
0.0
  0
LINE
  5
5EE
330
11D
100
AcDbEntity
  8
SLD-0
100
AcDbLine
 10
7.2164936087
 20
8.8359747127
 30
0.0
 11
7.3135119278
 21
8.8232020087
 31
0.0
  0
LINE
  5
5EF
330
11D
100
AcDbEntity
  8
SLD-0
100
AcDbLine
 10
7.1194752897
 20
8.8232020087
 30
0.0
 11
7.2164936087
 21
8.8359747127
 31
0.0
  0
LINE
  5
5F0
330
11D
100
AcDbEntity
  8
SLD-0
100
AcDbLine
 10
7.0290686087
 20
8.7857543353
 30
0.0
 11
7.1194752897
 21
8.8232020087
 31
0.0
  0
LINE
  5
5F1
330
11D
100
AcDbEntity
  8
SLD-0
100
AcDbLine
 10
6.9514346318
 20
8.7261836896
 30
0.0
 11
7.0290686087
 21
8.7857543353
 31
0.0
  0
LINE
  5
5F2
330
11D
100
AcDbEntity
  8
SLD-0
100
AcDbLine
 10
6.8918639861
 20
8.6485497127
 30
0.0
 11
6.9514346318
 21
8.7261836896
 31
0.0
  0
LINE
  5
5F3
330
11D
100
AcDbEntity
  8
SLD-0
100
AcDbLine
 10
6.8544163127
 20
8.5581430318
 30
0.0
 11
6.8918639861
 21
8.6485497127
 31
0.0
  0
LINE
  5
5F4
330
11D
100
AcDbEntity
  8
SLD-0
100
AcDbLine
 10
6.8416436087
 20
8.4611247127
 30
0.0
 11
6.8544163127
 21
8.5581430318
 31
0.0
  0
LINE
  5
5F5
330
11D
100
AcDbEntity
  8
SLD-0
100
AcDbLine
 10
6.5623588172
 20
5.9769587197
 30
0.0
 11
6.7621596622
 21
6.4593206295
 31
0.0
  0
LINE
  5
5F6
330
11D
100
AcDbEntity
  8
SLD-0
100
AcDbLine
 10
6.73833066
 20
9.6155121886
 30
0.0
 11
5.7213866155
 21
9.0283792707
 31
0.0
  0
LINE
  5
5F7
330
11D
100
AcDbEntity
  8
SLD-0
100
AcDbLine
 10
6.4942104698
 20
5.4593206295
 30
0.0
 11
6.5623588172
 21
5.9769587197
 31
0.0
  0
LINE
  5
5F8
330
11D
100
AcDbEntity
  8
SLD-0
100
AcDbLine
 10
5.8203871341
 20
6.7999592612
 30
0.0
 11
5.8331598382
 21
6.7029409422
 31
0.0
  0
LINE
  5
5F9
330
11D
100
AcDbEntity
  8
SLD-0
100
AcDbLine
 10
5.7829394608
 20
6.8903659422
 30
0.0
 11
5.8203871341
 21
6.7999592612
 31
0.0
  0
LINE
  5
5FA
330
11D
100
AcDbEntity
  8
SLD-0
100
AcDbLine
 10
5.7233688151
 20
6.9679999191
 30
0.0
 11
5.7829394608
 21
6.8903659422
 31
0.0
  0
LINE
  5
5FB
330
11D
100
AcDbEntity
  8
SLD-0
100
AcDbLine
 10
5.6457348382
 20
7.0275705648
 30
0.0
 11
5.7233688151
 21
6.9679999191
 31
0.0
  0
LINE
  5
5FC
330
11D
100
AcDbEntity
  8
SLD-0
100
AcDbLine
 10
5.7213866155
 20
9.0283792707
 30
0.0
 11
4.8910552801
 21
8.1980479354
 31
0.0
  0
LINE
  5
5FD
330
11D
100
AcDbEntity
  8
SLD-0
100
AcDbLine
 10
5.5553281572
 20
7.0650182381
 30
0.0
 11
5.6457348382
 21
7.0275705648
 31
0.0
  0
LINE
  5
5FE
330
11D
100
AcDbEntity
  8
SLD-0
100
AcDbLine
 10
5.4583098382
 20
7.0777909422
 30
0.0
 11
5.5553281572
 21
7.0650182381
 31
0.0
  0
LINE
  5
5FF
330
11D
100
AcDbEntity
  8
SLD-0
100
AcDbLine
 10
5.3612915191
 20
7.0650182381
 30
0.0
 11
5.4583098382
 21
7.0777909422
 31
0.0
  0
LINE
  5
600
330
11D
100
AcDbEntity
  8
SLD-0
100
AcDbLine
 10
5.2708848382
 20
7.0275705648
 30
0.0
 11
5.3612915191
 21
7.0650182381
 31
0.0
  0
LINE
  5
601
330
11D
100
AcDbEntity
  8
SLD-0
100
AcDbLine
 10
5.1932508612
 20
6.9679999191
 30
0.0
 11
5.2708848382
 21
7.0275705648
 31
0.0
  0
LINE
  5
602
330
11D
100
AcDbEntity
  8
SLD-0
100
AcDbLine
 10
5.1336802156
 20
6.8903659422
 30
0.0
 11
5.1932508612
 21
6.9679999191
 31
0.0
  0
LINE
  5
603
330
11D
100
AcDbEntity
  8
SLD-0
100
AcDbLine
 10
5.0962325422
 20
6.7999592612
 30
0.0
 11
5.1336802156
 21
6.8903659422
 31
0.0
  0
LINE
  5
604
330
11D
100
AcDbEntity
  8
SLD-0
100
AcDbLine
 10
5.0834598382
 20
6.7029409422
 30
0.0
 11
5.0962325422
 21
6.7999592612
 31
0.0
  0
LINE
  5
605
330
11D
100
AcDbEntity
  8
SLD-0
100
AcDbLine
 10
6.73833066
 20
1.3039223623
 30
0.0
 11
7.8725843576
 21
1.0
 31
0.0
  0
LINE
  5
606
330
11D
100
AcDbEntity
  8
SLD-0
100
AcDbLine
 10
7.5411232313
 20
2.2708848382
 30
0.0
 11
7.4815525856
 21
2.1932508612
 31
0.0
  0
LINE
  5
607
330
11D
100
AcDbEntity
  8
SLD-0
100
AcDbLine
 10
7.5785709047
 20
2.3612915191
 30
0.0
 11
7.5411232313
 21
2.2708848382
 31
0.0
  0
LINE
  5
608
330
11D
100
AcDbEntity
  8
SLD-0
100
AcDbLine
 10
7.5913436087
 20
2.4583098382
 30
0.0
 11
7.5785709047
 21
2.3612915191
 31
0.0
  0
LINE
  5
609
330
11D
100
AcDbEntity
  8
SLD-0
100
AcDbLine
 10
7.4815525856
 20
2.1932508612
 30
0.0
 11
7.4039186087
 21
2.1336802156
 31
0.0
  0
LINE
  5
60A
330
11D
100
AcDbEntity
  8
SLD-0
100
AcDbLine
 10
7.4039186087
 20
2.1336802156
 30
0.0
 11
7.3135119278
 21
2.0962325422
 31
0.0
  0
LINE
  5
60B
330
11D
100
AcDbEntity
  8
SLD-0
100
AcDbLine
 10
7.3135119278
 20
2.0962325422
 30
0.0
 11
7.2164936087
 21
2.0834598382
 31
0.0
  0
LINE
  5
60C
330
11D
100
AcDbEntity
  8
SLD-0
100
AcDbLine
 10
7.2164936087
 20
2.0834598382
 30
0.0
 11
7.1194752897
 21
2.0962325422
 31
0.0
  0
LINE
  5
60D
330
11D
100
AcDbEntity
  8
SLD-0
100
AcDbLine
 10
7.1194752897
 20
2.0962325422
 30
0.0
 11
7.0290686087
 21
2.1336802156
 31
0.0
  0
LINE
  5
60E
330
11D
100
AcDbEntity
  8
SLD-0
100
AcDbLine
 10
7.0290686087
 20
2.1336802156
 30
0.0
 11
6.9514346318
 21
2.1932508612
 31
0.0
  0
LINE
  5
60F
330
11D
100
AcDbEntity
  8
SLD-0
100
AcDbLine
 10
6.9514346318
 20
2.1932508612
 30
0.0
 11
6.8918639861
 21
2.2708848382
 31
0.0
  0
LINE
  5
610
330
11D
100
AcDbEntity
  8
SLD-0
100
AcDbLine
 10
6.8918639861
 20
2.2708848382
 30
0.0
 11
6.8544163127
 21
2.3612915191
 31
0.0
  0
LINE
  5
611
330
11D
100
AcDbEntity
  8
SLD-0
100
AcDbLine
 10
6.8544163127
 20
2.3612915191
 30
0.0
 11
6.8416436087
 21
2.4583098382
 31
0.0
  0
LINE
  5
612
330
11D
100
AcDbEntity
  8
SLD-0
100
AcDbLine
 10
6.7621596622
 20
4.4593206295
 30
0.0
 11
6.5623588172
 21
4.9416825393
 31
0.0
  0
LINE
  5
613
330
11D
100
AcDbEntity
  8
SLD-0
100
AcDbLine
 10
5.7213866155
 20
1.8910552801
 30
0.0
 11
6.73833066
 21
1.3039223623
 31
0.0
  0
LINE
  5
614
330
11D
100
AcDbEntity
  8
SLD-0
100
AcDbLine
 10
6.5623588172
 20
4.9416825393
 30
0.0
 11
6.4942104698
 21
5.4593206295
 31
0.0
  0
LINE
  5
615
330
11D
100
AcDbEntity
  8
SLD-0
100
AcDbLine
 10
5.8331598382
 20
4.2164936087
 30
0.0
 11
5.8203871341
 21
4.1194752897
 31
0.0
  0
LINE
  5
616
330
11D
100
AcDbEntity
  8
SLD-0
100
AcDbLine
 10
5.8203871341
 20
4.1194752897
 30
0.0
 11
5.7829394608
 21
4.0290686087
 31
0.0
  0
LINE
  5
617
330
11D
100
AcDbEntity
  8
SLD-0
100
AcDbLine
 10
5.7829394608
 20
4.0290686087
 30
0.0
 11
5.7233688151
 21
3.9514346318
 31
0.0
  0
LINE
  5
618
330
11D
100
AcDbEntity
  8
SLD-0
100
AcDbLine
 10
5.7233688151
 20
3.9514346318
 30
0.0
 11
5.6457348382
 21
3.8918639861
 31
0.0
  0
LINE
  5
619
330
11D
100
AcDbEntity
  8
SLD-0
100
AcDbLine
 10
4.8910552801
 20
2.7213866155
 30
0.0
 11
5.7213866155
 21
1.8910552801
 31
0.0
  0
LINE
  5
61A
330
11D
100
AcDbEntity
  8
SLD-0
100
AcDbLine
 10
5.6457348382
 20
3.8918639861
 30
0.0
 11
5.5553281572
 21
3.8544163127
 31
0.0
  0
LINE
  5
61B
330
11D
100
AcDbEntity
  8
SLD-0
100
AcDbLine
 10
5.5553281572
 20
3.8544163127
 30
0.0
 11
5.4583098382
 21
3.8416436087
 31
0.0
  0
LINE
  5
61C
330
11D
100
AcDbEntity
  8
SLD-0
100
AcDbLine
 10
5.4583098382
 20
3.8416436087
 30
0.0
 11
5.3612915191
 21
3.8544163127
 31
0.0
  0
LINE
  5
61D
330
11D
100
AcDbEntity
  8
SLD-0
100
AcDbLine
 10
5.3612915191
 20
3.8544163127
 30
0.0
 11
5.2708848382
 21
3.8918639861
 31
0.0
  0
LINE
  5
61E
330
11D
100
AcDbEntity
  8
SLD-0
100
AcDbLine
 10
5.2708848382
 20
3.8918639861
 30
0.0
 11
5.1932508612
 21
3.9514346318
 31
0.0
  0
LINE
  5
61F
330
11D
100
AcDbEntity
  8
SLD-0
100
AcDbLine
 10
5.1932508612
 20
3.9514346318
 30
0.0
 11
5.1336802156
 21
4.0290686087
 31
0.0
  0
LINE
  5
620
330
11D
100
AcDbEntity
  8
SLD-0
100
AcDbLine
 10
5.1336802156
 20
4.0290686087
 30
0.0
 11
5.0962325422
 21
4.1194752897
 31
0.0
  0
LINE
  5
621
330
11D
100
AcDbEntity
  8
SLD-0
100
AcDbLine
 10
5.0962325422
 20
4.1194752897
 30
0.0
 11
5.0834598382
 21
4.2164936087
 31
0.0
  0
LINE
  5
622
330
11D
100
AcDbEntity
  8
SLD-0
100
AcDbLine
 10
4.8910552801
 20
8.1980479354
 30
0.0
 11
4.3039223623
 21
7.1811038909
 31
0.0
  0
LINE
  5
623
330
11D
100
AcDbEntity
  8
SLD-0
100
AcDbLine
 10
4.3039223623
 20
3.73833066
 30
0.0
 11
4.8910552801
 21
2.7213866155
 31
0.0
  0
LINE
  5
624
330
11D
100
AcDbEntity
  8
SLD-0
100
AcDbLine
 10
4.3039223623
 20
7.1811038909
 30
0.0
 11
4.0
 21
6.0468501933
 31
0.0
  0
LINE
  5
625
330
11D
100
AcDbEntity
  8
SLD-0
100
AcDbLine
 10
4.0
 20
6.0468501933
 30
0.0
 11
4.0
 21
4.8725843576
 31
0.0
  0
LINE
  5
626
330
11D
100
AcDbEntity
  8
SLD-0
100
AcDbLine
 10
4.0
 20
4.8725843576
 30
0.0
 11
4.3039223623
 21
3.73833066
 31
0.0
  0
LINE
  5
627
330
11D
100
AcDbEntity
  8
SLD-0
100
AcDbLine
 10
5.8331598382
 20
6.7029409422
 30
0.0
 11
5.8203871341
 21
6.6059226231
 31
0.0
  0
LINE
  5
628
330
11D
100
AcDbEntity
  8
SLD-0
100
AcDbLine
 10
5.8203871341
 20
4.3135119278
 30
0.0
 11
5.8331598382
 21
4.2164936087
 31
0.0
  0
LINE
  5
629
330
11D
100
AcDbEntity
  8
SLD-0
100
AcDbLine
 10
5.8203871341
 20
6.6059226231
 30
0.0
 11
5.7829394608
 21
6.5155159422
 31
0.0
  0
LINE
  5
62A
330
11D
100
AcDbEntity
  8
SLD-0
100
AcDbLine
 10
5.7829394608
 20
4.4039186087
 30
0.0
 11
5.8203871341
 21
4.3135119278
 31
0.0
  0
LINE
  5
62B
330
11D
100
AcDbEntity
  8
SLD-0
100
AcDbLine
 10
5.7829394608
 20
6.5155159422
 30
0.0
 11
5.7233688151
 21
6.4378819652
 31
0.0
  0
LINE
  5
62C
330
11D
100
AcDbEntity
  8
SLD-0
100
AcDbLine
 10
5.7233688151
 20
4.4815525856
 30
0.0
 11
5.7829394608
 21
4.4039186087
 31
0.0
  0
LINE
  5
62D
330
11D
100
AcDbEntity
  8
SLD-0
100
AcDbLine
 10
5.7233688151
 20
6.4378819652
 30
0.0
 11
5.6457348382
 21
6.3783113195
 31
0.0
  0
LINE
  5
62E
330
11D
100
AcDbEntity
  8
SLD-0
100
AcDbLine
 10
5.6457348382
 20
4.5411232313
 30
0.0
 11
5.7233688151
 21
4.4815525856
 31
0.0
  0
LINE
  5
62F
330
11D
100
AcDbEntity
  8
SLD-0
100
AcDbLine
 10
5.6457348382
 20
6.3783113195
 30
0.0
 11
5.5553281572
 21
6.3408636462
 31
0.0
  0
LINE
  5
630
330
11D
100
AcDbEntity
  8
SLD-0
100
AcDbLine
 10
5.5553281572
 20
4.5785709047
 30
0.0
 11
5.6457348382
 21
4.5411232313
 31
0.0
  0
LINE
  5
631
330
11D
100
AcDbEntity
  8
SLD-0
100
AcDbLine
 10
5.5553281572
 20
6.3408636462
 30
0.0
 11
5.4583098382
 21
6.3280909422
 31
0.0
  0
LINE
  5
632
330
11D
100
AcDbEntity
  8
SLD-0
100
AcDbLine
 10
5.4583098382
 20
4.5913436087
 30
0.0
 11
5.5553281572
 21
4.5785709047
 31
0.0
  0
LINE
  5
633
330
11D
100
AcDbEntity
  8
SLD-0
100
AcDbLine
 10
5.4583098382
 20
6.3280909422
 30
0.0
 11
5.3612915191
 21
6.3408636462
 31
0.0
  0
LINE
  5
634
330
11D
100
AcDbEntity
  8
SLD-0
100
AcDbLine
 10
5.3612915191
 20
4.5785709047
 30
0.0
 11
5.4583098382
 21
4.5913436087
 31
0.0
  0
LINE
  5
635
330
11D
100
AcDbEntity
  8
SLD-0
100
AcDbLine
 10
5.3612915191
 20
6.3408636462
 30
0.0
 11
5.2708848382
 21
6.3783113195
 31
0.0
  0
LINE
  5
636
330
11D
100
AcDbEntity
  8
SLD-0
100
AcDbLine
 10
5.2708848382
 20
4.5411232313
 30
0.0
 11
5.3612915191
 21
4.5785709047
 31
0.0
  0
LINE
  5
637
330
11D
100
AcDbEntity
  8
SLD-0
100
AcDbLine
 10
5.2708848382
 20
6.3783113195
 30
0.0
 11
5.1932508612
 21
6.4378819652
 31
0.0
  0
LINE
  5
638
330
11D
100
AcDbEntity
  8
SLD-0
100
AcDbLine
 10
5.1932508612
 20
4.4815525856
 30
0.0
 11
5.2708848382
 21
4.5411232313
 31
0.0
  0
LINE
  5
639
330
11D
100
AcDbEntity
  8
SLD-0
100
AcDbLine
 10
5.1932508612
 20
6.4378819652
 30
0.0
 11
5.1336802156
 21
6.5155159422
 31
0.0
  0
LINE
  5
63A
330
11D
100
AcDbEntity
  8
SLD-0
100
AcDbLine
 10
5.1336802156
 20
4.4039186087
 30
0.0
 11
5.1932508612
 21
4.4815525856
 31
0.0
  0
LINE
  5
63B
330
11D
100
AcDbEntity
  8
SLD-0
100
AcDbLine
 10
5.1336802156
 20
6.5155159422
 30
0.0
 11
5.0962325422
 21
6.6059226231
 31
0.0
  0
LINE
  5
63C
330
11D
100
AcDbEntity
  8
SLD-0
100
AcDbLine
 10
5.0962325422
 20
4.3135119278
 30
0.0
 11
5.1336802156
 21
4.4039186087
 31
0.0
  0
LINE
  5
63D
330
11D
100
AcDbEntity
  8
SLD-0
100
AcDbLine
 10
5.0962325422
 20
6.6059226231
 30
0.0
 11
5.0834598382
 21
6.7029409422
 31
0.0
  0
LINE
  5
63E
330
11D
100
AcDbEntity
  8
SLD-0
100
AcDbLine
 10
5.0834598382
 20
4.2164936087
 30
0.0
 11
5.0962325422
 21
4.3135119278
 31
0.0
  0
LINE
  5
63F
330
11D
100
AcDbEntity
  8
SLD-0
100
AcDbLine
 10
11.1980479354
 20
1.8910552801
 30
0.0
 11
12.0283792707
 21
2.7213866155
 31
0.0
  0
LINE
  5
640
330
11D
100
AcDbEntity
  8
SLD-0
100
AcDbLine
 10
11.8359747127
 20
4.2164936087
 30
0.0
 11
11.8232020087
 21
4.1194752897
 31
0.0
  0
LINE
  5
641
330
11D
100
AcDbEntity
  8
SLD-0
100
AcDbLine
 10
11.8232020087
 20
4.1194752897
 30
0.0
 11
11.7857543353
 21
4.0290686087
 31
0.0
  0
LINE
  5
642
330
11D
100
AcDbEntity
  8
SLD-0
100
AcDbLine
 10
11.7857543353
 20
4.0290686087
 30
0.0
 11
11.7261836896
 21
3.9514346318
 31
0.0
  0
LINE
  5
643
330
11D
100
AcDbEntity
  8
SLD-0
100
AcDbLine
 10
11.7261836896
 20
3.9514346318
 30
0.0
 11
11.6485497127
 21
3.8918639861
 31
0.0
  0
LINE
  5
644
330
11D
100
AcDbEntity
  8
SLD-0
100
AcDbLine
 10
11.6485497127
 20
3.8918639861
 30
0.0
 11
11.5581430318
 21
3.8544163127
 31
0.0
  0
LINE
  5
645
330
11D
100
AcDbEntity
  8
SLD-0
100
AcDbLine
 10
11.5581430318
 20
3.8544163127
 30
0.0
 11
11.4611247127
 21
3.8416436087
 31
0.0
  0
LINE
  5
646
330
11D
100
AcDbEntity
  8
SLD-0
100
AcDbLine
 10
11.4611247127
 20
3.8416436087
 30
0.0
 11
11.3641063936
 21
3.8544163127
 31
0.0
  0
LINE
  5
647
330
11D
100
AcDbEntity
  8
SLD-0
100
AcDbLine
 10
11.3641063936
 20
3.8544163127
 30
0.0
 11
11.2736997127
 21
3.8918639861
 31
0.0
  0
LINE
  5
648
330
11D
100
AcDbEntity
  8
SLD-0
100
AcDbLine
 10
11.2736997127
 20
3.8918639861
 30
0.0
 11
11.1960657358
 21
3.9514346318
 31
0.0
  0
LINE
  5
649
330
11D
100
AcDbEntity
  8
SLD-0
100
AcDbLine
 10
10.1811038909
 20
1.3039223623
 30
0.0
 11
11.1980479354
 21
1.8910552801
 31
0.0
  0
LINE
  5
64A
330
11D
100
AcDbEntity
  8
SLD-0
100
AcDbLine
 10
11.1960657358
 20
3.9514346318
 30
0.0
 11
11.1364950901
 21
4.0290686087
 31
0.0
  0
LINE
  5
64B
330
11D
100
AcDbEntity
  8
SLD-0
100
AcDbLine
 10
11.1364950901
 20
4.0290686087
 30
0.0
 11
11.0990474167
 21
4.1194752897
 31
0.0
  0
LINE
  5
64C
330
11D
100
AcDbEntity
  8
SLD-0
100
AcDbLine
 10
11.0990474167
 20
4.1194752897
 30
0.0
 11
11.0862747127
 21
4.2164936087
 31
0.0
  0
LINE
  5
64D
330
11D
100
AcDbEntity
  8
SLD-0
100
AcDbLine
 10
10.0650182381
 20
8.5581430318
 30
0.0
 11
10.0777909422
 21
8.4611247127
 31
0.0
  0
LINE
  5
64E
330
11D
100
AcDbEntity
  8
SLD-0
100
AcDbLine
 10
10.0275705648
 20
8.6485497127
 30
0.0
 11
10.0650182381
 21
8.5581430318
 31
0.0
  0
LINE
  5
64F
330
11D
100
AcDbEntity
  8
SLD-0
100
AcDbLine
 10
9.9679999191
 20
8.7261836896
 30
0.0
 11
10.0275705648
 21
8.6485497127
 31
0.0
  0
LINE
  5
650
330
11D
100
AcDbEntity
  8
SLD-0
100
AcDbLine
 10
10.1811038909
 20
9.6155121886
 30
0.0
 11
9.0468501933
 21
9.9194345509
 31
0.0
  0
LINE
  5
651
330
11D
100
AcDbEntity
  8
SLD-0
100
AcDbLine
 10
9.8903659422
 20
8.7857543353
 30
0.0
 11
9.9679999191
 21
8.7261836896
 31
0.0
  0
LINE
  5
652
330
11D
100
AcDbEntity
  8
SLD-0
100
AcDbLine
 10
9.7999592612
 20
8.8232020087
 30
0.0
 11
9.8903659422
 21
8.7857543353
 31
0.0
  0
LINE
  5
653
330
11D
100
AcDbEntity
  8
SLD-0
100
AcDbLine
 10
9.7029409422
 20
8.8359747127
 30
0.0
 11
9.7999592612
 21
8.8232020087
 31
0.0
  0
LINE
  5
654
330
11D
100
AcDbEntity
  8
SLD-0
100
AcDbLine
 10
9.6059226231
 20
8.8232020087
 30
0.0
 11
9.7029409422
 21
8.8359747127
 31
0.0
  0
LINE
  5
655
330
11D
100
AcDbEntity
  8
SLD-0
100
AcDbLine
 10
9.5155159422
 20
8.7857543353
 30
0.0
 11
9.6059226231
 21
8.8232020087
 31
0.0
  0
LINE
  5
656
330
11D
100
AcDbEntity
  8
SLD-0
100
AcDbLine
 10
9.4378819652
 20
8.7261836896
 30
0.0
 11
9.5155159422
 21
8.7857543353
 31
0.0
  0
LINE
  5
657
330
11D
100
AcDbEntity
  8
SLD-0
100
AcDbLine
 10
9.3783113195
 20
8.6485497127
 30
0.0
 11
9.4378819652
 21
8.7261836896
 31
0.0
  0
LINE
  5
658
330
11D
100
AcDbEntity
  8
SLD-0
100
AcDbLine
 10
9.3408636462
 20
8.5581430318
 30
0.0
 11
9.3783113195
 21
8.6485497127
 31
0.0
  0
LINE
  5
659
330
11D
100
AcDbEntity
  8
SLD-0
100
AcDbLine
 10
9.3280909422
 20
8.4611247127
 30
0.0
 11
9.3408636462
 21
8.5581430318
 31
0.0
  0
LINE
  5
65A
330
11D
100
AcDbEntity
  8
SLD-0
100
AcDbLine
 10
8.8894574206
 20
6.9385353813
 30
0.0
 11
9.2577689449
 21
6.7859757527
 31
0.0
  0
LINE
  5
65B
330
11D
100
AcDbEntity
  8
SLD-0
100
AcDbLine
 10
9.0468501933
 20
9.9194345509
 30
0.0
 11
7.8725843576
 21
9.9194345509
 31
0.0
  0
LINE
  5
65C
330
11D
100
AcDbEntity
  8
SLD-0
100
AcDbLine
 10
7.9765723796
 20
7.3911722821
 30
0.0
 11
8.4942104698
 21
7.4593206295
 31
0.0
  0
LINE
  5
65D
330
11D
100
AcDbEntity
  8
SLD-0
100
AcDbLine
 10
7.4942104698
 20
7.1913714371
 30
0.0
 11
7.9765723796
 21
7.3911722821
 31
0.0
  0
LINE
  5
65E
330
11D
100
AcDbEntity
  8
SLD-0
100
AcDbLine
 10
7.5913436087
 20
8.4611247127
 30
0.0
 11
7.5785709047
 21
8.3641063936
 31
0.0
  0
LINE
  5
65F
330
11D
100
AcDbEntity
  8
SLD-0
100
AcDbLine
 10
7.5785709047
 20
8.3641063936
 30
0.0
 11
7.5411232313
 21
8.2736997127
 31
0.0
  0
LINE
  5
660
330
11D
100
AcDbEntity
  8
SLD-0
100
AcDbLine
 10
7.5411232313
 20
8.2736997127
 30
0.0
 11
7.4815525856
 21
8.1960657358
 31
0.0
  0
LINE
  5
661
330
11D
100
AcDbEntity
  8
SLD-0
100
AcDbLine
 10
7.0799969074
 20
6.8735341919
 30
0.0
 11
7.4942104698
 21
7.1913714371
 31
0.0
  0
LINE
  5
662
330
11D
100
AcDbEntity
  8
SLD-0
100
AcDbLine
 10
7.4815525856
 20
8.1960657358
 30
0.0
 11
7.4039186087
 21
8.1364950901
 31
0.0
  0
LINE
  5
663
330
11D
100
AcDbEntity
  8
SLD-0
100
AcDbLine
 10
7.4039186087
 20
8.1364950901
 30
0.0
 11
7.3135119278
 21
8.0990474167
 31
0.0
  0
LINE
  5
664
330
11D
100
AcDbEntity
  8
SLD-0
100
AcDbLine
 10
7.3135119278
 20
8.0990474167
 30
0.0
 11
7.2164936087
 21
8.0862747127
 31
0.0
  0
LINE
  5
665
330
11D
100
AcDbEntity
  8
SLD-0
100
AcDbLine
 10
7.2164936087
 20
8.0862747127
 30
0.0
 11
7.1194752897
 21
8.0990474167
 31
0.0
  0
LINE
  5
666
330
11D
100
AcDbEntity
  8
SLD-0
100
AcDbLine
 10
7.1194752897
 20
8.0990474167
 30
0.0
 11
7.0290686087
 21
8.1364950901
 31
0.0
  0
LINE
  5
667
330
11D
100
AcDbEntity
  8
SLD-0
100
AcDbLine
 10
6.7621596622
 20
6.4593206295
 30
0.0
 11
7.0799969074
 21
6.8735341919
 31
0.0
  0
LINE
  5
668
330
11D
100
AcDbEntity
  8
SLD-0
100
AcDbLine
 10
7.0290686087
 20
8.1364950901
 30
0.0
 11
6.9514346318
 21
8.1960657358
 31
0.0
  0
LINE
  5
669
330
11D
100
AcDbEntity
  8
SLD-0
100
AcDbLine
 10
6.9514346318
 20
8.1960657358
 30
0.0
 11
6.8918639861
 21
8.2736997127
 31
0.0
  0
LINE
  5
66A
330
11D
100
AcDbEntity
  8
SLD-0
100
AcDbLine
 10
6.8918639861
 20
8.2736997127
 30
0.0
 11
6.8544163127
 21
8.3641063936
 31
0.0
  0
LINE
  5
66B
330
11D
100
AcDbEntity
  8
SLD-0
100
AcDbLine
 10
6.8544163127
 20
8.3641063936
 30
0.0
 11
6.8416436087
 21
8.4611247127
 31
0.0
  0
LINE
  5
66C
330
11D
100
AcDbEntity
  8
SLD-0
100
AcDbLine
 10
8.4942104698
 20
6.9905706295
 30
0.0
 11
8.4942104698
 21
7.4593206295
 31
0.0
  0
LINE
  5
66D
330
11D
100
AcDbEntity
  8
SLD-0
100
AcDbLine
 10
8.4942104698
 20
7.4593206295
 30
0.0
 11
8.4942104698
 21
6.9905706295
 31
0.0
  0
LINE
  5
66E
330
11D
100
AcDbEntity
  8
SLD-0
100
AcDbLine
 10
8.4942104698
 20
7.4593206295
 30
0.0
 11
7.9765723796
 21
7.3911722821
 31
0.0
  0
LINE
  5
66F
330
11D
100
AcDbEntity
  8
SLD-0
100
AcDbLine
 10
7.9765723796
 20
7.3911722821
 30
0.0
 11
8.4942104698
 21
7.4593206295
 31
0.0
  0
LINE
  5
670
330
11D
100
AcDbEntity
  8
SLD-0
100
AcDbLine
 10
7.9765723796
 20
7.3911722821
 30
0.0
 11
7.4942104698
 21
7.1913714371
 31
0.0
  0
LINE
  5
671
330
11D
100
AcDbEntity
  8
SLD-0
100
AcDbLine
 10
7.4942104698
 20
7.1913714371
 30
0.0
 11
7.9765723796
 21
7.3911722821
 31
0.0
  0
LINE
  5
672
330
11D
100
AcDbEntity
  8
SLD-0
100
AcDbLine
 10
7.4942104698
 20
7.1913714371
 30
0.0
 11
7.0799969074
 21
6.8735341919
 31
0.0
  0
LINE
  5
673
330
11D
100
AcDbEntity
  8
SLD-0
100
AcDbLine
 10
7.0799969074
 20
6.8735341919
 30
0.0
 11
7.4942104698
 21
7.1913714371
 31
0.0
  0
LINE
  5
674
330
11D
100
AcDbEntity
  8
SLD-0
100
AcDbLine
 10
7.0799969074
 20
6.8735341919
 30
0.0
 11
6.7621596622
 21
6.4593206295
 31
0.0
  0
LINE
  5
675
330
11D
100
AcDbEntity
  8
SLD-0
100
AcDbLine
 10
6.7621596622
 20
6.4593206295
 30
0.0
 11
7.0799969074
 21
6.8735341919
 31
0.0
  0
LINE
  5
676
330
11D
100
AcDbEntity
  8
SLD-0
100
AcDbLine
 10
6.7621596622
 20
6.4593206295
 30
0.0
 11
6.5623588172
 21
5.9769587197
 31
0.0
  0
LINE
  5
677
330
11D
100
AcDbEntity
  8
SLD-0
100
AcDbLine
 10
6.5623588172
 20
5.9769587197
 30
0.0
 11
6.7621596622
 21
6.4593206295
 31
0.0
  0
LINE
  5
678
330
11D
100
AcDbEntity
  8
SLD-0
100
AcDbLine
 10
6.5623588172
 20
5.9769587197
 30
0.0
 11
6.4942104698
 21
5.4593206295
 31
0.0
  0
LINE
  5
679
330
11D
100
AcDbEntity
  8
SLD-0
100
AcDbLine
 10
6.4942104698
 20
5.4593206295
 30
0.0
 11
6.5623588172
 21
5.9769587197
 31
0.0
  0
LINE
  5
67A
330
11D
100
AcDbEntity
  8
SLD-0
100
AcDbLine
 10
6.4942104698
 20
5.4593206295
 30
0.0
 11
6.5623588172
 21
4.9416825393
 31
0.0
  0
LINE
  5
67B
330
11D
100
AcDbEntity
  8
SLD-0
100
AcDbLine
 10
6.5623588172
 20
4.9416825393
 30
0.0
 11
6.4942104698
 21
5.4593206295
 31
0.0
  0
LINE
  5
67C
330
11D
100
AcDbEntity
  8
SLD-0
100
AcDbLine
 10
6.5623588172
 20
4.9416825393
 30
0.0
 11
6.7621596622
 21
4.4593206295
 31
0.0
  0
LINE
  5
67D
330
11D
100
AcDbEntity
  8
SLD-0
100
AcDbLine
 10
6.7621596622
 20
4.4593206295
 30
0.0
 11
6.5623588172
 21
4.9416825393
 31
0.0
  0
LINE
  5
67E
330
11D
100
AcDbEntity
  8
SLD-0
100
AcDbLine
 10
6.7621596622
 20
4.4593206295
 30
0.0
 11
7.0799969074
 21
4.0451070671
 31
0.0
  0
LINE
  5
67F
330
11D
100
AcDbEntity
  8
SLD-0
100
AcDbLine
 10
7.0799969074
 20
4.0451070671
 30
0.0
 11
6.7621596622
 21
4.4593206295
 31
0.0
  0
LINE
  5
680
330
11D
100
AcDbEntity
  8
SLD-0
100
AcDbLine
 10
7.0799969074
 20
4.0451070671
 30
0.0
 11
7.4942104698
 21
3.7272698219
 31
0.0
  0
LINE
  5
681
330
11D
100
AcDbEntity
  8
SLD-0
100
AcDbLine
 10
7.4942104698
 20
3.7272698219
 30
0.0
 11
7.0799969074
 21
4.0451070671
 31
0.0
  0
LINE
  5
682
330
11D
100
AcDbEntity
  8
SLD-0
100
AcDbLine
 10
7.4942104698
 20
3.7272698219
 30
0.0
 11
7.9765723796
 21
3.5274689769
 31
0.0
  0
LINE
  5
683
330
11D
100
AcDbEntity
  8
SLD-0
100
AcDbLine
 10
7.9765723796
 20
3.5274689769
 30
0.0
 11
7.4942104698
 21
3.7272698219
 31
0.0
  0
LINE
  5
684
330
11D
100
AcDbEntity
  8
SLD-0
100
AcDbLine
 10
7.9765723796
 20
3.5274689769
 30
0.0
 11
8.4942104698
 21
3.4593206295
 31
0.0
  0
LINE
  5
685
330
11D
100
AcDbEntity
  8
SLD-0
100
AcDbLine
 10
8.4942104698
 20
3.4593206295
 30
0.0
 11
7.9765723796
 21
3.5274689769
 31
0.0
  0
LINE
  5
686
330
11D
100
AcDbEntity
  8
SLD-0
100
AcDbLine
 10
8.4942104698
 20
3.4593206295
 30
0.0
 11
8.4942104698
 21
3.936336729
 31
0.0
  0
LINE
  5
687
330
11D
100
AcDbEntity
  8
SLD-0
100
AcDbLine
 10
8.4942104698
 20
3.936336729
 30
0.0
 11
8.4942104698
 21
3.4593206295
 31
0.0
  0
LINE
  5
688
330
11D
100
AcDbEntity
  8
SLD-0
100
AcDbLine
 10
8.4942104698
 20
3.936336729
 30
0.0
 11
8.8894574206
 21
3.9883719772
 31
0.0
  0
LINE
  5
689
330
11D
100
AcDbEntity
  8
SLD-0
100
AcDbLine
 10
8.8894574206
 20
3.9883719772
 30
0.0
 11
8.4942104698
 21
3.936336729
 31
0.0
  0
LINE
  5
68A
330
11D
100
AcDbEntity
  8
SLD-0
100
AcDbLine
 10
8.8894574206
 20
3.9883719772
 30
0.0
 11
9.2577689449
 21
4.1409316057
 31
0.0
  0
LINE
  5
68B
330
11D
100
AcDbEntity
  8
SLD-0
100
AcDbLine
 10
9.2577689449
 20
4.1409316057
 30
0.0
 11
8.8894574206
 21
3.9883719772
 31
0.0
  0
LINE
  5
68C
330
11D
100
AcDbEntity
  8
SLD-0
100
AcDbLine
 10
9.2577689449
 20
4.1409316057
 30
0.0
 11
9.574045221
 21
4.383618928
 31
0.0
  0
LINE
  5
68D
330
11D
100
AcDbEntity
  8
SLD-0
100
AcDbLine
 10
9.574045221
 20
4.383618928
 30
0.0
 11
9.2577689449
 21
4.1409316057
 31
0.0
  0
LINE
  5
68E
330
11D
100
AcDbEntity
  8
SLD-0
100
AcDbLine
 10
9.574045221
 20
4.383618928
 30
0.0
 11
9.8167325433
 21
4.6998952041
 31
0.0
  0
LINE
  5
68F
330
11D
100
AcDbEntity
  8
SLD-0
100
AcDbLine
 10
9.8167325433
 20
4.6998952041
 30
0.0
 11
9.574045221
 21
4.383618928
 31
0.0
  0
LINE
  5
690
330
11D
100
AcDbEntity
  8
SLD-0
100
AcDbLine
 10
9.8167325433
 20
4.6998952041
 30
0.0
 11
9.9692921718
 21
5.0682067284
 31
0.0
  0
LINE
  5
691
330
11D
100
AcDbEntity
  8
SLD-0
100
AcDbLine
 10
9.9692921718
 20
5.0682067284
 30
0.0
 11
9.8167325433
 21
4.6998952041
 31
0.0
  0
LINE
  5
692
330
11D
100
AcDbEntity
  8
SLD-0
100
AcDbLine
 10
9.9692921718
 20
5.0682067284
 30
0.0
 11
10.0213274201
 21
5.4634536792
 31
0.0
  0
LINE
  5
693
330
11D
100
AcDbEntity
  8
SLD-0
100
AcDbLine
 10
10.0213274201
 20
5.4634536792
 30
0.0
 11
9.9692921718
 21
5.0682067284
 31
0.0
  0
LINE
  5
694
330
11D
100
AcDbEntity
  8
SLD-0
100
AcDbLine
 10
10.0213274201
 20
5.4634536792
 30
0.0
 11
9.9692921718
 21
5.8587006301
 31
0.0
  0
LINE
  5
695
330
11D
100
AcDbEntity
  8
SLD-0
100
AcDbLine
 10
9.9692921718
 20
5.8587006301
 30
0.0
 11
10.0213274201
 21
5.4634536792
 31
0.0
  0
LINE
  5
696
330
11D
100
AcDbEntity
  8
SLD-0
100
AcDbLine
 10
9.9692921718
 20
5.8587006301
 30
0.0
 11
9.8167325433
 21
6.2270121544
 31
0.0
  0
LINE
  5
697
330
11D
100
AcDbEntity
  8
SLD-0
100
AcDbLine
 10
9.8167325433
 20
6.2270121544
 30
0.0
 11
9.9692921718
 21
5.8587006301
 31
0.0
  0
LINE
  5
698
330
11D
100
AcDbEntity
  8
SLD-0
100
AcDbLine
 10
9.8167325433
 20
6.2270121544
 30
0.0
 11
9.574045221
 21
6.5432884304
 31
0.0
  0
LINE
  5
699
330
11D
100
AcDbEntity
  8
SLD-0
100
AcDbLine
 10
9.574045221
 20
6.5432884304
 30
0.0
 11
9.8167325433
 21
6.2270121544
 31
0.0
  0
LINE
  5
69A
330
11D
100
AcDbEntity
  8
SLD-0
100
AcDbLine
 10
9.574045221
 20
6.5432884304
 30
0.0
 11
9.2577689449
 21
6.7859757527
 31
0.0
  0
LINE
  5
69B
330
11D
100
AcDbEntity
  8
SLD-0
100
AcDbLine
 10
9.2577689449
 20
6.7859757527
 30
0.0
 11
9.574045221
 21
6.5432884304
 31
0.0
  0
LINE
  5
69C
330
11D
100
AcDbEntity
  8
SLD-0
100
AcDbLine
 10
9.2577689449
 20
6.7859757527
 30
0.0
 11
8.8894574206
 21
6.9385353813
 31
0.0
  0
LINE
  5
69D
330
11D
100
AcDbEntity
  8
SLD-0
100
AcDbLine
 10
8.8894574206
 20
6.9385353813
 30
0.0
 11
9.2577689449
 21
6.7859757527
 31
0.0
  0
LINE
  5
69E
330
11D
100
AcDbEntity
  8
SLD-0
100
AcDbLine
 10
8.8894574206
 20
6.9385353813
 30
0.0
 11
8.4942104698
 21
6.9905706295
 31
0.0
  0
LINE
  5
69F
330
11D
100
AcDbEntity
  8
SLD-0
100
AcDbLine
 10
8.4942104698
 20
6.9905706295
 30
0.0
 11
8.8894574206
 21
6.9385353813
 31
0.0
  0
ENDBLK
  5
11F
330
11D
100
AcDbEntity
  8
0
100
AcDbBlockEnd
  0
ENDSEC
  0
SECTION
  2
ENTITIES
  0
INSERT
  5
6A0
330
1F
100
AcDbEntity
  8
0
  6
Continuous
 62
     7
100
AcDbBlockReference
  2
COMPONENT_3_1
 10
0.0
 20
0.0
 30
0.0
  0
INSERT
  5
6A1
330
1F
100
AcDbEntity
  8
0
  6
Continuous
 62
     7
100
AcDbBlockReference
  2
COMPONENT_2_2
 10
0.0
 20
0.0
 30
0.0
  0
INSERT
  5
6A2
330
1F
100
AcDbEntity
  8
0
  6
Continuous
 62
     7
100
AcDbBlockReference
  2
COMPONENT_1_3
 10
0.0
 20
0.0
 30
0.0
  0
INSERT
  5
6A3
330
1F
100
AcDbEntity
  8
0
  6
Continuous
 62
     7
100
AcDbBlockReference
  2
COMPONENT_4_4
 10
0.0
 20
0.0
 30
0.0
  0
INSERT
  5
6A4
330
1F
100
AcDbEntity
  8
0
  6
Continuous
 62
     7
100
AcDbBlockReference
  2
COMPONENT_5_5
 10
0.0
 20
0.0
 30
0.0
  0
INSERT
  5
6A5
330
1F
100
AcDbEntity
  8
0
  6
Continuous
 62
     7
100
AcDbBlockReference
  2
COMPONENT_6_6
 10
0.0
 20
0.0
 30
0.0
  0
INSERT
  5
6A6
330
1F
100
AcDbEntity
  8
0
  6
Continuous
 62
     7
100
AcDbBlockReference
  2
COMPONENT_7_7
 10
0.0
 20
0.0
 30
0.0
  0
INSERT
  5
6A7
330
1F
100
AcDbEntity
  8
0
  6
Continuous
 62
     7
100
AcDbBlockReference
  2
COMPONENT_8_8
 10
0.0
 20
0.0
 30
0.0
  0
INSERT
  5
6A8
330
1F
100
AcDbEntity
  8
0
  6
Continuous
 62
     7
100
AcDbBlockReference
  2
FLANGE_0
 10
0.0
 20
0.0
 30
0.0
  0
ENDSEC
  0
SECTION
  2
OBJECTS
  0
DICTIONARY
  5
C
330
0
100
AcDbDictionary
281
     1
  3
ACAD_GROUP
350
D
  3
ACAD_LAYOUT
350
1A
  3
ACAD_MLINESTYLE
350
17
  3
ACAD_PLOTSETTINGS
350
19
  3
ACAD_PLOTSTYLENAME
350
E
  0
DICTIONARY
  5
D
102
{ACAD_REACTORS
330
C
102
}
330
C
100
AcDbDictionary
281
     1
  0
DICTIONARY
  5
1A
102
{ACAD_REACTORS
330
C
102
}
330
C
100
AcDbDictionary
281
     1
  3
Layout1
350
1E
  3
Layout2
350
26
  3
Model
350
22
  0
DICTIONARY
  5
17
102
{ACAD_REACTORS
330
C
102
}
330
C
100
AcDbDictionary
281
     1
  3
Standard
350
18
  0
DICTIONARY
  5
19
102
{ACAD_REACTORS
330
C
102
}
330
C
100
AcDbDictionary
281
     1
  0
ACDBDICTIONARYWDFLT
  5
E
102
{ACAD_REACTORS
330
C
102
}
330
C
100
AcDbDictionary
281
     1
  3
Normal
350
F
100
AcDbDictionaryWithDefault
340
F
  0
LAYOUT
  5
1E
102
{ACAD_REACTORS
330
1A
102
}
330
1A
100
AcDbPlotSettings
  1

  2
none_device
  4

  6

 40
0.0
 41
0.0
 42
0.0
 43
0.0
 44
0.0
 45
0.0
 46
0.0
 47
0.0
 48
0.0
 49
0.0
140
0.0
141
0.0
142
1.0
143
1.0
 70
   688
 72
     0
 73
     0
 74
     5
  7

 75
    16
147
1.0
148
0.0
149
0.0
100
AcDbLayout
  1
Layout1
 70
     1
 71
     1
 10
0.0
 20
0.0
 11
12.0
 21
9.0
 12
0.0
 22
0.0
 32
0.0
 14
1.0000000000E+20
 24
1.0000000000E+20
 34
1.0000000000E+20
 15
-1.0000000000E+20
 25
-1.0000000000E+20
 35
-1.0000000000E+20
146
0.0
 13
0.0
 23
0.0
 33
0.0
 16
1.0
 26
0.0
 36
0.0
 17
0.0
 27
1.0
 37
0.0
 76
     0
330
1B
  0
LAYOUT
  5
26
102
{ACAD_REACTORS
330
1A
102
}
330
1A
100
AcDbPlotSettings
  1

  2
none_device
  4

  6

 40
0.0
 41
0.0
 42
0.0
 43
0.0
 44
0.0
 45
0.0
 46
0.0
 47
0.0
 48
0.0
 49
0.0
140
0.0
141
0.0
142
1.0
143
1.0
 70
   688
 72
     0
 73
     0
 74
     5
  7

 75
    16
147
1.0
148
0.0
149
0.0
100
AcDbLayout
  1
Layout2
 70
     1
 71
     2
 10
0.0
 20
0.0
 11
0.0
 21
0.0
 12
0.0
 22
0.0
 32
0.0
 14
0.0
 24
0.0
 34
0.0
 15
0.0
 25
0.0
 35
0.0
146
0.0
 13
0.0
 23
0.0
 33
0.0
 16
1.0
 26
0.0
 36
0.0
 17
0.0
 27
1.0
 37
0.0
 76
     0
330
23
  0
LAYOUT
  5
22
102
{ACAD_REACTORS
330
1A
102
}
330
1A
100
AcDbPlotSettings
  1

  2
none_device
  4

  6

 40
0.0
 41
0.0
 42
0.0
 43
0.0
 44
0.0
 45
0.0
 46
0.0
 47
0.0
 48
0.0
 49
0.0
140
0.0
141
0.0
142
1.0
143
1.0
 70
  1712
 72
     0
 73
     0
 74
     0
  7

 75
     0
147
1.0
148
0.0
149
0.0
100
AcDbLayout
  1
Model
 70
     1
 71
     0
 10
0.0
 20
0.0
 11
17.0
 21
11.0
 12
0.0
 22
0.0
 32
0.0
 14
0.0
 24
0.0
 34
0.0
 15
17.0
 25
11.0
 35
0.0
146
0.0
 13
0.0
 23
0.0
 33
0.0
 16
1.0
 26
0.0
 36
0.0
 17
0.0
 27
1.0
 37
0.0
 76
     0
330
1F
331
29
  0
MLINESTYLE
  5
18
102
{ACAD_REACTORS
330
17
102
}
330
17
100
AcDbMlineStyle
  2
Standard
 70
     0
  3

 62
   256
 51
90.0
 52
90.0
 71
     2
 49
0.5
 62
   256
  6
BYLAYER
 49
-0.5
 62
   256
  6
BYLAYER
  0
ACDBPLACEHOLDER
  5
F
102
{ACAD_REACTORS
330
E
102
}
330
E
  0
ENDSEC
  0
EOF
