 0
SECTION
 2
ENTITIES
  0
LINE
 8
Group#1
10
1.8140673516745
20
1.50234990928699
30
0.5
11
1.9492041743056
21
1.47118401443222
31
0.5
  0
LINE
 8
Group#1
10
1.9492041743056
20
1.47118401443222
30
0.0
11
1.9492041743056
21
1.47118401443222
31
0.5
  0
LINE
 8
Group#1
10
1.8140673516745
20
1.50234990928699
30
0.0
11
1.9492041743056
21
1.47118401443222
31
0.0
  0
LINE
 8
Group#1
10
1.8140673516745
20
1.50234990928699
30
0.0
11
1.8140673516745
21
1.50234990928699
31
0.5
  0
LINE
 8
Group#1
10
1.9492041743056
20
1.47118401443222
30
0.5
11
2.0878026485137
21
1.47605605508415
31
0.5
  0
LINE
 8
Group#1
10
2.0878026485137
20
1.47605605508415
30
0.0
11
2.0878026485137
21
1.47605605508415
31
0.5
  0
LINE
 8
Group#1
10
1.9492041743056
20
1.47118401443222
30
0.0
11
2.0878026485137
21
1.47605605508415
31
0.0
  0
LINE
 8
Group#1
10
1.51663400972379
20
1.77958248267367
30
0.5
11
1.59015255780069
21
1.66198870340966
31
0.5
  0
LINE
 8
Group#1
10
1.59015255780069
20
1.66198870340966
30
0.0
11
1.59015255780069
21
1.66198870340966
31
0.5
  0
LINE
 8
Group#1
10
1.51663400972379
20
1.77958248267367
30
0.0
11
1.59015255780069
21
1.66198870340966
31
0.0
  0
LINE
 8
Group#1
10
1.51663400972379
20
1.77958248267367
30
0.0
11
1.51663400972379
21
1.77958248267367
31
0.5
  0
LINE
 8
Group#1
10
1.47605605508415
20
1.9121973514863
30
0.5
11
1.51663400972379
21
1.77958248267367
31
0.5
  0
LINE
 8
Group#1
10
1.47605605508415
20
1.9121973514863
30
0.0
11
1.51663400972379
21
1.77958248267367
31
0.0
  0
LINE
 8
Group#1
10
1.47605605508415
20
1.9121973514863
30
0.0
11
1.47605605508415
21
1.9121973514863
31
0.5
  0
LINE
 8
Group#1
10
2.0878026485137
20
1.47605605508415
30
0.5
11
2.22041751732633
21
1.51663400972379
31
0.5
  0
LINE
 8
Group#1
10
2.22041751732633
20
1.51663400972379
30
0.0
11
2.22041751732633
21
1.51663400972379
31
0.5
  0
LINE
 8
Group#1
10
2.0878026485137
20
1.47605605508415
30
0.0
11
2.22041751732633
21
1.51663400972379
31
0.0
  0
LINE
 8
Group#1
10
1.69160153175855
20
1.5674298354182
30
0.5
11
1.8140673516745
21
1.50234990928699
31
0.5
  0
LINE
 8
Group#1
10
1.69160153175855
20
1.5674298354182
30
0.0
11
1.8140673516745
21
1.50234990928699
31
0.0
  0
LINE
 8
Group#1
10
1.69160153175855
20
1.5674298354182
30
0.0
11
1.69160153175855
21
1.5674298354182
31
0.5
  0
LINE
 8
Group#1
10
1.59015255780069
20
1.66198870340966
30
0.5
11
1.69160153175855
21
1.5674298354182
31
0.5
  0
LINE
 8
Group#1
10
1.59015255780069
20
1.66198870340966
30
0.0
11
1.69160153175855
21
1.5674298354182
31
0.0
  0
LINE
 8
Group#1
10
5.96037323059865
20
9.47022997286859
30
0.5
11
6.09883805256892
21
9.47802528618296
31
0.5
  0
LINE
 8
Group#1
10
6.09883805256892
20
9.47802528618296
30
0.5
11
6.09883805256892
21
9.47802528618296
31
0.0
  0
LINE
 8
Group#1
10
5.96037323059865
20
9.47022997286859
30
0.0
11
6.09883805256892
21
9.47802528618296
31
0.0
  0
LINE
 8
Group#1
10
5.96037323059865
20
9.47022997286859
30
0.5
11
5.96037323059865
21
9.47022997286859
31
0.0
  0
LINE
 8
Group#1
10
6.47860768636005
20
10.2305672245942
30
0.5
11
6.40262433601421
21
10.3465836212938
31
0.5
  0
LINE
 8
Group#1
10
6.40262433601421
20
10.3465836212938
30
0.5
11
6.40262433601421
21
10.3465836212938
31
0.0
  0
LINE
 8
Group#1
10
6.47860768636005
20
10.2305672245942
30
0.0
11
6.40262433601421
21
10.3465836212938
31
0.0
  0
LINE
 8
Group#1
10
6.47860768636005
20
10.2305672245942
30
0.5
11
6.47860768636005
21
10.2305672245942
31
0.0
  0
LINE
 8
Group#1
10
6.52977002713141
20
9.96037323059865
30
0.5
11
6.52197471381704
21
10.0988380525689
31
0.5
  0
LINE
 8
Group#1
10
6.52197471381704
20
10.0988380525689
30
0.5
11
6.52197471381704
21
10.0988380525689
31
0.0
  0
LINE
 8
Group#1
10
6.52977002713141
20
9.96037323059865
30
0.0
11
6.52197471381704
21
10.0988380525689
31
0.0
  0
LINE
 8
Group#1
10
6.52977002713141
20
9.96037323059865
30
0.5
11
6.52977002713141
21
9.96037323059865
31
0.0
  0
LINE
 8
Group#1
10
6.50146238858313
20
9.82460890747675
30
0.5
11
6.52977002713141
21
9.96037323059865
31
0.5
  0
LINE
 8
Group#1
10
6.50146238858313
20
9.82460890747675
30
0.0
11
6.52977002713141
21
9.96037323059865
31
0.0
  0
LINE
 8
Group#1
10
6.50146238858313
20
9.82460890747675
30
0.5
11
6.50146238858313
21
9.82460890747675
31
0.0
  0
LINE
 8
Group#1
10
6.40262433601421
20
10.3465836212938
30
0.5
11
6.29920280253718
21
10.4389809169587
31
0.5
  0
LINE
 8
Group#1
10
6.29920280253718
20
10.4389809169587
30
0.5
11
6.29920280253718
21
10.4389809169587
31
0.0
  0
LINE
 8
Group#1
10
6.40262433601421
20
10.3465836212938
30
0.0
11
6.29920280253718
21
10.4389809169587
31
0.0
  0
LINE
 8
Group#1
10
6.23056722459422
20
9.52139231363995
30
0.5
11
6.34658362129379
21
9.59737566398579
31
0.5
  0
LINE
 8
Group#1
10
6.34658362129379
20
9.59737566398579
30
0.5
11
6.34658362129379
21
9.59737566398579
31
0.0
  0
LINE
 8
Group#1
10
6.23056722459422
20
9.52139231363995
30
0.0
11
6.34658362129379
21
9.59737566398579
31
0.0
  0
LINE
 8
Group#1
10
6.23056722459422
20
9.52139231363995
30
0.5
11
6.23056722459422
21
9.52139231363995
31
0.0
  0
LINE
 8
Group#1
10
5.70079719746282
20
9.56101908304131
30
0.5
11
5.82460890747675
21
9.49853761141687
31
0.5
  0
LINE
 8
Group#1
10
5.82460890747675
20
9.49853761141687
30
0.5
11
5.82460890747675
21
9.49853761141687
31
0.0
  0
LINE
 8
Group#1
10
5.70079719746282
20
9.56101908304131
30
0.0
11
5.82460890747675
21
9.49853761141687
31
0.0
  0
LINE
 8
Group#1
10
5.70079719746282
20
9.56101908304131
30
0.5
11
5.70079719746282
21
9.56101908304131
31
0.0
  0
LINE
 8
Group#1
10
6.52197471381704
20
10.0988380525689
30
0.5
11
6.47860768636005
21
10.2305672245942
31
0.5
  0
LINE
 8
Group#1
10
6.52197471381704
20
10.0988380525689
30
0.0
11
6.47860768636005
21
10.2305672245942
31
0.0
  0
LINE
 8
Group#1
10
5.52139231363995
20
9.76943277540578
30
0.5
11
5.59737566398579
21
9.65341637870621
31
0.5
  0
LINE
 8
Group#1
10
5.59737566398579
20
9.65341637870621
30
0.5
11
5.59737566398579
21
9.65341637870621
31
0.0
  0
LINE
 8
Group#1
10
5.52139231363995
20
9.76943277540578
30
0.0
11
5.59737566398579
21
9.65341637870621
31
0.0
  0
LINE
 8
Group#1
10
5.52139231363995
20
9.76943277540578
30
0.5
11
5.52139231363995
21
9.76943277540578
31
0.0
  0
LINE
 8
Group#1
10
6.09883805256892
20
9.47802528618296
30
0.5
11
6.23056722459422
21
9.52139231363995
31
0.5
  0
LINE
 8
Group#1
10
6.09883805256892
20
9.47802528618296
30
0.0
11
6.23056722459422
21
9.52139231363995
31
0.0
  0
LINE
 8
Group#1
10
5.82460890747675
20
9.49853761141687
30
0.5
11
5.96037323059865
21
9.47022997286859
31
0.5
  0
LINE
 8
Group#1
10
5.82460890747675
20
9.49853761141687
30
0.0
11
5.96037323059865
21
9.47022997286859
31
0.0
  0
LINE
 8
Group#1
10
6.43898091695869
20
9.70079719746282
30
0.5
11
6.50146238858313
21
9.82460890747675
31
0.5
  0
LINE
 8
Group#1
10
6.43898091695869
20
9.70079719746282
30
0.0
11
6.50146238858313
21
9.82460890747675
31
0.0
  0
LINE
 8
Group#1
10
6.43898091695869
20
9.70079719746282
30
0.5
11
6.43898091695869
21
9.70079719746282
31
0.0
  0
LINE
 8
Group#1
10
5.59737566398579
20
9.65341637870621
30
0.5
11
5.70079719746282
21
9.56101908304131
31
0.5
  0
LINE
 8
Group#1
10
5.59737566398579
20
9.65341637870621
30
0.0
11
5.70079719746282
21
9.56101908304131
31
0.0
  0
LINE
 8
Group#1
10
6.34658362129379
20
9.59737566398579
30
0.5
11
6.43898091695869
21
9.70079719746282
31
0.5
  0
LINE
 8
Group#1
10
6.34658362129379
20
9.59737566398579
30
0.0
11
6.43898091695869
21
9.70079719746282
31
0.0
  0
LINE
 8
Group#1
10
5.47266963461488
20
10.0513274637234
30
0.5
11
5.47022997286859
21
10.0396267694014
31
0.5
  0
LINE
 8
Group#1
10
5.47022997286859
20
10.0396267694014
30
0.5
11
5.47022997286859
21
10.0396267694014
31
0.0
  0
LINE
 8
Group#1
10
5.47022997286859
20
10.0396267694014
30
0.0
11
5.47266963461488
21
10.0513274637234
31
0.0
  0
LINE
 8
Group#1
10
5.47266963461488
20
10.0513274637234
30
0.0
11
5.47266963461488
21
10.0513274637234
31
0.5
  0
LINE
 8
Group#1
10
6.29920280253718
20
10.4389809169587
30
0.5
11
6.17539109252326
21
10.5014623885831
31
0.5
  0
LINE
 8
Group#1
10
6.17539109252326
20
10.5014623885831
30
0.5
11
6.17539109252326
21
10.5014623885831
31
0.0
  0
LINE
 8
Group#1
10
6.29920280253718
20
10.4389809169587
30
0.0
11
6.17539109252326
21
10.5014623885831
31
0.0
  0
LINE
 8
Group#1
10
5.47802528618296
20
9.90116194743108
30
0.5
11
5.52139231363995
21
9.76943277540578
31
0.5
  0
LINE
 8
Group#1
10
5.47802528618296
20
9.90116194743108
30
0.0
11
5.52139231363995
21
9.76943277540578
31
0.0
  0
LINE
 8
Group#1
10
5.47802528618296
20
9.90116194743108
30
0.5
11
5.47802528618296
21
9.90116194743108
31
0.0
  0
LINE
 8
Group#1
10
5.47022997286859
20
10.0396267694014
30
0.5
11
5.47802528618296
21
9.90116194743108
31
0.5
  0
LINE
 8
Group#1
10
5.47022997286859
20
10.0396267694014
30
0.0
11
5.47802528618296
21
9.90116194743108
31
0.0
  0
LINE
 8
Group#1
10
6.17539109252326
20
10.5014623885831
30
0.5
11
6.03962676940135
21
10.5297700271314
31
0.5
  0
LINE
 8
Group#1
10
6.03962676940135
20
10.5297700271314
30
0.5
11
6.03962676940135
21
10.5297700271314
31
0.0
  0
LINE
 8
Group#1
10
6.17539109252326
20
10.5014623885831
30
0.0
11
6.03962676940135
21
10.5297700271314
31
0.0
  0
LINE
 8
Group#1
10
2.72873272551848
20
9.88869067022066
30
0.0
11
2.72873272551848
21
9.88869067022066
31
0.5
  0
LINE
 8
Group#1
10
1.66243336081746
20
6.41021375721811
30
0.0
11
1.66243336081746
21
6.41021375721811
31
0.5
  0
LINE
 8
Group#1
10
1.63966140267508
20
6.38583556082842
30
0.0
11
1.63966140267508
21
6.38583556082842
31
0.5
  0
LINE
 8
Group#1
10
1.78010679805109
20
6.48360473760774
30
0.0
11
1.78010679805109
21
6.48360473760774
31
0.5
  0
LINE
 8
Group#1
10
1.91276559360684
20
6.52403885432402
30
0.0
11
1.91276559360684
21
6.52403885432402
31
0.5
  0
LINE
 8
Group#1
10
2.05136926979661
20
6.52876058913327
30
0.0
11
2.05136926979661
21
6.52876058913327
31
0.5
  0
LINE
 8
Group#1
10
2.18647221514148
20
6.49744816361128
30
0.0
11
2.18647221514148
21
6.49744816361128
31
0.5
  0
LINE
 8
Group#1
10
2.30886738718436
20
6.43223546781113
30
0.0
11
2.30886738718436
21
6.43223546781113
31
0.5
  0
LINE
 8
Group#1
10
2.41021375721811
20
6.33756663918254
30
0.0
11
2.41021375721811
21
6.33756663918254
31
0.5
  0
LINE
 8
Group#1
10
2.48360473760774
20
6.21989320194891
30
0.0
11
2.48360473760774
21
6.21989320194891
31
0.5
  0
LINE
 8
Group#1
10
2.52403885432402
20
6.08723440639316
30
0.0
11
2.52403885432402
21
6.08723440639316
31
0.5
  0
LINE
 8
Group#1
10
2.52876058913327
20
5.94863073020339
30
0.0
11
2.52876058913327
21
5.94863073020339
31
0.5
  0
LINE
 8
Group#1
10
2.49744816361128
20
5.81352778485852
30
0.0
11
2.49744816361128
21
5.81352778485852
31
0.5
  0
LINE
 8
Group#1
10
2.43223546781113
20
5.69113261281564
30
0.0
11
2.43223546781113
21
5.69113261281564
31
0.5
  0
LINE
 8
Group#1
10
2.33756663918254
20
5.58978624278189
30
0.0
11
2.33756663918254
21
5.58978624278189
31
0.5
  0
LINE
 8
Group#1
10
2.21989320194891
20
5.51639526239226
30
0.0
11
2.21989320194891
21
5.51639526239226
31
0.5
  0
LINE
 8
Group#1
10
2.08723440639316
20
5.47596114567598
30
0.0
11
2.08723440639316
21
5.47596114567598
31
0.5
  0
LINE
 8
Group#1
10
1.94863073020339
20
5.47123941086673
30
0.0
11
1.94863073020339
21
5.47123941086673
31
0.5
  0
LINE
 8
Group#1
10
1.81352778485852
20
5.50255183638872
30
0.0
11
1.81352778485852
21
5.50255183638872
31
0.5
  0
LINE
 8
Group#1
10
1.69113261281564
20
5.56776453218887
30
0.0
11
1.69113261281564
21
5.56776453218887
31
0.5
  0
LINE
 8
Group#1
10
1.58978624278189
20
5.66243336081746
30
0.0
11
1.58978624278189
21
5.66243336081746
31
0.5
  0
LINE
 8
Group#1
10
1.53691498627098
20
5.7472059371132
30
0.0
11
1.53691498627098
21
5.7472059371132
31
0.5
  0
LINE
 8
Group#1
10
1.51639526239226
20
5.78010679805109
30
0.0
11
1.51639526239226
21
5.78010679805109
31
0.5
  0
LINE
 8
Group#1
10
1.47596114567598
20
5.91276559360684
30
0.0
11
1.47596114567598
21
5.91276559360684
31
0.5
  0
LINE
 8
Group#1
10
1.47123941086673
20
6.05136926979661
30
0.0
11
1.47123941086673
21
6.05136926979661
31
0.5
  0
LINE
 8
Group#1
10
1.50255183638872
20
6.18647221514148
30
0.0
11
1.50255183638872
21
6.18647221514148
31
0.5
  0
LINE
 8
Group#1
10
1.56776453218887
20
6.30886738718436
30
0.0
11
1.56776453218887
21
6.30886738718436
31
0.5
  0
LINE
 8
Group#1
10
1.53691498627098
20
5.7472059371132
30
0.5
11
1.58978624278189
21
5.66243336081746
31
0.5
  0
LINE
 8
Group#1
10
1.66210483385828
20
12.6580984149109
30
0.0
11
1.66210483385828
21
12.6580984149109
31
0.5
  0
LINE
 8
Group#1
10
6.14081582382128
20
13.1338900360045
30
0.0
11
6.14081582382128
21
13.1338900360045
31
0.5
  0
LINE
 8
Group#1
10
6.2643237615698
20
12.8132122794918
30
0.0
11
6.2643237615698
21
12.8132122794918
31
0.5
  0
LINE
 8
Group#1
10
6.36951440848821
20
12.540093795977
30
0.0
11
6.36951440848821
21
12.540093795977
31
0.5
  0
LINE
 8
Group#1
10
6.38206162286437
20
12.4219846397233
30
0.0
11
6.38206162286437
21
12.4219846397233
31
0.5
  0
LINE
 8
Group#1
10
5.27126727448152
20
14.0481549467026
30
0.0
11
5.27126727448152
21
14.0481549467026
31
0.5
  0
LINE
 8
Group#1
10
2.5267791882729
20
10.0518561359221
30
0.0
11
2.5267791882729
21
10.0518561359221
31
0.5
  0
LINE
 8
Group#1
10
3.20131528701977
20
9.67891575129334
30
0.0
11
3.20131528701977
21
9.67891575129334
31
0.5
  0
LINE
 8
Group#1
10
3.31032439355074
20
9.6305276423199
30
0.0
11
3.31032439355074
21
9.6305276423199
31
0.5
  0
LINE
 8
Group#1
10
3.93891631441968
20
9.53168830643726
30
0.0
11
3.93891631441968
21
9.53168830643726
31
0.5
  0
LINE
 8
Group#1
10
4.57167098751536
20
9.59890839997341
30
0.0
11
4.57167098751536
21
9.59890839997341
31
0.5
  0
LINE
 8
Group#1
10
5.16546722754284
20
9.82760698464034
30
0.0
11
5.16546722754284
21
9.82760698464034
31
0.5
  0
LINE
 8
Group#1
10
4.06108368558032
20
14.405157310486
30
0.0
11
4.06108368558032
21
14.405157310486
31
0.5
  0
LINE
 8
Group#1
10
4.68967560644926
20
14.3063179746033
30
0.0
11
4.68967560644926
21
14.3063179746033
31
0.5
  0
LINE
 8
Group#1
10
3.42832901248464
20
14.3379372169498
30
0.0
11
3.42832901248464
21
14.3379372169498
31
0.5
  0
LINE
 8
Group#1
10
2.83453277245716
20
14.1092386322829
30
0.0
11
2.83453277245716
21
14.1092386322829
31
0.5
  0
LINE
 8
Group#1
10
2.32016119796106
20
13.734646987088
30
0.0
11
2.32016119796106
21
13.734646987088
31
0.5
  0
LINE
 8
Group#1
10
1.92026786175904
20
13.2396900829431
30
0.0
11
1.92026786175904
21
13.2396900829431
31
0.5
  0
LINE
 8
Group#1
10
5.93996214346732
20
10.5241590930728
30
0.0
11
5.93996214346732
21
10.5241590930728
31
0.5
  0
LINE
 8
Group#1
10
1.61735216119154
20
12.373483304698
30
0.0
11
1.61735216119154
21
12.373483304698
31
0.5
  0
LINE
 8
Group#1
10
6.07973213824096
20
10.6971555339801
30
0.0
11
6.07973213824096
21
10.6971555339801
31
0.5
  0
LINE
 8
Group#1
10
6.33789516614172
20
11.2787472020124
30
0.0
11
6.33789516614172
21
11.2787472020124
31
0.5
  0
LINE
 8
Group#1
10
6.43673450202436
20
11.9073391228813
30
0.0
11
6.43673450202436
21
11.9073391228813
31
0.5
  0
LINE
 8
Group#1
10
5.76622417862636
20
13.6482616105006
30
0.0
11
5.76622417862636
21
13.6482616105006
31
0.5
  0
LINE
 8
Group#1
10
1.56326549797564
20
12.0295064940419
30
0.0
11
1.56326549797564
21
12.0295064940419
31
0.5
  0
LINE
 8
Group#1
10
1.63048559151179
20
11.3967518209463
30
0.0
11
1.63048559151179
21
11.3967518209463
31
0.5
  0
LINE
 8
Group#1
10
2.06249661909811
20
10.5237765262854
30
0.0
11
2.06249661909811
21
10.5237765262854
31
0.5
  0
LINE
 8
Group#1
10
1.85918417617872
20
10.8029555809188
30
0.0
11
1.85918417617872
21
10.8029555809188
31
0.5
  0
LINE
 8
Group#1
10
2.96472381958992
20
15.8637033051563
30
0.0
11
2.96472381958992
21
15.8637033051563
31
0.5
  0
LINE
 8
Group#1
10
4.0
20
16.0
30
0.0
11
4.0
21
16.0
31
0.5
  0
LINE
 8
Group#1
10
5.03527618041009
20
15.8637033051563
30
0.0
11
5.03527618041009
21
15.8637033051563
31
0.5
  0
LINE
 8
Group#1
10
6.0
20
15.4641016151378
30
0.0
11
6.0
21
15.4641016151378
31
0.5
  0
LINE
 8
Group#1
10
6.82842712474619
20
14.8284271247462
30
0.0
11
6.82842712474619
21
14.8284271247462
31
0.5
  0
LINE
 8
Group#1
10
7.46410161513776
20
14.0
30
0.0
11
7.46410161513776
21
14.0
31
0.5
  0
LINE
 8
Group#1
10
7.86370330515627
20
13.0352761804101
30
0.0
11
7.86370330515627
21
13.0352761804101
31
0.5
  0
LINE
 8
Group#1
10
8.0
20
0.0
30
0.0
11
8.0
21
0.0
31
0.5
  0
LINE
 8
Group#1
10
8.0
20
12.0
30
0.0
11
8.0
21
12.0
31
0.5
  0
LINE
 8
Group#1
10
0.0
20
0.0
30
0.0
11
0.0
21
0.0
31
0.5
  0
LINE
 8
Group#1
10
0.0
20
12.0
30
0.0
11
0.0
21
12.0
31
0.5
  0
LINE
 8
Group#1
10
0.136296694843727
20
13.0352761804101
30
0.0
11
0.136296694843727
21
13.0352761804101
31
0.5
  0
LINE
 8
Group#1
10
0.535898384862246
20
14.0
30
0.0
11
0.535898384862246
21
14.0
31
0.5
  0
LINE
 8
Group#1
10
1.17157287525381
20
14.8284271247462
30
0.0
11
1.17157287525381
21
14.8284271247462
31
0.5
  0
LINE
 8
Group#1
10
2.0
20
15.4641016151378
30
0.0
11
2.0
21
15.4641016151378
31
0.5
  0
LINE
 8
Group#1
10
8.0
20
0.0
30
0.0
11
8.0
21
12.0
31
0.0
  0
LINE
 8
Group#1
10
8.0
20
0.0
30
0.5
11
8.0
21
12.0
31
0.5
  0
LINE
 8
Group#1
10
8.0
20
12.0
30
0.0
11
7.86370330515627
21
13.0352761804101
31
0.0
  0
LINE
 8
Group#1
10
8.0
20
12.0
30
0.5
11
7.86370330515627
21
13.0352761804101
31
0.5
  0
LINE
 8
Group#1
10
7.86370330515627
20
13.0352761804101
30
0.5
11
7.46410161513776
21
14.0
31
0.5
  0
LINE
 8
Group#1
10
7.46410161513776
20
14.0
30
0.5
11
6.82842712474619
21
14.8284271247462
31
0.5
  0
LINE
 8
Group#1
10
6.82842712474619
20
14.8284271247462
30
0.5
11
6.0
21
15.4641016151378
31
0.5
  0
LINE
 8
Group#1
10
6.0
20
15.4641016151378
30
0.5
11
5.89500069312919
21
15.5075937520834
31
0.5
  0
LINE
 8
Group#1
10
5.89500069312919
20
15.5075937520834
30
0.5
11
5.03527618041009
21
15.8637033051563
31
0.5
  0
LINE
 8
Group#1
10
5.03527618041009
20
15.8637033051563
30
0.5
11
4.0
21
16.0
31
0.5
  0
LINE
 8
Group#1
10
4.0
20
16.0
30
0.5
11
2.96472381958992
21
15.8637033051563
31
0.5
  0
LINE
 8
Group#1
10
2.96472381958992
20
15.8637033051563
30
0.5
11
2.0938185551997
21
15.5029625331037
31
0.5
  0
LINE
 8
Group#1
10
2.0938185551997
20
15.5029625331037
30
0.5
11
2.0
21
15.4641016151378
31
0.5
  0
LINE
 8
Group#1
10
2.0
20
15.4641016151378
30
0.5
11
1.17157287525381
21
14.8284271247462
31
0.5
  0
LINE
 8
Group#1
10
1.17157287525381
20
14.8284271247462
30
0.5
11
0.535898384862246
21
14.0
31
0.5
  0
LINE
 8
Group#1
10
0.535898384862246
20
14.0
30
0.5
11
0.136296694843727
21
13.0352761804101
31
0.5
  0
LINE
 8
Group#1
10
0.136296694843727
20
13.0352761804101
30
0.5
11
0.0
21
12.0
31
0.5
  0
LINE
 8
Group#1
10
0.0
20
12.0
30
0.5
11
0.0
21
0.0
31
0.5
  0
LINE
 8
Group#1
10
0.0
20
0.0
30
0.5
11
8.0
21
0.0
31
0.5
  0
LINE
 8
Group#1
10
6.4987040368133
20
2.18308699070693
30
0.5
11
6.43432470872712
21
2.30592255537816
31
0.5
  0
LINE
 8
Group#1
10
6.52909750893804
20
2.04777435018458
30
0.5
11
6.4987040368133
21
2.18308699070693
31
0.5
  0
LINE
 8
Group#1
10
6.52343386020363
20
1.90920596664799
30
0.5
11
6.52909750893804
21
2.04777435018458
31
0.5
  0
LINE
 8
Group#1
10
6.4820990589117
20
1.77682504644012
30
0.5
11
6.52343386020363
21
1.90920596664799
31
0.5
  0
LINE
 8
Group#1
10
6.40791000346129
20
1.6596531305033
30
0.5
11
6.4820990589117
21
1.77682504644012
31
0.5
  0
LINE
 8
Group#1
10
6.30592255537816
20
1.56567529127288
30
0.5
11
6.40791000346129
21
1.6596531305033
31
0.5
  0
LINE
 8
Group#1
10
6.18308699070693
20
1.5012959631867
30
0.5
11
6.30592255537816
21
1.56567529127288
31
0.5
  0
LINE
 8
Group#1
10
6.04777435018458
20
1.47090249106196
30
0.5
11
6.18308699070693
21
1.5012959631867
31
0.5
  0
LINE
 8
Group#1
10
5.90920596664799
20
1.47656613979637
30
0.5
11
6.04777435018458
21
1.47090249106196
31
0.5
  0
LINE
 8
Group#1
10
5.77682504644012
20
1.5179009410883
30
0.5
11
5.90920596664799
21
1.47656613979637
31
0.5
  0
LINE
 8
Group#1
10
5.6596531305033
20
1.59208999653871
30
0.5
11
5.77682504644012
21
1.5179009410883
31
0.5
  0
LINE
 8
Group#1
10
5.56567529127288
20
1.69407744462184
30
0.5
11
5.6596531305033
21
1.59208999653871
31
0.5
  0
LINE
 8
Group#1
10
5.5012959631867
20
1.81691300929307
30
0.5
11
5.56567529127288
21
1.69407744462184
31
0.5
  0
LINE
 8
Group#1
10
5.47090249106196
20
1.95222564981542
30
0.5
11
5.5012959631867
21
1.81691300929307
31
0.5
  0
LINE
 8
Group#1
10
5.47656613979637
20
2.09079403335201
30
0.5
11
5.47090249106196
21
1.95222564981542
31
0.5
  0
LINE
 8
Group#1
10
5.5179009410883
20
2.22317495355988
30
0.5
11
5.47656613979637
21
2.09079403335201
31
0.5
  0
LINE
 8
Group#1
10
5.59208999653871
20
2.3403468694967
30
0.5
11
5.5179009410883
21
2.22317495355988
31
0.5
  0
LINE
 8
Group#1
10
5.69407744462184
20
2.43432470872712
30
0.5
11
5.59208999653871
21
2.3403468694967
31
0.5
  0
LINE
 8
Group#1
10
5.81691300929307
20
2.4987040368133
30
0.5
11
5.69407744462184
21
2.43432470872712
31
0.5
  0
LINE
 8
Group#1
10
5.95222564981542
20
2.52909750893804
30
0.5
11
5.81691300929307
21
2.4987040368133
31
0.5
  0
LINE
 8
Group#1
10
6.09079403335201
20
2.52343386020363
30
0.5
11
5.95222564981542
21
2.52909750893804
31
0.5
  0
LINE
 8
Group#1
10
6.22317495355988
20
2.4820990589117
30
0.5
11
6.09079403335201
21
2.52343386020363
31
0.5
  0
LINE
 8
Group#1
10
6.3403468694967
20
2.40791000346129
30
0.5
11
6.22317495355988
21
2.4820990589117
31
0.5
  0
LINE
 8
Group#1
10
6.43432470872712
20
2.30592255537816
30
0.5
11
6.3403468694967
21
2.40791000346129
31
0.5
  0
LINE
 8
Group#1
10
2.05136926979661
20
6.52876058913327
30
0.5
11
1.91276559360684
21
6.52403885432402
31
0.5
  0
LINE
 8
Group#1
10
2.18647221514148
20
6.49744816361128
30
0.5
11
2.05136926979661
21
6.52876058913327
31
0.5
  0
LINE
 8
Group#1
10
2.30886738718436
20
6.43223546781113
30
0.5
11
2.18647221514148
21
6.49744816361128
31
0.5
  0
LINE
 8
Group#1
10
2.41021375721811
20
6.33756663918254
30
0.5
11
2.30886738718436
21
6.43223546781113
31
0.5
  0
LINE
 8
Group#1
10
2.48360473760774
20
6.21989320194891
30
0.5
11
2.41021375721811
21
6.33756663918254
31
0.5
  0
LINE
 8
Group#1
10
2.52403885432402
20
6.08723440639316
30
0.5
11
2.48360473760774
21
6.21989320194891
31
0.5
  0
LINE
 8
Group#1
10
2.52876058913327
20
5.94863073020339
30
0.5
11
2.52403885432402
21
6.08723440639316
31
0.5
  0
LINE
 8
Group#1
10
2.49744816361128
20
5.81352778485852
30
0.5
11
2.52876058913327
21
5.94863073020339
31
0.5
  0
LINE
 8
Group#1
10
2.43223546781113
20
5.69113261281564
30
0.5
11
2.49744816361128
21
5.81352778485852
31
0.5
  0
LINE
 8
Group#1
10
2.33756663918254
20
5.58978624278189
30
0.5
11
2.43223546781113
21
5.69113261281564
31
0.5
  0
LINE
 8
Group#1
10
2.21989320194891
20
5.51639526239226
30
0.5
11
2.33756663918254
21
5.58978624278189
31
0.5
  0
LINE
 8
Group#1
10
2.08723440639316
20
5.47596114567598
30
0.5
11
2.21989320194891
21
5.51639526239226
31
0.5
  0
LINE
 8
Group#1
10
1.94863073020339
20
5.47123941086673
30
0.5
11
2.08723440639316
21
5.47596114567598
31
0.5
  0
LINE
 8
Group#1
10
1.81352778485852
20
5.50255183638872
30
0.5
11
1.94863073020339
21
5.47123941086673
31
0.5
  0
LINE
 8
Group#1
10
1.69113261281564
20
5.56776453218887
30
0.5
11
1.81352778485852
21
5.50255183638872
31
0.5
  0
LINE
 8
Group#1
10
1.58978624278189
20
5.66243336081746
30
0.5
11
1.69113261281564
21
5.56776453218887
31
0.5
  0
LINE
 8
Group#1
10
1.51639526239226
20
5.78010679805109
30
0.5
11
1.53691498627098
21
5.7472059371132
31
0.5
  0
LINE
 8
Group#1
10
1.47596114567598
20
5.91276559360684
30
0.5
11
1.51639526239226
21
5.78010679805109
31
0.5
  0
LINE
 8
Group#1
10
1.47123941086673
20
6.05136926979661
30
0.5
11
1.47596114567598
21
5.91276559360684
31
0.5
  0
LINE
 8
Group#1
10
1.50255183638872
20
6.18647221514148
30
0.5
11
1.47123941086673
21
6.05136926979661
31
0.5
  0
LINE
 8
Group#1
10
1.56776453218887
20
6.30886738718436
30
0.5
11
1.50255183638872
21
6.18647221514148
31
0.5
  0
LINE
 8
Group#1
10
1.63966140267508
20
6.38583556082842
30
0.5
11
1.56776453218887
21
6.30886738718436
31
0.5
  0
LINE
 8
Group#1
10
1.66243336081746
20
6.41021375721811
30
0.5
11
1.63966140267508
21
6.38583556082842
31
0.5
  0
LINE
 8
Group#1
10
1.78010679805109
20
6.48360473760774
30
0.5
11
1.66243336081746
21
6.41021375721811
31
0.5
  0
LINE
 8
Group#1
10
1.91276559360684
20
6.52403885432402
30
0.5
11
1.78010679805109
21
6.48360473760774
31
0.5
  0
LINE
 8
Group#1
10
5.57137329884057
20
6.3138561988446
30
0.5
11
5.50474643782855
21
6.19222505470539
31
0.5
  0
LINE
 8
Group#1
10
5.65209031043951
20
6.39828349415891
30
0.5
11
5.57137329884057
21
6.3138561988446
31
0.5
  0
LINE
 8
Group#1
10
5.66721036119748
20
6.41409856170445
30
0.5
11
5.65209031043951
21
6.39828349415891
31
0.5
  0
LINE
 8
Group#1
10
5.78572648747791
20
6.48612079191436
30
0.5
11
5.66721036119748
21
6.41409856170445
31
0.5
  0
LINE
 8
Group#1
10
5.918844999533
20
6.52501469350791
30
0.5
11
5.78572648747791
21
6.48612079191436
31
0.5
  0
LINE
 8
Group#1
10
6.05749409075493
20
6.52812971136669
30
0.5
11
5.918844999533
21
6.52501469350791
31
0.5
  0
LINE
 8
Group#1
10
6.19222505470539
20
6.49525356217145
30
0.5
11
6.05749409075493
21
6.52812971136669
31
0.5
  0
LINE
 8
Group#1
10
6.3138561988446
20
6.42862670115943
30
0.5
11
6.19222505470539
21
6.49525356217145
31
0.5
  0
LINE
 8
Group#1
10
6.41409856170445
20
6.33278963880252
30
0.5
11
6.3138561988446
21
6.42862670115943
31
0.5
  0
LINE
 8
Group#1
10
6.48612079191436
20
6.21427351252209
30
0.5
11
6.41409856170445
21
6.33278963880252
31
0.5
  0
LINE
 8
Group#1
10
6.52501469350791
20
6.081155000467
30
0.5
11
6.48612079191436
21
6.21427351252209
31
0.5
  0
LINE
 8
Group#1
10
6.52812971136669
20
5.94250590924507
30
0.5
11
6.52501469350791
21
6.081155000467
31
0.5
  0
LINE
 8
Group#1
10
6.49525356217145
20
5.80777494529461
30
0.5
11
6.52812971136669
21
5.94250590924507
31
0.5
  0
LINE
 8
Group#1
10
6.42862670115943
20
5.6861438011554
30
0.5
11
6.49525356217145
21
5.80777494529461
31
0.5
  0
LINE
 8
Group#1
10
6.33278963880252
20
5.58590143829555
30
0.5
11
6.42862670115943
21
5.6861438011554
31
0.5
  0
LINE
 8
Group#1
10
6.21427351252209
20
5.51387920808564
30
0.5
11
6.33278963880252
21
5.58590143829555
31
0.5
  0
LINE
 8
Group#1
10
6.081155000467
20
5.47498530649209
30
0.5
11
6.21427351252209
21
5.51387920808564
31
0.5
  0
LINE
 8
Group#1
10
5.94250590924507
20
5.47187028863331
30
0.5
11
6.081155000467
21
5.47498530649209
31
0.5
  0
LINE
 8
Group#1
10
5.80777494529461
20
5.50474643782855
30
0.5
11
5.94250590924507
21
5.47187028863331
31
0.5
  0
LINE
 8
Group#1
10
5.6861438011554
20
5.57137329884057
30
0.5
11
5.80777494529461
21
5.50474643782855
31
0.5
  0
LINE
 8
Group#1
10
5.58590143829555
20
5.66721036119748
30
0.5
11
5.6861438011554
21
5.57137329884057
31
0.5
  0
LINE
 8
Group#1
10
5.51387920808564
20
5.78572648747791
30
0.5
11
5.58590143829555
21
5.66721036119748
31
0.5
  0
LINE
 8
Group#1
10
5.47498530649209
20
5.918844999533
30
0.5
11
5.51387920808564
21
5.78572648747791
31
0.5
  0
LINE
 8
Group#1
10
5.47187028863331
20
6.05749409075493
30
0.5
11
5.47498530649209
21
5.918844999533
31
0.5
  0
LINE
 8
Group#1
10
5.50474643782855
20
6.19222505470539
30
0.5
11
5.47187028863331
21
6.05749409075493
31
0.5
  0
LINE
 8
Group#1
10
2.40984744219931
20
2.33801129659034
30
0.5
11
2.30839846824145
21
2.4325701645818
31
0.5
  0
LINE
 8
Group#1
10
2.48336599027621
20
2.22041751732633
30
0.5
11
2.40984744219931
21
2.33801129659034
31
0.5
  0
LINE
 8
Group#1
10
2.52394394491585
20
2.0878026485137
30
0.5
11
2.48336599027621
21
2.22041751732633
31
0.5
  0
LINE
 8
Group#1
10
2.52881598556778
20
1.9492041743056
30
0.5
11
2.52394394491585
21
2.0878026485137
31
0.5
  0
LINE
 8
Group#1
10
2.49765009071301
20
1.8140673516745
30
0.5
11
2.52881598556778
21
1.9492041743056
31
0.5
  0
LINE
 8
Group#1
10
2.4325701645818
20
1.69160153175855
30
0.5
11
2.49765009071301
21
1.8140673516745
31
0.5
  0
LINE
 8
Group#1
10
2.33801129659034
20
1.59015255780069
30
0.5
11
2.4325701645818
21
1.69160153175855
31
0.5
  0
LINE
 8
Group#1
10
2.22041751732633
20
1.51663400972379
30
0.5
11
2.33801129659034
21
1.59015255780069
31
0.5
  0
LINE
 8
Group#1
10
1.47118401443222
20
2.0507958256944
30
0.5
11
1.47605605508415
21
1.9121973514863
31
0.5
  0
LINE
 8
Group#1
10
1.50234990928699
20
2.1859326483255
30
0.5
11
1.47118401443222
21
2.0507958256944
31
0.5
  0
LINE
 8
Group#1
10
1.5674298354182
20
2.30839846824145
30
0.5
11
1.50234990928699
21
2.1859326483255
31
0.5
  0
LINE
 8
Group#1
10
1.66198870340966
20
2.40984744219931
30
0.5
11
1.5674298354182
21
2.30839846824145
31
0.5
  0
LINE
 8
Group#1
10
1.77958248267367
20
2.48336599027621
30
0.5
11
1.66198870340966
21
2.40984744219931
31
0.5
  0
LINE
 8
Group#1
10
1.9121973514863
20
2.52394394491585
30
0.5
11
1.77958248267367
21
2.48336599027621
31
0.5
  0
LINE
 8
Group#1
10
2.0507958256944
20
2.52881598556778
30
0.5
11
1.9121973514863
21
2.52394394491585
31
0.5
  0
LINE
 8
Group#1
10
2.1859326483255
20
2.49765009071301
30
0.5
11
2.0507958256944
21
2.52881598556778
31
0.5
  0
LINE
 8
Group#1
10
2.30839846824145
20
2.4325701645818
30
0.5
11
2.1859326483255
21
2.49765009071301
31
0.5
  0
LINE
 8
Group#1
10
1.56326549797564
20
12.0295064940419
30
0.5
11
1.61735216119154
21
12.373483304698
31
0.5
  0
LINE
 8
Group#1
10
1.61735216119154
20
12.373483304698
30
0.5
11
1.66210483385828
21
12.6580984149109
31
0.5
  0
LINE
 8
Group#1
10
1.66210483385828
20
12.6580984149109
30
0.5
11
1.92026786175904
21
13.2396900829431
31
0.5
  0
LINE
 8
Group#1
10
1.92026786175904
20
13.2396900829431
30
0.5
11
2.32016119796106
21
13.734646987088
31
0.5
  0
LINE
 8
Group#1
10
2.32016119796106
20
13.734646987088
30
0.5
11
2.83453277245716
21
14.1092386322829
31
0.5
  0
LINE
 8
Group#1
10
2.83453277245716
20
14.1092386322829
30
0.5
11
3.42832901248464
21
14.3379372169498
31
0.5
  0
LINE
 8
Group#1
10
3.42832901248464
20
14.3379372169498
30
0.5
11
4.06108368558032
21
14.405157310486
31
0.5
  0
LINE
 8
Group#1
10
4.06108368558032
20
14.405157310486
30
0.5
11
4.68967560644926
21
14.3063179746033
31
0.5
  0
LINE
 8
Group#1
10
4.68967560644926
20
14.3063179746033
30
0.5
11
5.27126727448152
21
14.0481549467026
31
0.5
  0
LINE
 8
Group#1
10
5.27126727448152
20
14.0481549467026
30
0.5
11
5.76622417862636
21
13.6482616105006
31
0.5
  0
LINE
 8
Group#1
10
5.76622417862636
20
13.6482616105006
30
0.5
11
6.14081582382128
21
13.1338900360045
31
0.5
  0
LINE
 8
Group#1
10
6.14081582382128
20
13.1338900360045
30
0.5
11
6.2643237615698
21
12.8132122794918
31
0.5
  0
LINE
 8
Group#1
10
6.2643237615698
20
12.8132122794918
30
0.5
11
6.36951440848821
21
12.540093795977
31
0.5
  0
LINE
 8
Group#1
10
6.36951440848821
20
12.540093795977
30
0.5
11
6.38206162286437
21
12.4219846397233
31
0.5
  0
LINE
 8
Group#1
10
6.38206162286437
20
12.4219846397233
30
0.5
11
6.43673450202436
21
11.9073391228813
31
0.5
  0
LINE
 8
Group#1
10
6.43673450202436
20
11.9073391228813
30
0.5
11
6.33789516614172
21
11.2787472020124
31
0.5
  0
LINE
 8
Group#1
10
6.33789516614172
20
11.2787472020124
30
0.5
11
6.07973213824096
21
10.6971555339801
31
0.5
  0
LINE
 8
Group#1
10
6.07973213824096
20
10.6971555339801
30
0.5
11
5.93996214346732
21
10.5241590930728
31
0.5
  0
LINE
 8
Group#1
10
6.03962676940135
20
10.5297700271314
30
0.5
11
5.93996214346732
21
10.5241590930728
31
0.5
  0
LINE
 8
Group#1
10
5.47266963461488
20
10.0513274637234
30
0.5
11
5.16546722754284
21
9.82760698464034
31
0.5
  0
LINE
 8
Group#1
10
5.16546722754284
20
9.82760698464034
30
0.5
11
4.57167098751536
21
9.59890839997341
31
0.5
  0
LINE
 8
Group#1
10
4.57167098751536
20
9.59890839997341
30
0.5
11
3.93891631441968
21
9.53168830643726
31
0.5
  0
LINE
 8
Group#1
10
3.93891631441968
20
9.53168830643726
30
0.5
11
3.31032439355074
21
9.6305276423199
31
0.5
  0
LINE
 8
Group#1
10
3.31032439355074
20
9.6305276423199
30
0.5
11
3.20131528701977
21
9.67891575129334
31
0.5
  0
LINE
 8
Group#1
10
3.20131528701977
20
9.67891575129334
30
0.5
11
2.72873272551848
21
9.88869067022066
31
0.5
  0
LINE
 8
Group#1
10
2.72873272551848
20
9.88869067022066
30
0.5
11
2.5267791882729
21
10.0518561359221
31
0.5
  0
LINE
 8
Group#1
10
2.5267791882729
20
10.0518561359221
30
0.5
11
2.53006633386151
21
10.0354435354701
31
0.5
  0
LINE
 8
Group#1
10
2.53006633386151
20
10.0354435354701
30
0.5
11
2.52117822352862
21
9.89704456391454
31
0.5
  0
LINE
 8
Group#1
10
2.52117822352862
20
9.89704456391454
30
0.5
11
2.47677267855
21
9.7656618351863
31
0.5
  0
LINE
 8
Group#1
10
2.47677267855
20
9.7656618351863
30
0.5
11
2.39987586343231
21
9.65024886512798
31
0.5
  0
LINE
 8
Group#1
10
2.39987586343231
20
9.65024886512798
30
0.5
11
2.2957281690478
21
9.55867085692011
31
0.5
  0
LINE
 8
Group#1
10
2.2957281690478
20
9.55867085692011
30
0.5
11
2.1714270886566
21
9.49716870048224
31
0.5
  0
LINE
 8
Group#1
10
2.1714270886566
20
9.49716870048224
30
0.5
11
2.03544353547011
21
9.46993366613849
31
0.5
  0
LINE
 8
Group#1
10
2.03544353547011
20
9.46993366613849
30
0.5
11
1.89704456391454
21
9.47882177647137
31
0.5
  0
LINE
 8
Group#1
10
1.89704456391454
20
9.47882177647137
30
0.5
11
1.7656618351863
21
9.52322732145
31
0.5
  0
LINE
 8
Group#1
10
1.7656618351863
20
9.52322732145
30
0.5
11
1.65024886512798
21
9.60012413656769
31
0.5
  0
LINE
 8
Group#1
10
1.65024886512798
20
9.60012413656769
30
0.5
11
1.55867085692011
21
9.7042718309522
31
0.5
  0
LINE
 8
Group#1
10
1.55867085692011
20
9.7042718309522
30
0.5
11
1.49716870048224
21
9.8285729113434
31
0.5
  0
LINE
 8
Group#1
10
1.49716870048224
20
9.8285729113434
30
0.5
11
1.46993366613849
21
9.96455646452989
31
0.5
  0
LINE
 8
Group#1
10
1.46993366613849
20
9.96455646452989
30
0.5
11
1.47882177647137
21
10.1029554360855
31
0.5
  0
LINE
 8
Group#1
10
1.47882177647137
20
10.1029554360855
30
0.5
11
1.52322732145
21
10.2343381648137
31
0.5
  0
LINE
 8
Group#1
10
1.52322732145
20
10.2343381648137
30
0.5
11
1.60012413656769
21
10.349751134872
31
0.5
  0
LINE
 8
Group#1
10
1.60012413656769
20
10.349751134872
30
0.5
11
1.7042718309522
21
10.4413291430799
31
0.5
  0
LINE
 8
Group#1
10
1.7042718309522
20
10.4413291430799
30
0.5
11
1.8285729113434
21
10.5028312995178
31
0.5
  0
LINE
 8
Group#1
10
1.8285729113434
20
10.5028312995178
30
0.5
11
1.96455646452989
21
10.5300663338615
31
0.5
  0
LINE
 8
Group#1
10
1.96455646452989
20
10.5300663338615
30
0.5
11
2.06249661909811
21
10.5237765262854
31
0.5
  0
LINE
 8
Group#1
10
2.06249661909811
20
10.5237765262854
30
0.5
11
1.85918417617872
21
10.8029555809188
31
0.5
  0
LINE
 8
Group#1
10
1.85918417617872
20
10.8029555809188
30
0.5
11
1.63048559151179
21
11.3967518209463
31
0.5
  0
LINE
 8
Group#1
10
1.63048559151179
20
11.3967518209463
30
0.5
11
1.56326549797564
21
12.0295064940419
31
0.5
  0
LINE
 8
Group#1
10
7.86370330515627
20
13.0352761804101
30
0.0
11
7.46410161513776
21
14.0
31
0.0
  0
LINE
 8
Group#1
10
7.46410161513776
20
14.0
30
0.0
11
6.82842712474619
21
14.8284271247462
31
0.0
  0
LINE
 8
Group#1
10
6.82842712474619
20
14.8284271247462
30
0.0
11
6.0
21
15.4641016151378
31
0.0
  0
LINE
 8
Group#1
10
6.0
20
15.4641016151378
30
0.0
11
5.03527618041009
21
15.8637033051563
31
0.0
  0
LINE
 8
Group#1
10
5.03527618041009
20
15.8637033051563
30
0.0
11
4.0
21
16.0
31
0.0
  0
LINE
 8
Group#1
10
4.0
20
16.0
30
0.0
11
2.96472381958992
21
15.8637033051563
31
0.0
  0
LINE
 8
Group#1
10
2.96472381958992
20
15.8637033051563
30
0.0
11
2.0
21
15.4641016151378
31
0.0
  0
LINE
 8
Group#1
10
2.0
20
15.4641016151378
30
0.0
11
1.17157287525381
21
14.8284271247462
31
0.0
  0
LINE
 8
Group#1
10
1.17157287525381
20
14.8284271247462
30
0.0
11
0.535898384862246
21
14.0
31
0.0
  0
LINE
 8
Group#1
10
0.535898384862246
20
14.0
30
0.0
11
0.136296694843727
21
13.0352761804101
31
0.0
  0
LINE
 8
Group#1
10
0.136296694843727
20
13.0352761804101
30
0.0
11
0.0
21
12.0
31
0.0
  0
LINE
 8
Group#1
10
0.0
20
12.0
30
0.0
11
0.0
21
0.0
31
0.0
  0
LINE
 8
Group#1
10
0.0
20
0.0
30
0.0
11
8.0
21
0.0
31
0.0
  0
LINE
 8
Group#1
10
6.34759085483884
20
5.60138301538265
30
0.0
11
6.42862670115943
21
5.6861438011554
31
0.0
  0
LINE
 8
Group#1
10
1.61735216119154
20
12.373483304698
30
0.0
11
1.66210483385828
21
12.6580984149109
31
0.0
  0
LINE
 8
Group#1
10
5.93996214346732
20
10.5241590930728
30
0.0
11
6.03962676940135
21
10.5297700271314
31
0.0
  0
LINE
 8
Group#1
10
2.06249661909811
20
10.5237765262854
30
0.0
11
1.85918417617872
21
10.8029555809188
31
0.0
  0
LINE
 8
Group#1
10
2.72873272551848
20
9.88869067022066
30
0.0
11
2.5267791882729
21
10.0518561359221
31
0.0
  0
LINE
 8
Group#1
10
6.36951440848821
20
12.540093795977
30
0.0
11
6.38206162286437
21
12.4219846397233
31
0.0
  0
LINE
 8
Group#1
10
6.38206162286437
20
12.4219846397233
30
0.0
11
6.43673450202436
21
11.9073391228813
31
0.0
  0
LINE
 8
Group#1
10
6.2643237615698
20
12.8132122794918
30
0.0
11
6.36951440848821
21
12.540093795977
31
0.0
  0
LINE
 8
Group#1
10
5.47266963461488
20
10.0513274637234
30
0.0
11
5.16546722754284
21
9.82760698464034
31
0.0
  0
LINE
 8
Group#1
10
1.56326549797564
20
12.0295064940419
30
0.0
11
1.61735216119154
21
12.373483304698
31
0.0
  0
LINE
 8
Group#1
10
3.20131528701977
20
9.67891575129334
30
0.0
11
2.72873272551848
21
9.88869067022066
31
0.0
  0
LINE
 8
Group#1
10
2.5267791882729
20
10.0518561359221
30
0.0
11
2.53006633386151
21
10.0354435354701
31
0.0
  0
LINE
 8
Group#1
10
6.07973213824096
20
10.6971555339801
30
0.0
11
5.93996214346732
21
10.5241590930728
31
0.0
  0
LINE
 8
Group#1
10
3.31032439355074
20
9.6305276423199
30
0.0
11
3.20131528701977
21
9.67891575129334
31
0.0
  0
LINE
 8
Group#1
10
1.96455646452989
20
10.5300663338615
30
0.0
11
2.06249661909811
21
10.5237765262854
31
0.0
  0
LINE
 8
Group#1
10
6.14081582382128
20
13.1338900360045
30
0.0
11
6.2643237615698
21
12.8132122794918
31
0.0
  0
LINE
 8
Group#1
10
1.77958248267367
20
2.48336599027621
30
0.0
11
1.66198870340966
21
2.40984744219931
31
0.0
  0
LINE
 8
Group#1
10
2.30839846824145
20
2.4325701645818
30
0.0
11
2.1859326483255
21
2.49765009071301
31
0.0
  0
LINE
 8
Group#1
10
2.1859326483255
20
2.49765009071301
30
0.0
11
2.0507958256944
21
2.52881598556778
31
0.0
  0
LINE
 8
Group#1
10
2.0507958256944
20
2.52881598556778
30
0.0
11
1.9121973514863
21
2.52394394491585
31
0.0
  0
LINE
 8
Group#1
10
1.9121973514863
20
2.52394394491585
30
0.0
11
1.77958248267367
21
2.48336599027621
31
0.0
  0
LINE
 8
Group#1
10
1.66198870340966
20
2.40984744219931
30
0.0
11
1.5674298354182
21
2.30839846824145
31
0.0
  0
LINE
 8
Group#1
10
1.5674298354182
20
2.30839846824145
30
0.0
11
1.50234990928699
21
2.1859326483255
31
0.0
  0
LINE
 8
Group#1
10
2.41021375721811
20
6.33756663918254
30
0.0
11
2.30886738718436
21
6.43223546781113
31
0.0
  0
LINE
 8
Group#1
10
2.48360473760774
20
6.21989320194891
30
0.0
11
2.41021375721811
21
6.33756663918254
31
0.0
  0
LINE
 8
Group#1
10
1.58978624278189
20
5.66243336081746
30
0.0
11
1.69113261281564
21
5.56776453218887
31
0.0
  0
LINE
 8
Group#1
10
1.69113261281564
20
5.56776453218887
30
0.0
11
1.81352778485852
21
5.50255183638872
31
0.0
  0
LINE
 8
Group#1
10
1.81352778485852
20
5.50255183638872
30
0.0
11
1.94863073020339
21
5.47123941086673
31
0.0
  0
LINE
 8
Group#1
10
1.94863073020339
20
5.47123941086673
30
0.0
11
2.08723440639316
21
5.47596114567598
31
0.0
  0
LINE
 8
Group#1
10
5.918844999533
20
6.52501469350791
30
0.0
11
5.918844999533
21
6.52501469350791
31
0.5
  0
LINE
 8
Group#1
10
6.05749409075493
20
6.52812971136669
30
0.0
11
5.918844999533
21
6.52501469350791
31
0.0
  0
LINE
 8
Group#1
10
6.05749409075493
20
6.52812971136669
30
0.0
11
6.05749409075493
21
6.52812971136669
31
0.5
  0
LINE
 8
Group#1
10
1.53691498627098
20
5.7472059371132
30
0.0
11
1.58978624278189
21
5.66243336081746
31
0.0
  0
LINE
 8
Group#1
10
1.47596114567598
20
5.91276559360684
30
0.0
11
1.51639526239226
21
5.78010679805109
31
0.0
  0
LINE
 8
Group#1
10
1.56776453218887
20
6.30886738718436
30
0.0
11
1.50255183638872
21
6.18647221514148
31
0.0
  0
LINE
 8
Group#1
10
1.63966140267508
20
6.38583556082842
30
0.0
11
1.56776453218887
21
6.30886738718436
31
0.0
  0
LINE
 8
Group#1
10
1.66243336081746
20
6.41021375721811
30
0.0
11
1.63966140267508
21
6.38583556082842
31
0.0
  0
LINE
 8
Group#1
10
1.78010679805109
20
6.48360473760774
30
0.0
11
1.66243336081746
21
6.41021375721811
31
0.0
  0
LINE
 8
Group#1
10
1.91276559360684
20
6.52403885432402
30
0.0
11
1.78010679805109
21
6.48360473760774
31
0.0
  0
LINE
 8
Group#1
10
2.05136926979661
20
6.52876058913327
30
0.0
11
1.91276559360684
21
6.52403885432402
31
0.0
  0
LINE
 8
Group#1
10
2.52403885432402
20
6.08723440639316
30
0.0
11
2.48360473760774
21
6.21989320194891
31
0.0
  0
LINE
 8
Group#1
10
2.52876058913327
20
5.94863073020339
30
0.0
11
2.52403885432402
21
6.08723440639316
31
0.0
  0
LINE
 8
Group#1
10
2.49744816361128
20
5.81352778485852
30
0.0
11
2.52876058913327
21
5.94863073020339
31
0.0
  0
LINE
 8
Group#1
10
2.43223546781113
20
5.69113261281564
30
0.0
11
2.49744816361128
21
5.81352778485852
31
0.0
  0
LINE
 8
Group#1
10
2.36002066651126
20
5.61382408285417
30
0.0
11
2.43223546781113
21
5.69113261281564
31
0.0
  0
LINE
 8
Group#1
10
2.33756663918254
20
5.58978624278189
30
0.0
11
2.36002066651126
21
5.61382408285417
31
0.0
  0
LINE
 8
Group#1
10
2.21989320194891
20
5.51639526239226
30
0.0
11
2.33756663918254
21
5.58978624278189
31
0.0
  0
LINE
 8
Group#1
10
2.08723440639316
20
5.47596114567598
30
0.0
11
2.21989320194891
21
5.51639526239226
31
0.0
  0
LINE
 8
Group#1
10
1.50255183638872
20
6.18647221514148
30
0.0
11
1.47123941086673
21
6.05136926979661
31
0.0
  0
LINE
 8
Group#1
10
1.47123941086673
20
6.05136926979661
30
0.0
11
1.47596114567598
21
5.91276559360684
31
0.0
  0
LINE
 8
Group#1
10
2.30886738718436
20
6.43223546781113
30
0.0
11
2.18647221514148
21
6.49744816361128
31
0.0
  0
LINE
 8
Group#1
10
2.18647221514148
20
6.49744816361128
30
0.0
11
2.05136926979661
21
6.52876058913327
31
0.0
  0
LINE
 8
Group#1
10
6.33278963880252
20
5.58590143829555
30
0.0
11
6.33278963880252
21
5.58590143829555
31
0.5
  0
LINE
 8
Group#1
10
6.21427351252209
20
5.51387920808564
30
0.0
11
6.33278963880252
21
5.58590143829555
31
0.0
  0
LINE
 8
Group#1
10
6.21427351252209
20
5.51387920808564
30
0.0
11
6.21427351252209
21
5.51387920808564
31
0.5
  0
LINE
 8
Group#1
10
6.19222505470539
20
6.49525356217145
30
0.0
11
6.05749409075493
21
6.52812971136669
31
0.0
  0
LINE
 8
Group#1
10
6.19222505470539
20
6.49525356217145
30
0.0
11
6.19222505470539
21
6.49525356217145
31
0.5
  0
LINE
 8
Group#1
10
6.3138561988446
20
6.42862670115943
30
0.0
11
6.19222505470539
21
6.49525356217145
31
0.0
  0
LINE
 8
Group#1
10
6.3138561988446
20
6.42862670115943
30
0.0
11
6.3138561988446
21
6.42862670115943
31
0.5
  0
LINE
 8
Group#1
10
6.41409856170445
20
6.33278963880252
30
0.0
11
6.3138561988446
21
6.42862670115943
31
0.0
  0
LINE
 8
Group#1
10
6.41409856170445
20
6.33278963880252
30
0.0
11
6.41409856170445
21
6.33278963880252
31
0.5
  0
LINE
 8
Group#1
10
6.48612079191436
20
6.21427351252209
30
0.0
11
6.41409856170445
21
6.33278963880252
31
0.0
  0
LINE
 8
Group#1
10
6.48612079191436
20
6.21427351252209
30
0.0
11
6.48612079191436
21
6.21427351252209
31
0.5
  0
LINE
 8
Group#1
10
6.52501469350791
20
6.081155000467
30
0.0
11
6.48612079191436
21
6.21427351252209
31
0.0
  0
LINE
 8
Group#1
10
6.52501469350791
20
6.081155000467
30
0.0
11
6.52501469350791
21
6.081155000467
31
0.5
  0
LINE
 8
Group#1
10
6.52812971136669
20
5.94250590924507
30
0.0
11
6.52501469350791
21
6.081155000467
31
0.0
  0
LINE
 8
Group#1
10
6.52812971136669
20
5.94250590924507
30
0.0
11
6.52812971136669
21
5.94250590924507
31
0.5
  0
LINE
 8
Group#1
10
6.49525356217145
20
5.80777494529461
30
0.0
11
6.52812971136669
21
5.94250590924507
31
0.0
  0
LINE
 8
Group#1
10
6.49525356217145
20
5.80777494529461
30
0.0
11
6.49525356217145
21
5.80777494529461
31
0.5
  0
LINE
 8
Group#1
10
6.42862670115943
20
5.6861438011554
30
0.0
11
6.49525356217145
21
5.80777494529461
31
0.0
  0
LINE
 8
Group#1
10
6.42862670115943
20
5.6861438011554
30
0.0
11
6.42862670115943
21
5.6861438011554
31
0.5
  0
LINE
 8
Group#1
10
6.33278963880252
20
5.58590143829555
30
0.0
11
6.34759085483884
21
5.60138301538265
31
0.0
  0
LINE
 8
Group#1
10
5.58590143829555
20
5.66721036119748
30
0.0
11
5.58590143829555
21
5.66721036119748
31
0.5
  0
LINE
 8
Group#1
10
5.51387920808564
20
5.78572648747791
30
0.0
11
5.58590143829555
21
5.66721036119748
31
0.0
  0
LINE
 8
Group#1
10
5.51387920808564
20
5.78572648747791
30
0.0
11
5.51387920808564
21
5.78572648747791
31
0.5
  0
LINE
 8
Group#1
10
5.6861438011554
20
5.57137329884057
30
0.0
11
5.6861438011554
21
5.57137329884057
31
0.5
  0
LINE
 8
Group#1
10
5.58590143829555
20
5.66721036119748
30
0.0
11
5.6861438011554
21
5.57137329884057
31
0.0
  0
LINE
 8
Group#1
10
5.47498530649209
20
5.918844999533
30
0.0
11
5.47498530649209
21
5.918844999533
31
0.5
  0
LINE
 8
Group#1
10
5.47187028863331
20
6.05749409075493
30
0.0
11
5.47498530649209
21
5.918844999533
31
0.0
  0
LINE
 8
Group#1
10
5.47187028863331
20
6.05749409075493
30
0.0
11
5.47187028863331
21
6.05749409075493
31
0.5
  0
LINE
 8
Group#1
10
5.47498530649209
20
5.918844999533
30
0.0
11
5.51387920808564
21
5.78572648747791
31
0.0
  0
LINE
 8
Group#1
10
6.09745628742295
20
5.47974813504933
30
0.0
11
6.21427351252209
21
5.51387920808564
31
0.0
  0
LINE
 8
Group#1
10
6.081155000467
20
5.47498530649209
30
0.0
11
6.09745628742295
21
5.47974813504933
31
0.0
  0
LINE
 8
Group#1
10
6.081155000467
20
5.47498530649209
30
0.0
11
6.081155000467
21
5.47498530649209
31
0.5
  0
LINE
 8
Group#1
10
5.94250590924507
20
5.47187028863331
30
0.0
11
6.081155000467
21
5.47498530649209
31
0.0
  0
LINE
 8
Group#1
10
5.94250590924507
20
5.47187028863331
30
0.0
11
5.94250590924507
21
5.47187028863331
31
0.5
  0
LINE
 8
Group#1
10
5.50474643782855
20
6.19222505470539
30
0.0
11
5.47187028863331
21
6.05749409075493
31
0.0
  0
LINE
 8
Group#1
10
5.50474643782855
20
6.19222505470539
30
0.0
11
5.50474643782855
21
6.19222505470539
31
0.5
  0
LINE
 8
Group#1
10
5.57137329884057
20
6.3138561988446
30
0.0
11
5.50474643782855
21
6.19222505470539
31
0.0
  0
LINE
 8
Group#1
10
5.57137329884057
20
6.3138561988446
30
0.0
11
5.57137329884057
21
6.3138561988446
31
0.5
  0
LINE
 8
Group#1
10
5.80777494529461
20
5.50474643782855
30
0.0
11
5.80777494529461
21
5.50474643782855
31
0.5
  0
LINE
 8
Group#1
10
5.6861438011554
20
5.57137329884057
30
0.0
11
5.80777494529461
21
5.50474643782855
31
0.0
  0
LINE
 8
Group#1
10
5.80777494529461
20
5.50474643782855
30
0.0
11
5.94250590924507
21
5.47187028863331
31
0.0
  0
LINE
 8
Group#1
10
5.78572648747791
20
6.48612079191436
30
0.0
11
5.78572648747791
21
6.48612079191436
31
0.5
  0
LINE
 8
Group#1
10
5.918844999533
20
6.52501469350791
30
0.0
11
5.78572648747791
21
6.48612079191436
31
0.0
  0
LINE
 8
Group#1
10
5.66721036119748
20
6.41409856170445
30
0.0
11
5.66721036119748
21
6.41409856170445
31
0.5
  0
LINE
 8
Group#1
10
5.78572648747791
20
6.48612079191436
30
0.0
11
5.66721036119748
21
6.41409856170445
31
0.0
  0
LINE
 8
Group#1
10
5.65209031043951
20
6.39828349415891
30
0.0
11
5.65209031043951
21
6.39828349415891
31
0.5
  0
LINE
 8
Group#1
10
5.66721036119748
20
6.41409856170445
30
0.0
11
5.65209031043951
21
6.39828349415891
31
0.0
  0
LINE
 8
Group#1
10
5.65209031043951
20
6.39828349415891
30
0.0
11
5.57137329884057
21
6.3138561988446
31
0.0
  0
LINE
 8
Group#1
10
1.77958248267367
20
2.48336599027621
30
0.0
11
1.77958248267367
21
2.48336599027621
31
0.5
  0
LINE
 8
Group#1
10
1.9121973514863
20
2.52394394491585
30
0.0
11
1.9121973514863
21
2.52394394491585
31
0.5
  0
LINE
 8
Group#1
10
1.49716870048224
20
9.8285729113434
30
0.5
11
1.49716870048224
21
9.8285729113434
31
0.0
  0
LINE
 8
Group#1
10
1.49716870048224
20
9.8285729113434
30
0.0
11
1.46993366613849
21
9.96455646452989
31
0.0
  0
LINE
 8
Group#1
10
1.46993366613849
20
9.96455646452989
30
0.5
11
1.46993366613849
21
9.96455646452989
31
0.0
  0
LINE
 8
Group#1
10
2.39987586343231
20
9.65024886512798
30
0.5
11
2.39987586343231
21
9.65024886512798
31
0.0
  0
LINE
 8
Group#1
10
2.39987586343231
20
9.65024886512798
30
0.0
11
2.2957281690478
21
9.55867085692011
31
0.0
  0
LINE
 8
Group#1
10
2.2957281690478
20
9.55867085692011
30
0.5
11
2.2957281690478
21
9.55867085692011
31
0.0
  0
LINE
 8
Group#1
10
2.52881598556778
20
1.9492041743056
30
0.0
11
2.52881598556778
21
1.9492041743056
31
0.5
  0
LINE
 8
Group#1
10
2.49765009071301
20
1.8140673516745
30
0.0
11
2.52881598556778
21
1.9492041743056
31
0.0
  0
LINE
 8
Group#1
10
2.49765009071301
20
1.8140673516745
30
0.0
11
2.49765009071301
21
1.8140673516745
31
0.5
  0
LINE
 8
Group#1
10
2.4325701645818
20
1.69160153175855
30
0.0
11
2.4325701645818
21
1.69160153175855
31
0.5
  0
LINE
 8
Group#1
10
2.33801129659034
20
1.59015255780069
30
0.0
11
2.4325701645818
21
1.69160153175855
31
0.0
  0
LINE
 8
Group#1
10
2.33801129659034
20
1.59015255780069
30
0.0
11
2.33801129659034
21
1.59015255780069
31
0.5
  0
LINE
 8
Group#1
10
2.4325701645818
20
1.69160153175855
30
0.0
11
2.49765009071301
21
1.8140673516745
31
0.0
  0
LINE
 8
Group#1
10
2.52394394491585
20
2.0878026485137
30
0.0
11
2.52394394491585
21
2.0878026485137
31
0.5
  0
LINE
 8
Group#1
10
2.52881598556778
20
1.9492041743056
30
0.0
11
2.52394394491585
21
2.0878026485137
31
0.0
  0
LINE
 8
Group#1
10
1.7656618351863
20
9.52322732145
30
0.5
11
1.7656618351863
21
9.52322732145
31
0.0
  0
LINE
 8
Group#1
10
1.7656618351863
20
9.52322732145
30
0.0
11
1.65024886512798
21
9.60012413656769
31
0.0
  0
LINE
 8
Group#1
10
1.65024886512798
20
9.60012413656769
30
0.5
11
1.65024886512798
21
9.60012413656769
31
0.0
  0
LINE
 8
Group#1
10
1.7042718309522
20
10.4413291430799
30
0.5
11
1.7042718309522
21
10.4413291430799
31
0.0
  0
LINE
 8
Group#1
10
1.7042718309522
20
10.4413291430799
30
0.0
11
1.8285729113434
21
10.5028312995178
31
0.0
  0
LINE
 8
Group#1
10
1.8285729113434
20
10.5028312995178
30
0.5
11
1.8285729113434
21
10.5028312995178
31
0.0
  0
LINE
 8
Group#1
10
1.52322732145
20
10.2343381648137
30
0.5
11
1.52322732145
21
10.2343381648137
31
0.0
  0
LINE
 8
Group#1
10
1.52322732145
20
10.2343381648137
30
0.0
11
1.60012413656769
21
10.349751134872
31
0.0
  0
LINE
 8
Group#1
10
1.60012413656769
20
10.349751134872
30
0.5
11
1.60012413656769
21
10.349751134872
31
0.0
  0
LINE
 8
Group#1
10
2.53006633386151
20
10.0354435354701
30
0.5
11
2.53006633386151
21
10.0354435354701
31
0.0
  0
LINE
 8
Group#1
10
5.47656613979637
20
2.09079403335201
30
0.0
11
5.47656613979637
21
2.09079403335201
31
0.5
  0
LINE
 8
Group#1
10
5.5179009410883
20
2.22317495355988
30
0.0
11
5.47656613979637
21
2.09079403335201
31
0.0
  0
LINE
 8
Group#1
10
5.5179009410883
20
2.22317495355988
30
0.0
11
5.5179009410883
21
2.22317495355988
31
0.5
  0
LINE
 8
Group#1
10
1.55867085692011
20
9.7042718309522
30
0.5
11
1.55867085692011
21
9.7042718309522
31
0.0
  0
LINE
 8
Group#1
10
1.55867085692011
20
9.7042718309522
30
0.0
11
1.49716870048224
21
9.8285729113434
31
0.0
  0
LINE
 8
Group#1
10
1.5674298354182
20
2.30839846824145
30
0.0
11
1.5674298354182
21
2.30839846824145
31
0.5
  0
LINE
 8
Group#1
10
1.66198870340966
20
2.40984744219931
30
0.0
11
1.66198870340966
21
2.40984744219931
31
0.5
  0
LINE
 8
Group#1
10
5.59208999653871
20
2.3403468694967
30
0.0
11
5.59208999653871
21
2.3403468694967
31
0.5
  0
LINE
 8
Group#1
10
5.69407744462184
20
2.43432470872712
30
0.0
11
5.59208999653871
21
2.3403468694967
31
0.0
  0
LINE
 8
Group#1
10
5.69407744462184
20
2.43432470872712
30
0.0
11
5.69407744462184
21
2.43432470872712
31
0.5
  0
LINE
 8
Group#1
10
1.46993366613849
20
9.96455646452989
30
0.0
11
1.47882177647137
21
10.1029554360855
31
0.0
  0
LINE
 8
Group#1
10
1.47882177647137
20
10.1029554360855
30
0.5
11
1.47882177647137
21
10.1029554360855
31
0.0
  0
LINE
 8
Group#1
10
1.65024886512798
20
9.60012413656769
30
0.0
11
1.55867085692011
21
9.7042718309522
31
0.0
  0
LINE
 8
Group#1
10
1.96455646452989
20
10.5300663338615
30
0.5
11
1.96455646452989
21
10.5300663338615
31
0.0
  0
LINE
 8
Group#1
10
1.47118401443222
20
2.0507958256944
30
0.0
11
1.47605605508415
21
1.9121973514863
31
0.0
  0
LINE
 8
Group#1
10
1.47118401443222
20
2.0507958256944
30
0.0
11
1.47118401443222
21
2.0507958256944
31
0.5
  0
LINE
 8
Group#1
10
2.1714270886566
20
9.49716870048224
30
0.5
11
2.1714270886566
21
9.49716870048224
31
0.0
  0
LINE
 8
Group#1
10
2.1714270886566
20
9.49716870048224
30
0.0
11
2.03544353547011
21
9.46993366613849
31
0.0
  0
LINE
 8
Group#1
10
2.03544353547011
20
9.46993366613849
30
0.5
11
2.03544353547011
21
9.46993366613849
31
0.0
  0
LINE
 8
Group#1
10
1.47882177647137
20
10.1029554360855
30
0.0
11
1.52322732145
21
10.2343381648137
31
0.0
  0
LINE
 8
Group#1
10
1.60012413656769
20
10.349751134872
30
0.0
11
1.7042718309522
21
10.4413291430799
31
0.0
  0
LINE
 8
Group#1
10
2.48336599027621
20
2.22041751732633
30
0.0
11
2.48336599027621
21
2.22041751732633
31
0.5
  0
LINE
 8
Group#1
10
2.52394394491585
20
2.0878026485137
30
0.0
11
2.48336599027621
21
2.22041751732633
31
0.0
  0
LINE
 8
Group#1
10
2.52117822352862
20
9.89704456391454
30
0.5
11
2.52117822352862
21
9.89704456391454
31
0.0
  0
LINE
 8
Group#1
10
2.52117822352862
20
9.89704456391454
30
0.0
11
2.47677267855
21
9.7656618351863
31
0.0
  0
LINE
 8
Group#1
10
2.47677267855
20
9.7656618351863
30
0.5
11
2.47677267855
21
9.7656618351863
31
0.0
  0
LINE
 8
Group#1
10
5.77682504644012
20
1.5179009410883
30
0.0
11
5.77682504644012
21
1.5179009410883
31
0.5
  0
LINE
 8
Group#1
10
5.6596531305033
20
1.59208999653871
30
0.0
11
5.77682504644012
21
1.5179009410883
31
0.0
  0
LINE
 8
Group#1
10
5.6596531305033
20
1.59208999653871
30
0.0
11
5.6596531305033
21
1.59208999653871
31
0.5
  0
LINE
 8
Group#1
10
5.56567529127288
20
1.69407744462184
30
0.0
11
5.6596531305033
21
1.59208999653871
31
0.0
  0
LINE
 8
Group#1
10
5.56567529127288
20
1.69407744462184
30
0.0
11
5.56567529127288
21
1.69407744462184
31
0.5
  0
LINE
 8
Group#1
10
5.81691300929307
20
2.4987040368133
30
0.0
11
5.81691300929307
21
2.4987040368133
31
0.5
  0
LINE
 8
Group#1
10
5.95222564981542
20
2.52909750893804
30
0.0
11
5.81691300929307
21
2.4987040368133
31
0.0
  0
LINE
 8
Group#1
10
5.95222564981542
20
2.52909750893804
30
0.0
11
5.95222564981542
21
2.52909750893804
31
0.5
  0
LINE
 8
Group#1
10
2.0507958256944
20
2.52881598556778
30
0.0
11
2.0507958256944
21
2.52881598556778
31
0.5
  0
LINE
 8
Group#1
10
2.1859326483255
20
2.49765009071301
30
0.0
11
2.1859326483255
21
2.49765009071301
31
0.5
  0
LINE
 8
Group#1
10
1.50234990928699
20
2.1859326483255
30
0.0
11
1.47118401443222
21
2.0507958256944
31
0.0
  0
LINE
 8
Group#1
10
1.50234990928699
20
2.1859326483255
30
0.0
11
1.50234990928699
21
2.1859326483255
31
0.5
  0
LINE
 8
Group#1
10
2.2957281690478
20
9.55867085692011
30
0.0
11
2.1714270886566
21
9.49716870048224
31
0.0
  0
LINE
 8
Group#1
10
2.30839846824145
20
2.4325701645818
30
0.0
11
2.30839846824145
21
2.4325701645818
31
0.5
  0
LINE
 8
Group#1
10
2.40984744219931
20
2.33801129659034
30
0.0
11
2.30839846824145
21
2.4325701645818
31
0.0
  0
LINE
 8
Group#1
10
2.40984744219931
20
2.33801129659034
30
0.0
11
2.40984744219931
21
2.33801129659034
31
0.5
  0
LINE
 8
Group#1
10
6.09079403335201
20
2.52343386020363
30
0.0
11
6.09079403335201
21
2.52343386020363
31
0.5
  0
LINE
 8
Group#1
10
6.22317495355988
20
2.4820990589117
30
0.0
11
6.09079403335201
21
2.52343386020363
31
0.0
  0
LINE
 8
Group#1
10
6.22317495355988
20
2.4820990589117
30
0.0
11
6.22317495355988
21
2.4820990589117
31
0.5
  0
LINE
 8
Group#1
10
6.52909750893804
20
2.04777435018458
30
0.0
11
6.52909750893804
21
2.04777435018458
31
0.5
  0
LINE
 8
Group#1
10
6.52343386020363
20
1.90920596664799
30
0.0
11
6.52909750893804
21
2.04777435018458
31
0.0
  0
LINE
 8
Group#1
10
6.52343386020363
20
1.90920596664799
30
0.0
11
6.52343386020363
21
1.90920596664799
31
0.5
  0
LINE
 8
Group#1
10
6.09079403335201
20
2.52343386020363
30
0.0
11
5.95222564981542
21
2.52909750893804
31
0.0
  0
LINE
 8
Group#1
10
6.04777435018458
20
1.47090249106196
30
0.0
11
6.04777435018458
21
1.47090249106196
31
0.5
  0
LINE
 8
Group#1
10
5.90920596664799
20
1.47656613979637
30
0.0
11
6.04777435018458
21
1.47090249106196
31
0.0
  0
LINE
 8
Group#1
10
5.90920596664799
20
1.47656613979637
30
0.0
11
5.90920596664799
21
1.47656613979637
31
0.5
  0
LINE
 8
Group#1
10
5.77682504644012
20
1.5179009410883
30
0.0
11
5.90920596664799
21
1.47656613979637
31
0.0
  0
LINE
 8
Group#1
10
5.47090249106196
20
1.95222564981542
30
0.0
11
5.47090249106196
21
1.95222564981542
31
0.5
  0
LINE
 8
Group#1
10
5.47656613979637
20
2.09079403335201
30
0.0
11
5.47090249106196
21
1.95222564981542
31
0.0
  0
LINE
 8
Group#1
10
6.3403468694967
20
2.40791000346129
30
0.0
11
6.22317495355988
21
2.4820990589117
31
0.0
  0
LINE
 8
Group#1
10
6.3403468694967
20
2.40791000346129
30
0.0
11
6.3403468694967
21
2.40791000346129
31
0.5
  0
LINE
 8
Group#1
10
5.5012959631867
20
1.81691300929307
30
0.0
11
5.56567529127288
21
1.69407744462184
31
0.0
  0
LINE
 8
Group#1
10
5.5012959631867
20
1.81691300929307
30
0.0
11
5.5012959631867
21
1.81691300929307
31
0.5
  0
LINE
 8
Group#1
10
6.43432470872712
20
2.30592255537816
30
0.0
11
6.3403468694967
21
2.40791000346129
31
0.0
  0
LINE
 8
Group#1
10
6.43432470872712
20
2.30592255537816
30
0.0
11
6.43432470872712
21
2.30592255537816
31
0.5
  0
LINE
 8
Group#1
10
6.4987040368133
20
2.18308699070693
30
0.0
11
6.43432470872712
21
2.30592255537816
31
0.0
  0
LINE
 8
Group#1
10
6.4987040368133
20
2.18308699070693
30
0.0
11
6.4987040368133
21
2.18308699070693
31
0.5
  0
LINE
 8
Group#1
10
6.4820990589117
20
1.77682504644012
30
0.0
11
6.4820990589117
21
1.77682504644012
31
0.5
  0
LINE
 8
Group#1
10
6.40791000346129
20
1.6596531305033
30
0.0
11
6.4820990589117
21
1.77682504644012
31
0.0
  0
LINE
 8
Group#1
10
6.40791000346129
20
1.6596531305033
30
0.0
11
6.40791000346129
21
1.6596531305033
31
0.5
  0
LINE
 8
Group#1
10
6.30592255537816
20
1.56567529127288
30
0.0
11
6.40791000346129
21
1.6596531305033
31
0.0
  0
LINE
 8
Group#1
10
6.30592255537816
20
1.56567529127288
30
0.0
11
6.30592255537816
21
1.56567529127288
31
0.5
  0
LINE
 8
Group#1
10
6.18308699070693
20
1.5012959631867
30
0.0
11
6.30592255537816
21
1.56567529127288
31
0.0
  0
LINE
 8
Group#1
10
6.18308699070693
20
1.5012959631867
30
0.0
11
6.18308699070693
21
1.5012959631867
31
0.5
  0
LINE
 8
Group#1
10
6.04777435018458
20
1.47090249106196
30
0.0
11
6.18308699070693
21
1.5012959631867
31
0.0
  0
LINE
 8
Group#1
10
1.8285729113434
20
10.5028312995178
30
0.0
11
1.96455646452989
21
10.5300663338615
31
0.0
  0
LINE
 8
Group#1
10
2.53006633386151
20
10.0354435354701
30
0.0
11
2.52117822352862
21
9.89704456391454
31
0.0
  0
LINE
 8
Group#1
10
5.47090249106196
20
1.95222564981542
30
0.0
11
5.5012959631867
21
1.81691300929307
31
0.0
  0
LINE
 8
Group#1
10
5.81691300929307
20
2.4987040368133
30
0.0
11
5.69407744462184
21
2.43432470872712
31
0.0
  0
LINE
 8
Group#1
10
5.59208999653871
20
2.3403468694967
30
0.0
11
5.5179009410883
21
2.22317495355988
31
0.0
  0
LINE
 8
Group#1
10
6.4820990589117
20
1.77682504644012
30
0.0
11
6.52343386020363
21
1.90920596664799
31
0.0
  0
LINE
 8
Group#1
10
6.52909750893804
20
2.04777435018458
30
0.0
11
6.4987040368133
21
2.18308699070693
31
0.0
  0
LINE
 8
Group#1
10
2.47677267855
20
9.7656618351863
30
0.0
11
2.39987586343231
21
9.65024886512798
31
0.0
  0
LINE
 8
Group#1
10
2.03544353547011
20
9.46993366613849
30
0.0
11
1.89704456391454
21
9.47882177647137
31
0.0
  0
LINE
 8
Group#1
10
1.89704456391454
20
9.47882177647137
30
0.5
11
1.89704456391454
21
9.47882177647137
31
0.0
  0
LINE
 8
Group#1
10
1.89704456391454
20
9.47882177647137
30
0.0
11
1.7656618351863
21
9.52322732145
31
0.0
  0
LINE
 8
Group#1
10
2.22041751732633
20
1.51663400972379
30
0.0
11
2.33801129659034
21
1.59015255780069
31
0.0
  0
LINE
 8
Group#1
10
2.48336599027621
20
2.22041751732633
30
0.0
11
2.40984744219931
21
2.33801129659034
31
0.0
  0
LINE
 8
Group#1
10
6.33789516614172
20
11.2787472020124
30
0.0
11
6.07973213824096
21
10.6971555339801
31
0.0
  0
LINE
 8
Group#1
10
3.42832901248464
20
14.3379372169498
30
0.0
11
4.06108368558032
21
14.405157310486
31
0.0
  0
LINE
 8
Group#1
10
2.32016119796106
20
13.734646987088
30
0.0
11
2.83453277245716
21
14.1092386322829
31
0.0
  0
LINE
 8
Group#1
10
2.83453277245716
20
14.1092386322829
30
0.0
11
3.42832901248464
21
14.3379372169498
31
0.0
  0
LINE
 8
Group#1
10
5.16546722754284
20
9.82760698464034
30
0.0
11
4.57167098751536
21
9.59890839997341
31
0.0
  0
LINE
 8
Group#1
10
1.92026786175904
20
13.2396900829431
30
0.0
11
2.0979277930987
21
13.4595837436918
31
0.0
  0
LINE
 8
Group#1
10
2.0979277930987
20
13.4595837436918
30
0.0
11
2.32016119796106
21
13.734646987088
31
0.0
  0
LINE
 8
Group#1
10
4.57167098751536
20
9.59890839997341
30
0.0
11
3.93891631441968
21
9.53168830643726
31
0.0
  0
LINE
 8
Group#1
10
1.85918417617872
20
10.8029555809188
30
0.0
11
1.63048559151179
21
11.3967518209463
31
0.0
  0
LINE
 8
Group#1
10
3.93891631441968
20
9.53168830643726
30
0.0
11
3.31032439355074
21
9.6305276423199
31
0.0
  0
LINE
 8
Group#1
10
1.63048559151179
20
11.3967518209463
30
0.0
11
1.56326549797564
21
12.0295064940419
31
0.0
  0
LINE
 8
Group#1
10
1.66210483385828
20
12.6580984149109
30
0.0
11
1.92026786175904
21
13.2396900829431
31
0.0
  0
LINE
 8
Group#1
10
6.43673450202436
20
11.9073391228813
30
0.0
11
6.33789516614172
21
11.2787472020124
31
0.0
  0
LINE
 8
Group#1
10
5.76622417862636
20
13.6482616105006
30
0.0
11
6.14081582382128
21
13.1338900360045
31
0.0
  0
LINE
 8
Group#1
10
5.27126727448152
20
14.0481549467026
30
0.0
11
5.76622417862636
21
13.6482616105006
31
0.0
  0
LINE
 8
Group#1
10
4.68967560644926
20
14.3063179746033
30
0.0
11
5.27126727448152
21
14.0481549467026
31
0.0
  0
LINE
 8
Group#1
10
4.06108368558032
20
14.405157310486
30
0.0
11
4.68967560644926
21
14.3063179746033
31
0.0
  0
LINE
 8
Group#1
10
1.51639526239226
20
5.78010679805109
30
0.0
11
1.53691498627098
21
5.7472059371132
31
0.0
 0
ENDSEC
 0
EOF
