  0
SECTION
  2
HEADER
  9
$ACADVER
  1
AC1009
  9
$INSBASE
 10
0.0
 20
0.0
 30
0.0
  9
$EXTMIN
 10
0.0
 20
0.0
 30
0.0
  9
$EXTMAX
 10
0.0
 20
0.0
 30
0.0
  0
ENDSEC
  0
SECTION
  2
TABLES
  0
TABLE
  2
VPORT
 70
0
  0
ENDTAB
  0
TABLE
  2
LTYPE
 70
1
  0
LTYPE
  2
CONTINUOUS
 70
0
  3
Solid line
 72
65
 73
0
 40
0.0
  0
ENDTAB
  0
TABLE
  2
LAYER
 70
1
  0
LAYER
  2
0
 70
64
 62
7
  6
continuous
  0
ENDTAB
  0
TABLE
  2
STYLE
 70
1
  0
STYLE
  2
STANDARD
 70
0
 40
0
 41
1.0
 50
0.0
 71
0
 42
1
 3
ARIAL.TTF
 4

  0
ENDTAB
  0
TABLE
  2
VIEW
 70
0
  0
ENDTAB
  0
ENDSEC
  0
SECTION
  2
BLOCKS
  0
BLOCK
  8
0
  2
PAD
 70
0
 10
0.0
 20
0.0
 30
0.0
  3
PAD
  0
POLYLINE
  8
0
 62
0
 70
0
 66
1
 10
0.0
 20
0.0
 30
0.0
  0
VERTEX
  8
0
 10
-177.8
 20
-129.7938
 30
0.0
  0
VERTEX
  8
0
 10
-177.8
 20
-129.7438
 30
0.0
  0
VERTEX
  8
0
 10
-177.8
 20
-129.6938
 30
0.0
  0
VERTEX
  8
0
 10
-177.8
 20
-129.6438
 30
0.0
  0
VERTEX
  8
0
 10
-177.8
 20
-129.5938
 30
0.0
  0
VERTEX
  8
0
 10
-177.8
 20
-129.5438
 30
0.0
  0
VERTEX
  8
0
 10
-177.8
 20
-129.4938
 30
0.0
  0
VERTEX
  8
0
 10
-177.8
 20
-129.4438
 30
0.0
  0
VERTEX
  8
0
 10
-177.8
 20
-129.3938
 30
0.0
  0
VERTEX
  8
0
 10
-177.8
 20
-129.3438
 30
0.0
  0
VERTEX
  8
0
 10
-177.8
 20
-129.2938
 30
0.0
  0
VERTEX
  8
0
 10
-177.8
 20
-129.2438
 30
0.0
  0
VERTEX
  8
0
 10
-177.8
 20
-129.1938
 30
0.0
  0
VERTEX
  8
0
 10
-177.8
 20
-129.1438
 30
0.0
  0
VERTEX
  8
0
 10
-177.8
 20
-129.0938
 30
0.0
  0
VERTEX
  8
0
 10
-177.8
 20
-129.0438
 30
0.0
  0
VERTEX
  8
0
 10
-177.8
 20
-128.9938
 30
0.0
  0
VERTEX
  8
0
 10
-177.8
 20
-128.9438
 30
0.0
  0
VERTEX
  8
0
 10
-177.8
 20
-128.8938
 30
0.0
  0
VERTEX
  8
0
 10
-177.8
 20
-128.8438
 30
0.0
  0
VERTEX
  8
0
 10
-177.8
 20
-128.7938
 30
0.0
  0
VERTEX
  8
0
 10
-177.8
 20
-128.7438
 30
0.0
  0
VERTEX
  8
0
 10
-177.8
 20
-128.6938
 30
0.0
  0
VERTEX
  8
0
 10
-177.8
 20
-128.6438
 30
0.0
  0
VERTEX
  8
0
 10
-177.8
 20
-128.5938
 30
0.0
  0
VERTEX
  8
0
 10
-177.8
 20
-128.5438
 30
0.0
  0
VERTEX
  8
0
 10
-177.8
 20
-128.4938
 30
0.0
  0
VERTEX
  8
0
 10
-177.8
 20
-128.4438
 30
0.0
  0
VERTEX
  8
0
 10
-177.8
 20
-128.3938
 30
0.0
  0
VERTEX
  8
0
 10
-177.8
 20
-128.3438
 30
0.0
  0
VERTEX
  8
0
 10
-177.8
 20
-128.2938
 30
0.0
  0
VERTEX
  8
0
 10
-177.8
 20
-128.2438
 30
0.0
  0
VERTEX
  8
0
 10
-177.8
 20
-128.1938
 30
0.0
  0
VERTEX
  8
0
 10
-177.8
 20
-128.1438
 30
0.0
  0
VERTEX
  8
0
 10
-177.8
 20
-128.0938
 30
0.0
  0
VERTEX
  8
0
 10
-177.8
 20
-128.0438
 30
0.0
  0
VERTEX
  8
0
 10
-177.8
 20
-127.9938
 30
0.0
  0
VERTEX
  8
0
 10
-177.8
 20
-127.9438
 30
0.0
  0
VERTEX
  8
0
 10
-177.8
 20
-127.8938
 30
0.0
  0
VERTEX
  8
0
 10
-177.8
 20
-127.8438
 30
0.0
  0
VERTEX
  8
0
 10
-177.8
 20
-127.7938
 30
0.0
  0
VERTEX
  8
0
 10
-177.8
 20
-127.7438
 30
0.0
  0
VERTEX
  8
0
 10
-177.8
 20
-127.6938
 30
0.0
  0
VERTEX
  8
0
 10
-177.8
 20
-127.6438
 30
0.0
  0
VERTEX
  8
0
 10
-177.8
 20
-127.5938
 30
0.0
  0
VERTEX
  8
0
 10
-177.8
 20
-127.5438
 30
0.0
  0
VERTEX
  8
0
 10
-177.8
 20
-127.4938
 30
0.0
  0
VERTEX
  8
0
 10
-177.8
 20
-127.4438
 30
0.0
  0
VERTEX
  8
0
 10
-177.8
 20
-127.3938
 30
0.0
  0
VERTEX
  8
0
 10
-177.8
 20
-127.3438
 30
0.0
  0
VERTEX
  8
0
 10
-177.8
 20
-127.2938
 30
0.0
  0
VERTEX
  8
0
 10
-177.8
 20
-127.2438
 30
0.0
  0
VERTEX
  8
0
 10
-177.8
 20
-127.1938
 30
0.0
  0
VERTEX
  8
0
 10
-177.8
 20
-127.1438
 30
0.0
  0
VERTEX
  8
0
 10
-177.8
 20
-127.0938
 30
0.0
  0
VERTEX
  8
0
 10
-177.8
 20
-127.0438
 30
0.0
  0
VERTEX
  8
0
 10
-177.8
 20
-126.9938
 30
0.0
  0
VERTEX
  8
0
 10
-177.8
 20
-126.9438
 30
0.0
  0
VERTEX
  8
0
 10
-177.8
 20
-126.8938
 30
0.0
  0
VERTEX
  8
0
 10
-177.8
 20
-126.8438
 30
0.0
  0
VERTEX
  8
0
 10
-177.8
 20
-126.7938
 30
0.0
  0
VERTEX
  8
0
 10
-177.8
 20
-126.7438
 30
0.0
  0
VERTEX
  8
0
 10
-177.8
 20
-126.6938
 30
0.0
  0
VERTEX
  8
0
 10
-177.8
 20
-126.6438
 30
0.0
  0
VERTEX
  8
0
 10
-177.8
 20
-126.5938
 30
0.0
  0
VERTEX
  8
0
 10
-177.8
 20
-126.5438
 30
0.0
  0
VERTEX
  8
0
 10
-177.8
 20
-126.4938
 30
0.0
  0
VERTEX
  8
0
 10
-177.8
 20
-126.4438
 30
0.0
  0
VERTEX
  8
0
 10
-177.8
 20
-126.3938
 30
0.0
  0
VERTEX
  8
0
 10
-177.8
 20
-126.3438
 30
0.0
  0
VERTEX
  8
0
 10
-177.8
 20
-126.2938
 30
0.0
  0
VERTEX
  8
0
 10
-177.8
 20
-126.2438
 30
0.0
  0
VERTEX
  8
0
 10
-177.8
 20
-126.1938
 30
0.0
  0
VERTEX
  8
0
 10
-177.8
 20
-126.1438
 30
0.0
  0
VERTEX
  8
0
 10
-177.8
 20
-126.0938
 30
0.0
  0
VERTEX
  8
0
 10
-177.8
 20
-126.0438
 30
0.0
  0
VERTEX
  8
0
 10
-177.8
 20
-125.9938
 30
0.0
  0
VERTEX
  8
0
 10
-177.8
 20
-125.9438
 30
0.0
  0
VERTEX
  8
0
 10
-177.8
 20
-125.8938
 30
0.0
  0
VERTEX
  8
0
 10
-177.8
 20
-125.8438
 30
0.0
  0
VERTEX
  8
0
 10
-177.8
 20
-125.7938
 30
0.0
  0
VERTEX
  8
0
 10
-177.8
 20
-125.7438
 30
0.0
  0
VERTEX
  8
0
 10
-177.8
 20
-125.6938
 30
0.0
  0
VERTEX
  8
0
 10
-177.8
 20
-125.6438
 30
0.0
  0
VERTEX
  8
0
 10
-177.8
 20
-125.5938
 30
0.0
  0
VERTEX
  8
0
 10
-177.8
 20
-125.5438
 30
0.0
  0
VERTEX
  8
0
 10
-177.8
 20
-125.4938
 30
0.0
  0
VERTEX
  8
0
 10
-177.8
 20
-125.4438
 30
0.0
  0
VERTEX
  8
0
 10
-177.8
 20
-125.3938
 30
0.0
  0
VERTEX
  8
0
 10
-177.8
 20
-125.3438
 30
0.0
  0
VERTEX
  8
0
 10
-177.8
 20
-125.2938
 30
0.0
  0
VERTEX
  8
0
 10
-177.8
 20
-125.2438
 30
0.0
  0
VERTEX
  8
0
 10
-177.8
 20
-125.1938
 30
0.0
  0
VERTEX
  8
0
 10
-177.8
 20
-125.1438
 30
0.0
  0
VERTEX
  8
0
 10
-177.8
 20
-125.0938
 30
0.0
  0
VERTEX
  8
0
 10
-177.8
 20
-125.0438
 30
0.0
  0
VERTEX
  8
0
 10
-177.8
 20
-124.9938
 30
0.0
  0
VERTEX
  8
0
 10
-177.8
 20
-124.9438
 30
0.0
  0
VERTEX
  8
0
 10
-177.8
 20
-124.8938
 30
0.0
  0
VERTEX
  8
0
 10
-177.8
 20
-124.8438
 30
0.0
  0
VERTEX
  8
0
 10
-177.8
 20
-124.7938
 30
0.0
  0
VERTEX
  8
0
 10
-177.8
 20
-124.7438
 30
0.0
  0
VERTEX
  8
0
 10
-177.8
 20
-124.6938
 30
0.0
  0
VERTEX
  8
0
 10
-177.8
 20
-124.6438
 30
0.0
  0
VERTEX
  8
0
 10
-177.8
 20
-124.5938
 30
0.0
  0
VERTEX
  8
0
 10
-177.8
 20
-124.5438
 30
0.0
  0
VERTEX
  8
0
 10
-177.8
 20
-124.4938
 30
0.0
  0
VERTEX
  8
0
 10
-177.8
 20
-124.4438
 30
0.0
  0
VERTEX
  8
0
 10
-177.8
 20
-124.3938
 30
0.0
  0
VERTEX
  8
0
 10
-177.8
 20
-124.3438
 30
0.0
  0
VERTEX
  8
0
 10
-177.8
 20
-124.2938
 30
0.0
  0
VERTEX
  8
0
 10
-177.8
 20
-124.2438
 30
0.0
  0
VERTEX
  8
0
 10
-177.8
 20
-124.1938
 30
0.0
  0
VERTEX
  8
0
 10
-177.8
 20
-124.1438
 30
0.0
  0
VERTEX
  8
0
 10
-177.8
 20
-124.0938
 30
0.0
  0
VERTEX
  8
0
 10
-177.8
 20
-124.0438
 30
0.0
  0
VERTEX
  8
0
 10
-177.8
 20
-123.9938
 30
0.0
  0
VERTEX
  8
0
 10
-177.8
 20
-123.9438
 30
0.0
  0
VERTEX
  8
0
 10
-177.8
 20
-123.8938
 30
0.0
  0
VERTEX
  8
0
 10
-177.8
 20
-123.8438
 30
0.0
  0
VERTEX
  8
0
 10
-177.8
 20
-123.7938
 30
0.0
  0
VERTEX
  8
0
 10
-177.8
 20
-123.7438
 30
0.0
  0
VERTEX
  8
0
 10
-177.8
 20
-123.6938
 30
0.0
  0
VERTEX
  8
0
 10
-177.8
 20
-123.6438
 30
0.0
  0
VERTEX
  8
0
 10
-177.8
 20
-123.5938
 30
0.0
  0
VERTEX
  8
0
 10
-177.8
 20
-123.5438
 30
0.0
  0
VERTEX
  8
0
 10
-177.8
 20
-123.4938
 30
0.0
  0
VERTEX
  8
0
 10
-177.8
 20
-123.4438
 30
0.0
  0
VERTEX
  8
0
 10
-177.8
 20
-123.3938
 30
0.0
  0
VERTEX
  8
0
 10
-177.8
 20
-123.3438
 30
0.0
  0
VERTEX
  8
0
 10
-177.8
 20
-123.2938
 30
0.0
  0
VERTEX
  8
0
 10
-177.8
 20
-123.2438
 30
0.0
  0
VERTEX
  8
0
 10
-177.8
 20
-123.1938
 30
0.0
  0
VERTEX
  8
0
 10
-177.8
 20
-123.1438
 30
0.0
  0
VERTEX
  8
0
 10
-177.8
 20
-123.0938
 30
0.0
  0
VERTEX
  8
0
 10
-177.8
 20
-123.0438
 30
0.0
  0
VERTEX
  8
0
 10
-177.8
 20
-122.9938
 30
0.0
  0
VERTEX
  8
0
 10
-177.8
 20
-122.9438
 30
0.0
  0
VERTEX
  8
0
 10
-177.8
 20
-122.8938
 30
0.0
  0
VERTEX
  8
0
 10
-177.8
 20
-122.8438
 30
0.0
  0
VERTEX
  8
0
 10
-177.8
 20
-122.7938
 30
0.0
  0
VERTEX
  8
0
 10
-177.8
 20
-122.7438
 30
0.0
  0
VERTEX
  8
0
 10
-177.8
 20
-122.6938
 30
0.0
  0
VERTEX
  8
0
 10
-177.8
 20
-122.6438
 30
0.0
  0
VERTEX
  8
0
 10
-177.8
 20
-122.5938
 30
0.0
  0
VERTEX
  8
0
 10
-177.8
 20
-122.5438
 30
0.0
  0
VERTEX
  8
0
 10
-177.8
 20
-122.4938
 30
0.0
  0
VERTEX
  8
0
 10
-177.8
 20
-122.4438
 30
0.0
  0
VERTEX
  8
0
 10
-177.8
 20
-122.3938
 30
0.0
  0
VERTEX
  8
0
 10
-177.8
 20
-122.3438
 30
0.0
  0
VERTEX
  8
0
 10
-177.8
 20
-122.2938
 30
0.0
  0
VERTEX
  8
0
 10
-177.8
 20
-122.2438
 30
0.0
  0
VERTEX
  8
0
 10
-177.8
 20
-122.1938
 30
0.0
  0
VERTEX
  8
0
 10
-177.8
 20
-122.1438
 30
0.0
  0
VERTEX
  8
0
 10
-177.8
 20
-122.0938
 30
0.0
  0
VERTEX
  8
0
 10
-177.8
 20
-122.0438
 30
0.0
  0
VERTEX
  8
0
 10
-177.8
 20
-121.9938
 30
0.0
  0
VERTEX
  8
0
 10
-177.8
 20
-121.9438
 30
0.0
  0
VERTEX
  8
0
 10
-177.8
 20
-121.8938
 30
0.0
  0
VERTEX
  8
0
 10
-177.8
 20
-121.8438
 30
0.0
  0
VERTEX
  8
0
 10
-177.8
 20
-121.7938
 30
0.0
  0
VERTEX
  8
0
 10
-177.8
 20
-121.7438
 30
0.0
  0
VERTEX
  8
0
 10
-177.8
 20
-121.6938
 30
0.0
  0
VERTEX
  8
0
 10
-177.8
 20
-121.6438
 30
0.0
  0
VERTEX
  8
0
 10
-177.8
 20
-121.5938
 30
0.0
  0
VERTEX
  8
0
 10
-177.8
 20
-121.5438
 30
0.0
  0
VERTEX
  8
0
 10
-177.8
 20
-121.4938
 30
0.0
  0
VERTEX
  8
0
 10
-177.8
 20
-121.4438
 30
0.0
  0
VERTEX
  8
0
 10
-177.8
 20
-121.3938
 30
0.0
  0
VERTEX
  8
0
 10
-177.8
 20
-121.3438
 30
0.0
  0
VERTEX
  8
0
 10
-177.8
 20
-121.2938
 30
0.0
  0
VERTEX
  8
0
 10
-177.8
 20
-121.2438
 30
0.0
  0
VERTEX
  8
0
 10
-177.8
 20
-121.1938
 30
0.0
  0
VERTEX
  8
0
 10
-177.8
 20
-121.1438
 30
0.0
  0
VERTEX
  8
0
 10
-177.8
 20
-121.0938
 30
0.0
  0
VERTEX
  8
0
 10
-177.8
 20
-121.0438
 30
0.0
  0
VERTEX
  8
0
 10
-177.8
 20
-120.9938
 30
0.0
  0
VERTEX
  8
0
 10
-177.8
 20
-120.9438
 30
0.0
  0
VERTEX
  8
0
 10
-177.8
 20
-120.8938
 30
0.0
  0
VERTEX
  8
0
 10
-177.8
 20
-120.8438
 30
0.0
  0
VERTEX
  8
0
 10
-177.8
 20
-120.7938
 30
0.0
  0
VERTEX
  8
0
 10
-177.8
 20
-120.7438
 30
0.0
  0
VERTEX
  8
0
 10
-177.8
 20
-120.6938
 30
0.0
  0
VERTEX
  8
0
 10
-177.8
 20
-120.6438
 30
0.0
  0
VERTEX
  8
0
 10
-177.8
 20
-120.5938
 30
0.0
  0
VERTEX
  8
0
 10
-177.8
 20
-120.5438
 30
0.0
  0
VERTEX
  8
0
 10
-177.8
 20
-120.4938
 30
0.0
  0
VERTEX
  8
0
 10
-177.8
 20
-120.4438
 30
0.0
  0
VERTEX
  8
0
 10
-177.8
 20
-120.3938
 30
0.0
  0
VERTEX
  8
0
 10
-177.8
 20
-120.3438
 30
0.0
  0
VERTEX
  8
0
 10
-177.8
 20
-120.2938
 30
0.0
  0
VERTEX
  8
0
 10
-177.8
 20
-120.2438
 30
0.0
  0
VERTEX
  8
0
 10
-177.8
 20
-120.1938
 30
0.0
  0
VERTEX
  8
0
 10
-177.8
 20
-120.1438
 30
0.0
  0
VERTEX
  8
0
 10
-177.8
 20
-120.0938
 30
0.0
  0
VERTEX
  8
0
 10
-177.8
 20
-120.0438
 30
0.0
  0
VERTEX
  8
0
 10
-177.8
 20
-119.9938
 30
0.0
  0
VERTEX
  8
0
 10
-177.8
 20
-119.9438
 30
0.0
  0
VERTEX
  8
0
 10
-177.8
 20
-119.8938
 30
0.0
  0
VERTEX
  8
0
 10
-177.8
 20
-119.8438
 30
0.0
  0
VERTEX
  8
0
 10
-177.8
 20
-119.7938
 30
0.0
  0
VERTEX
  8
0
 10
-177.8
 20
-119.7438
 30
0.0
  0
VERTEX
  8
0
 10
-177.8
 20
-119.6938
 30
0.0
  0
VERTEX
  8
0
 10
-177.8
 20
-119.6438
 30
0.0
  0
VERTEX
  8
0
 10
-177.8
 20
-119.5938
 30
0.0
  0
VERTEX
  8
0
 10
-177.8
 20
-119.5438
 30
0.0
  0
VERTEX
  8
0
 10
-177.8
 20
-119.4938
 30
0.0
  0
VERTEX
  8
0
 10
-177.8
 20
-119.4438
 30
0.0
  0
VERTEX
  8
0
 10
-177.8
 20
-119.3938
 30
0.0
  0
VERTEX
  8
0
 10
-177.8
 20
-119.3438
 30
0.0
  0
VERTEX
  8
0
 10
-177.8
 20
-119.2938
 30
0.0
  0
VERTEX
  8
0
 10
-177.8
 20
-119.2438
 30
0.0
  0
VERTEX
  8
0
 10
-177.8
 20
-119.1938
 30
0.0
  0
VERTEX
  8
0
 10
-177.8
 20
-119.1438
 30
0.0
  0
VERTEX
  8
0
 10
-177.8
 20
-119.0938
 30
0.0
  0
VERTEX
  8
0
 10
-177.8
 20
-119.0438
 30
0.0
  0
VERTEX
  8
0
 10
-177.8
 20
-118.9938
 30
0.0
  0
VERTEX
  8
0
 10
-177.8
 20
-118.9438
 30
0.0
  0
VERTEX
  8
0
 10
-177.8
 20
-118.8938
 30
0.0
  0
VERTEX
  8
0
 10
-177.8
 20
-118.8438
 30
0.0
  0
VERTEX
  8
0
 10
-177.8
 20
-118.7938
 30
0.0
  0
VERTEX
  8
0
 10
-177.8
 20
-118.7438
 30
0.0
  0
VERTEX
  8
0
 10
-177.8
 20
-118.6938
 30
0.0
  0
VERTEX
  8
0
 10
-177.8
 20
-118.6438
 30
0.0
  0
VERTEX
  8
0
 10
-177.8
 20
-118.5938
 30
0.0
  0
VERTEX
  8
0
 10
-177.8
 20
-118.5438
 30
0.0
  0
VERTEX
  8
0
 10
-177.8
 20
-118.4938
 30
0.0
  0
VERTEX
  8
0
 10
-177.8
 20
-118.4438
 30
0.0
  0
VERTEX
  8
0
 10
-177.8
 20
-118.3938
 30
0.0
  0
VERTEX
  8
0
 10
-177.8
 20
-118.3438
 30
0.0
  0
VERTEX
  8
0
 10
-177.8
 20
-118.2938
 30
0.0
  0
VERTEX
  8
0
 10
-177.8
 20
-118.2438
 30
0.0
  0
VERTEX
  8
0
 10
-177.8
 20
-118.1938
 30
0.0
  0
VERTEX
  8
0
 10
-177.8
 20
-118.1438
 30
0.0
  0
VERTEX
  8
0
 10
-177.8
 20
-118.0938
 30
0.0
  0
VERTEX
  8
0
 10
-177.8
 20
-118.0438
 30
0.0
  0
VERTEX
  8
0
 10
-177.8
 20
-117.9938
 30
0.0
  0
VERTEX
  8
0
 10
-177.8
 20
-117.9438
 30
0.0
  0
VERTEX
  8
0
 10
-177.8
 20
-117.8938
 30
0.0
  0
VERTEX
  8
0
 10
-177.8
 20
-117.8438
 30
0.0
  0
VERTEX
  8
0
 10
-177.8
 20
-117.7938
 30
0.0
  0
VERTEX
  8
0
 10
-177.8
 20
-117.7438
 30
0.0
  0
VERTEX
  8
0
 10
-177.8
 20
-117.6938
 30
0.0
  0
VERTEX
  8
0
 10
-177.8
 20
-117.6438
 30
0.0
  0
VERTEX
  8
0
 10
-177.8
 20
-117.5938
 30
0.0
  0
VERTEX
  8
0
 10
-177.8
 20
-117.5438
 30
0.0
  0
VERTEX
  8
0
 10
-177.8
 20
-117.4938
 30
0.0
  0
VERTEX
  8
0
 10
-177.8
 20
-117.4438
 30
0.0
  0
VERTEX
  8
0
 10
-177.8
 20
-117.3938
 30
0.0
  0
VERTEX
  8
0
 10
-177.8
 20
-117.3438
 30
0.0
  0
VERTEX
  8
0
 10
-177.8
 20
-117.2938
 30
0.0
  0
VERTEX
  8
0
 10
-177.8
 20
-117.2438
 30
0.0
  0
VERTEX
  8
0
 10
-177.8
 20
-117.1938
 30
0.0
  0
VERTEX
  8
0
 10
-177.8
 20
-117.1438
 30
0.0
  0
VERTEX
  8
0
 10
-177.8
 20
-117.0938
 30
0.0
  0
VERTEX
  8
0
 10
-177.8
 20
-117.0438
 30
0.0
  0
VERTEX
  8
0
 10
-177.8
 20
-116.9938
 30
0.0
  0
VERTEX
  8
0
 10
-177.8
 20
-116.9438
 30
0.0
  0
VERTEX
  8
0
 10
-177.8
 20
-116.8938
 30
0.0
  0
VERTEX
  8
0
 10
-177.8
 20
-116.8438
 30
0.0
  0
VERTEX
  8
0
 10
-177.8
 20
-116.7938
 30
0.0
  0
VERTEX
  8
0
 10
-177.8
 20
-116.7438
 30
0.0
  0
VERTEX
  8
0
 10
-177.8
 20
-116.6938
 30
0.0
  0
VERTEX
  8
0
 10
-177.8
 20
-116.6438
 30
0.0
  0
VERTEX
  8
0
 10
-177.8
 20
-116.5938
 30
0.0
  0
VERTEX
  8
0
 10
-177.8
 20
-116.5438
 30
0.0
  0
VERTEX
  8
0
 10
-177.8
 20
-116.4938
 30
0.0
  0
VERTEX
  8
0
 10
-177.8
 20
-116.4438
 30
0.0
  0
VERTEX
  8
0
 10
-177.8
 20
-116.3938
 30
0.0
  0
VERTEX
  8
0
 10
-177.8
 20
-116.3438
 30
0.0
  0
VERTEX
  8
0
 10
-177.8
 20
-116.2938
 30
0.0
  0
VERTEX
  8
0
 10
-177.8
 20
-116.2438
 30
0.0
  0
VERTEX
  8
0
 10
-177.8
 20
-116.1938
 30
0.0
  0
VERTEX
  8
0
 10
-177.8
 20
-116.1438
 30
0.0
  0
VERTEX
  8
0
 10
-177.8
 20
-116.0938
 30
0.0
  0
VERTEX
  8
0
 10
-177.8
 20
-116.0438
 30
0.0
  0
VERTEX
  8
0
 10
-177.8
 20
-115.9938
 30
0.0
  0
VERTEX
  8
0
 10
-177.8
 20
-115.9438
 30
0.0
  0
VERTEX
  8
0
 10
-177.8
 20
-115.8938
 30
0.0
  0
VERTEX
  8
0
 10
-177.8
 20
-115.8438
 30
0.0
  0
VERTEX
  8
0
 10
-177.8
 20
-115.7938
 30
0.0
  0
VERTEX
  8
0
 10
-177.8
 20
-115.7438
 30
0.0
  0
VERTEX
  8
0
 10
-177.8
 20
-115.6938
 30
0.0
  0
VERTEX
  8
0
 10
-177.8
 20
-115.6438
 30
0.0
  0
VERTEX
  8
0
 10
-177.8
 20
-115.5938
 30
0.0
  0
VERTEX
  8
0
 10
-177.8
 20
-115.5438
 30
0.0
  0
VERTEX
  8
0
 10
-177.8
 20
-115.4938
 30
0.0
  0
VERTEX
  8
0
 10
-177.8
 20
-115.4438
 30
0.0
  0
VERTEX
  8
0
 10
-177.8
 20
-115.3938
 30
0.0
  0
VERTEX
  8
0
 10
-177.8
 20
-115.3438
 30
0.0
  0
VERTEX
  8
0
 10
-177.8
 20
-115.2938
 30
0.0
  0
VERTEX
  8
0
 10
-177.8
 20
-115.2438
 30
0.0
  0
VERTEX
  8
0
 10
-177.8
 20
-115.1938
 30
0.0
  0
VERTEX
  8
0
 10
-177.8
 20
-115.1438
 30
0.0
  0
VERTEX
  8
0
 10
-177.8
 20
-115.0938
 30
0.0
  0
VERTEX
  8
0
 10
-177.8
 20
-115.0438
 30
0.0
  0
VERTEX
  8
0
 10
-177.8
 20
-114.9938
 30
0.0
  0
VERTEX
  8
0
 10
-177.8
 20
-114.9438
 30
0.0
  0
VERTEX
  8
0
 10
-177.8
 20
-114.8938
 30
0.0
  0
VERTEX
  8
0
 10
-177.8
 20
-114.8438
 30
0.0
  0
VERTEX
  8
0
 10
-177.8
 20
-114.7938
 30
0.0
  0
VERTEX
  8
0
 10
-177.8
 20
-114.7438
 30
0.0
  0
VERTEX
  8
0
 10
-177.8
 20
-114.6938
 30
0.0
  0
VERTEX
  8
0
 10
-177.8
 20
-114.6438
 30
0.0
  0
VERTEX
  8
0
 10
-177.8
 20
-114.5938
 30
0.0
  0
VERTEX
  8
0
 10
-177.8
 20
-114.5438
 30
0.0
  0
VERTEX
  8
0
 10
-177.8
 20
-114.4938
 30
0.0
  0
VERTEX
  8
0
 10
-177.8
 20
-114.4438
 30
0.0
  0
VERTEX
  8
0
 10
-177.8
 20
-114.3938
 30
0.0
  0
VERTEX
  8
0
 10
-177.8
 20
-114.3438
 30
0.0
  0
VERTEX
  8
0
 10
-177.8
 20
-114.2938
 30
0.0
  0
VERTEX
  8
0
 10
-177.8
 20
-114.2438
 30
0.0
  0
VERTEX
  8
0
 10
-177.8
 20
-114.1938
 30
0.0
  0
VERTEX
  8
0
 10
-177.8
 20
-114.1438
 30
0.0
  0
VERTEX
  8
0
 10
-177.8
 20
-114.0938
 30
0.0
  0
VERTEX
  8
0
 10
-177.8
 20
-114.0438
 30
0.0
  0
VERTEX
  8
0
 10
-177.8
 20
-113.9938
 30
0.0
  0
VERTEX
  8
0
 10
-177.8
 20
-113.9438
 30
0.0
  0
VERTEX
  8
0
 10
-177.8
 20
-113.8938
 30
0.0
  0
VERTEX
  8
0
 10
-177.8
 20
-113.8438
 30
0.0
  0
VERTEX
  8
0
 10
-177.8
 20
-113.7938
 30
0.0
  0
VERTEX
  8
0
 10
-177.8
 20
-113.7438
 30
0.0
  0
VERTEX
  8
0
 10
-177.8
 20
-113.6938
 30
0.0
  0
VERTEX
  8
0
 10
-177.8
 20
-113.6438
 30
0.0
  0
VERTEX
  8
0
 10
-177.8
 20
-113.5938
 30
0.0
  0
VERTEX
  8
0
 10
-177.8
 20
-113.5438
 30
0.0
  0
VERTEX
  8
0
 10
-177.8
 20
-113.4938
 30
0.0
  0
VERTEX
  8
0
 10
-177.8
 20
-113.4438
 30
0.0
  0
VERTEX
  8
0
 10
-177.8
 20
-113.3938
 30
0.0
  0
VERTEX
  8
0
 10
-177.8
 20
-113.3438
 30
0.0
  0
VERTEX
  8
0
 10
-177.8
 20
-113.2938
 30
0.0
  0
VERTEX
  8
0
 10
-177.8
 20
-113.2438
 30
0.0
  0
VERTEX
  8
0
 10
-177.8
 20
-113.1938
 30
0.0
  0
VERTEX
  8
0
 10
-177.8
 20
-113.1438
 30
0.0
  0
VERTEX
  8
0
 10
-177.8
 20
-113.0938
 30
0.0
  0
VERTEX
  8
0
 10
-177.8
 20
-113.0438
 30
0.0
  0
VERTEX
  8
0
 10
-177.8
 20
-112.9938
 30
0.0
  0
VERTEX
  8
0
 10
-177.8
 20
-112.9438
 30
0.0
  0
VERTEX
  8
0
 10
-177.8
 20
-112.8938
 30
0.0
  0
VERTEX
  8
0
 10
-177.8
 20
-112.8438
 30
0.0
  0
VERTEX
  8
0
 10
-177.8
 20
-112.7938
 30
0.0
  0
VERTEX
  8
0
 10
-177.8
 20
-112.7438
 30
0.0
  0
VERTEX
  8
0
 10
-177.8
 20
-112.6938
 30
0.0
  0
VERTEX
  8
0
 10
-177.8
 20
-112.6438
 30
0.0
  0
VERTEX
  8
0
 10
-177.8
 20
-112.5938
 30
0.0
  0
VERTEX
  8
0
 10
-177.8
 20
-112.5438
 30
0.0
  0
VERTEX
  8
0
 10
-177.8
 20
-112.4938
 30
0.0
  0
VERTEX
  8
0
 10
-177.8
 20
-112.4438
 30
0.0
  0
VERTEX
  8
0
 10
-177.8
 20
-112.3938
 30
0.0
  0
VERTEX
  8
0
 10
-177.8
 20
-112.3438
 30
0.0
  0
VERTEX
  8
0
 10
-177.8
 20
-112.2938
 30
0.0
  0
VERTEX
  8
0
 10
-177.8
 20
-112.2438
 30
0.0
  0
VERTEX
  8
0
 10
-177.8
 20
-112.1938
 30
0.0
  0
VERTEX
  8
0
 10
-177.8
 20
-112.1438
 30
0.0
  0
VERTEX
  8
0
 10
-177.8
 20
-112.0938
 30
0.0
  0
VERTEX
  8
0
 10
-177.8
 20
-112.0438
 30
0.0
  0
VERTEX
  8
0
 10
-177.8
 20
-111.9938
 30
0.0
  0
VERTEX
  8
0
 10
-177.8
 20
-111.9438
 30
0.0
  0
VERTEX
  8
0
 10
-177.8
 20
-111.8938
 30
0.0
  0
VERTEX
  8
0
 10
-177.8
 20
-111.8438
 30
0.0
  0
VERTEX
  8
0
 10
-177.8
 20
-111.7938
 30
0.0
  0
VERTEX
  8
0
 10
-177.8
 20
-111.7438
 30
0.0
  0
VERTEX
  8
0
 10
-177.8
 20
-111.6938
 30
0.0
  0
VERTEX
  8
0
 10
-177.8
 20
-111.6438
 30
0.0
  0
VERTEX
  8
0
 10
-177.8
 20
-111.5938
 30
0.0
  0
VERTEX
  8
0
 10
-177.8
 20
-111.5438
 30
0.0
  0
VERTEX
  8
0
 10
-177.8
 20
-111.4938
 30
0.0
  0
VERTEX
  8
0
 10
-177.8
 20
-111.4438
 30
0.0
  0
VERTEX
  8
0
 10
-177.8
 20
-111.3938
 30
0.0
  0
VERTEX
  8
0
 10
-177.8
 20
-111.3438
 30
0.0
  0
VERTEX
  8
0
 10
-177.8
 20
-111.2938
 30
0.0
  0
VERTEX
  8
0
 10
-177.8
 20
-111.2438
 30
0.0
  0
VERTEX
  8
0
 10
-177.8
 20
-111.1938
 30
0.0
  0
VERTEX
  8
0
 10
-177.8
 20
-111.1438
 30
0.0
  0
VERTEX
  8
0
 10
-177.8
 20
-111.0938
 30
0.0
  0
VERTEX
  8
0
 10
-177.8
 20
-111.0438
 30
0.0
  0
VERTEX
  8
0
 10
-177.8
 20
-110.9938
 30
0.0
  0
VERTEX
  8
0
 10
-177.8
 20
-110.9438
 30
0.0
  0
VERTEX
  8
0
 10
-177.8
 20
-110.8938
 30
0.0
  0
VERTEX
  8
0
 10
-177.8
 20
-110.8438
 30
0.0
  0
VERTEX
  8
0
 10
-177.8
 20
-110.7938
 30
0.0
  0
VERTEX
  8
0
 10
-177.8
 20
-110.7438
 30
0.0
  0
VERTEX
  8
0
 10
-177.8
 20
-110.6938
 30
0.0
  0
VERTEX
  8
0
 10
-177.8
 20
-110.6438
 30
0.0
  0
VERTEX
  8
0
 10
-177.8
 20
-110.5938
 30
0.0
  0
VERTEX
  8
0
 10
-177.8
 20
-110.5438
 30
0.0
  0
VERTEX
  8
0
 10
-177.8
 20
-110.4938
 30
0.0
  0
VERTEX
  8
0
 10
-177.8
 20
-110.4438
 30
0.0
  0
VERTEX
  8
0
 10
-177.8
 20
-110.3938
 30
0.0
  0
VERTEX
  8
0
 10
-177.8
 20
-110.3438
 30
0.0
  0
VERTEX
  8
0
 10
-177.8
 20
-110.2938
 30
0.0
  0
VERTEX
  8
0
 10
-177.8
 20
-110.2438
 30
0.0
  0
VERTEX
  8
0
 10
-177.8
 20
-110.1938
 30
0.0
  0
VERTEX
  8
0
 10
-177.8
 20
-110.1438
 30
0.0
  0
VERTEX
  8
0
 10
-177.8
 20
-110.0938
 30
0.0
  0
VERTEX
  8
0
 10
-177.8
 20
-110.0438
 30
0.0
  0
VERTEX
  8
0
 10
-177.8
 20
-109.9938
 30
0.0
  0
VERTEX
  8
0
 10
-177.8
 20
-109.9438
 30
0.0
  0
VERTEX
  8
0
 10
-177.8
 20
-109.8938
 30
0.0
  0
VERTEX
  8
0
 10
-177.8
 20
-109.8438
 30
0.0
  0
VERTEX
  8
0
 10
-177.8
 20
-109.7938
 30
0.0
  0
VERTEX
  8
0
 10
-177.8
 20
-109.7438
 30
0.0
  0
VERTEX
  8
0
 10
-177.8
 20
-109.6938
 30
0.0
  0
VERTEX
  8
0
 10
-177.8
 20
-109.6438
 30
0.0
  0
VERTEX
  8
0
 10
-177.8
 20
-109.5938
 30
0.0
  0
VERTEX
  8
0
 10
-177.8
 20
-109.5438
 30
0.0
  0
VERTEX
  8
0
 10
-177.8
 20
-109.4938
 30
0.0
  0
VERTEX
  8
0
 10
-177.8
 20
-109.4438
 30
0.0
  0
VERTEX
  8
0
 10
-177.8
 20
-109.3938
 30
0.0
  0
VERTEX
  8
0
 10
-177.8
 20
-109.3438
 30
0.0
  0
VERTEX
  8
0
 10
-177.8
 20
-109.2938
 30
0.0
  0
VERTEX
  8
0
 10
-177.8
 20
-109.2438
 30
0.0
  0
VERTEX
  8
0
 10
-177.8
 20
-109.1938
 30
0.0
  0
VERTEX
  8
0
 10
-177.8
 20
-109.1438
 30
0.0
  0
VERTEX
  8
0
 10
-177.8
 20
-109.0938
 30
0.0
  0
VERTEX
  8
0
 10
-177.8
 20
-109.0438
 30
0.0
  0
VERTEX
  8
0
 10
-177.8
 20
-108.9938
 30
0.0
  0
VERTEX
  8
0
 10
-177.8
 20
-108.9438
 30
0.0
  0
VERTEX
  8
0
 10
-177.8
 20
-108.8938
 30
0.0
  0
VERTEX
  8
0
 10
-177.8
 20
-108.8438
 30
0.0
  0
VERTEX
  8
0
 10
-177.8
 20
-108.7938
 30
0.0
  0
VERTEX
  8
0
 10
-177.8
 20
-108.7438
 30
0.0
  0
VERTEX
  8
0
 10
-177.8
 20
-108.6938
 30
0.0
  0
VERTEX
  8
0
 10
-177.8
 20
-108.6438
 30
0.0
  0
VERTEX
  8
0
 10
-177.8
 20
-108.5938
 30
0.0
  0
VERTEX
  8
0
 10
-177.8
 20
-108.5438
 30
0.0
  0
VERTEX
  8
0
 10
-177.8
 20
-108.4938
 30
0.0
  0
VERTEX
  8
0
 10
-177.8
 20
-108.4438
 30
0.0
  0
VERTEX
  8
0
 10
-177.8
 20
-108.3938
 30
0.0
  0
VERTEX
  8
0
 10
-177.8
 20
-108.3438
 30
0.0
  0
VERTEX
  8
0
 10
-177.8
 20
-108.2938
 30
0.0
  0
VERTEX
  8
0
 10
-177.8
 20
-108.2438
 30
0.0
  0
VERTEX
  8
0
 10
-177.8
 20
-108.1938
 30
0.0
  0
VERTEX
  8
0
 10
-177.8
 20
-108.1438
 30
0.0
  0
VERTEX
  8
0
 10
-177.8
 20
-108.0938
 30
0.0
  0
VERTEX
  8
0
 10
-177.8
 20
-108.0438
 30
0.0
  0
VERTEX
  8
0
 10
-177.8
 20
-107.9938
 30
0.0
  0
VERTEX
  8
0
 10
-177.8
 20
-107.9438
 30
0.0
  0
VERTEX
  8
0
 10
-177.8
 20
-107.8938
 30
0.0
  0
VERTEX
  8
0
 10
-177.8
 20
-107.8438
 30
0.0
  0
VERTEX
  8
0
 10
-177.8
 20
-107.7938
 30
0.0
  0
VERTEX
  8
0
 10
-177.8
 20
-107.7438
 30
0.0
  0
VERTEX
  8
0
 10
-177.8
 20
-107.6938
 30
0.0
  0
VERTEX
  8
0
 10
-177.8
 20
-107.6438
 30
0.0
  0
VERTEX
  8
0
 10
-177.8
 20
-107.5938
 30
0.0
  0
VERTEX
  8
0
 10
-177.8
 20
-107.5438
 30
0.0
  0
VERTEX
  8
0
 10
-177.8
 20
-107.4938
 30
0.0
  0
VERTEX
  8
0
 10
-177.8
 20
-107.4438
 30
0.0
  0
VERTEX
  8
0
 10
-177.8
 20
-107.3938
 30
0.0
  0
VERTEX
  8
0
 10
-177.8
 20
-107.3438
 30
0.0
  0
VERTEX
  8
0
 10
-177.8
 20
-107.2938
 30
0.0
  0
VERTEX
  8
0
 10
-177.8
 20
-107.2438
 30
0.0
  0
VERTEX
  8
0
 10
-177.8
 20
-107.1938
 30
0.0
  0
VERTEX
  8
0
 10
-177.8
 20
-107.1438
 30
0.0
  0
VERTEX
  8
0
 10
-177.8
 20
-107.0938
 30
0.0
  0
VERTEX
  8
0
 10
-177.8
 20
-107.0438
 30
0.0
  0
VERTEX
  8
0
 10
-177.8
 20
-106.9938
 30
0.0
  0
VERTEX
  8
0
 10
-177.8
 20
-106.9438
 30
0.0
  0
VERTEX
  8
0
 10
-177.8
 20
-106.8938
 30
0.0
  0
VERTEX
  8
0
 10
-177.8
 20
-106.8438
 30
0.0
  0
VERTEX
  8
0
 10
-177.8
 20
-106.7938
 30
0.0
  0
VERTEX
  8
0
 10
-177.8
 20
-106.7438
 30
0.0
  0
VERTEX
  8
0
 10
-177.8
 20
-106.6938
 30
0.0
  0
VERTEX
  8
0
 10
-177.8
 20
-106.6438
 30
0.0
  0
VERTEX
  8
0
 10
-177.8
 20
-106.5938
 30
0.0
  0
VERTEX
  8
0
 10
-177.8
 20
-106.5438
 30
0.0
  0
VERTEX
  8
0
 10
-177.8
 20
-106.4938
 30
0.0
  0
VERTEX
  8
0
 10
-177.8
 20
-106.4438
 30
0.0
  0
VERTEX
  8
0
 10
-177.8
 20
-106.3938
 30
0.0
  0
VERTEX
  8
0
 10
-177.8
 20
-106.3438
 30
0.0
  0
VERTEX
  8
0
 10
-177.8
 20
-106.2938
 30
0.0
  0
VERTEX
  8
0
 10
-177.8
 20
-106.2438
 30
0.0
  0
VERTEX
  8
0
 10
-177.8
 20
-106.1938
 30
0.0
  0
VERTEX
  8
0
 10
-177.8
 20
-106.1438
 30
0.0
  0
VERTEX
  8
0
 10
-177.8
 20
-106.0938
 30
0.0
  0
VERTEX
  8
0
 10
-177.8
 20
-106.0438
 30
0.0
  0
VERTEX
  8
0
 10
-177.8
 20
-105.9938
 30
0.0
  0
VERTEX
  8
0
 10
-177.8
 20
-105.9438
 30
0.0
  0
VERTEX
  8
0
 10
-177.8
 20
-105.8938
 30
0.0
  0
VERTEX
  8
0
 10
-177.8
 20
-105.8438
 30
0.0
  0
VERTEX
  8
0
 10
-177.8
 20
-105.7938
 30
0.0
  0
VERTEX
  8
0
 10
-177.8
 20
-105.7438
 30
0.0
  0
VERTEX
  8
0
 10
-177.8
 20
-105.6938
 30
0.0
  0
VERTEX
  8
0
 10
-177.8
 20
-105.6438
 30
0.0
  0
VERTEX
  8
0
 10
-177.8
 20
-105.5938
 30
0.0
  0
VERTEX
  8
0
 10
-177.8
 20
-105.5438
 30
0.0
  0
VERTEX
  8
0
 10
-177.8
 20
-105.4938
 30
0.0
  0
VERTEX
  8
0
 10
-177.8
 20
-105.4438
 30
0.0
  0
VERTEX
  8
0
 10
-177.8
 20
-105.3938
 30
0.0
  0
VERTEX
  8
0
 10
-177.8
 20
-105.3438
 30
0.0
  0
VERTEX
  8
0
 10
-177.8
 20
-105.2938
 30
0.0
  0
VERTEX
  8
0
 10
-177.8
 20
-105.2438
 30
0.0
  0
VERTEX
  8
0
 10
-177.8
 20
-105.1938
 30
0.0
  0
VERTEX
  8
0
 10
-177.8
 20
-105.1438
 30
0.0
  0
VERTEX
  8
0
 10
-177.8
 20
-105.0938
 30
0.0
  0
VERTEX
  8
0
 10
-177.8
 20
-105.0438
 30
0.0
  0
VERTEX
  8
0
 10
-177.8
 20
-104.9938
 30
0.0
  0
VERTEX
  8
0
 10
-177.8
 20
-104.9438
 30
0.0
  0
VERTEX
  8
0
 10
-177.8
 20
-104.8938
 30
0.0
  0
VERTEX
  8
0
 10
-177.8
 20
-104.8438
 30
0.0
  0
VERTEX
  8
0
 10
-177.8
 20
-104.7938
 30
0.0
  0
VERTEX
  8
0
 10
-177.8
 20
-104.7438
 30
0.0
  0
VERTEX
  8
0
 10
-177.8
 20
-104.6938
 30
0.0
  0
VERTEX
  8
0
 10
-177.8
 20
-104.6438
 30
0.0
  0
VERTEX
  8
0
 10
-177.8
 20
-104.5938
 30
0.0
  0
VERTEX
  8
0
 10
-177.8
 20
-104.5438
 30
0.0
  0
VERTEX
  8
0
 10
-177.8
 20
-104.4938
 30
0.0
  0
VERTEX
  8
0
 10
-177.8
 20
-104.4438
 30
0.0
  0
VERTEX
  8
0
 10
-177.8
 20
-104.3938
 30
0.0
  0
VERTEX
  8
0
 10
-177.8
 20
-104.3438
 30
0.0
  0
VERTEX
  8
0
 10
-177.8
 20
-104.2938
 30
0.0
  0
VERTEX
  8
0
 10
-177.8
 20
-104.2438
 30
0.0
  0
VERTEX
  8
0
 10
-177.8
 20
-104.1938
 30
0.0
  0
VERTEX
  8
0
 10
-177.8
 20
-104.1438
 30
0.0
  0
VERTEX
  8
0
 10
-177.8
 20
-104.0938
 30
0.0
  0
VERTEX
  8
0
 10
-177.8
 20
-104.0438
 30
0.0
  0
VERTEX
  8
0
 10
-177.8
 20
-103.9938
 30
0.0
  0
VERTEX
  8
0
 10
-177.8
 20
-103.9438
 30
0.0
  0
VERTEX
  8
0
 10
-177.8
 20
-103.8938
 30
0.0
  0
VERTEX
  8
0
 10
-177.8
 20
-103.8438
 30
0.0
  0
VERTEX
  8
0
 10
-177.8
 20
-103.7938
 30
0.0
  0
VERTEX
  8
0
 10
-177.8
 20
-103.7438
 30
0.0
  0
VERTEX
  8
0
 10
-177.8
 20
-103.6938
 30
0.0
  0
VERTEX
  8
0
 10
-177.8
 20
-103.6438
 30
0.0
  0
VERTEX
  8
0
 10
-177.8
 20
-103.5938
 30
0.0
  0
VERTEX
  8
0
 10
-177.8
 20
-103.5438
 30
0.0
  0
VERTEX
  8
0
 10
-177.8
 20
-103.4938
 30
0.0
  0
VERTEX
  8
0
 10
-177.8
 20
-103.4438
 30
0.0
  0
VERTEX
  8
0
 10
-177.8
 20
-103.3938
 30
0.0
  0
VERTEX
  8
0
 10
-177.8
 20
-103.3438
 30
0.0
  0
VERTEX
  8
0
 10
-177.8
 20
-103.2938
 30
0.0
  0
VERTEX
  8
0
 10
-177.8
 20
-103.2438
 30
0.0
  0
VERTEX
  8
0
 10
-177.8
 20
-103.1938
 30
0.0
  0
VERTEX
  8
0
 10
-177.8
 20
-103.1438
 30
0.0
  0
VERTEX
  8
0
 10
-177.8
 20
-103.0938
 30
0.0
  0
VERTEX
  8
0
 10
-177.8
 20
-103.0438
 30
0.0
  0
VERTEX
  8
0
 10
-177.8
 20
-102.9938
 30
0.0
  0
VERTEX
  8
0
 10
-177.8
 20
-102.9438
 30
0.0
  0
VERTEX
  8
0
 10
-177.8
 20
-102.8938
 30
0.0
  0
VERTEX
  8
0
 10
-177.8
 20
-102.8438
 30
0.0
  0
VERTEX
  8
0
 10
-177.8
 20
-102.7938
 30
0.0
  0
VERTEX
  8
0
 10
-177.8
 20
-102.7438
 30
0.0
  0
VERTEX
  8
0
 10
-177.8
 20
-102.6938
 30
0.0
  0
VERTEX
  8
0
 10
-177.8
 20
-102.6438
 30
0.0
  0
VERTEX
  8
0
 10
-177.8
 20
-102.5938
 30
0.0
  0
VERTEX
  8
0
 10
-177.8
 20
-102.5438
 30
0.0
  0
VERTEX
  8
0
 10
-177.8
 20
-102.4938
 30
0.0
  0
VERTEX
  8
0
 10
-177.8
 20
-102.4438
 30
0.0
  0
VERTEX
  8
0
 10
-177.8
 20
-102.3938
 30
0.0
  0
VERTEX
  8
0
 10
-177.8
 20
-102.3438
 30
0.0
  0
VERTEX
  8
0
 10
-177.8
 20
-102.2938
 30
0.0
  0
VERTEX
  8
0
 10
-177.8
 20
-102.2438
 30
0.0
  0
VERTEX
  8
0
 10
-177.8
 20
-102.1938
 30
0.0
  0
VERTEX
  8
0
 10
-177.8
 20
-102.1438
 30
0.0
  0
VERTEX
  8
0
 10
-177.8
 20
-102.0938
 30
0.0
  0
VERTEX
  8
0
 10
-177.8
 20
-102.0438
 30
0.0
  0
VERTEX
  8
0
 10
-177.8
 20
-101.9938
 30
0.0
  0
VERTEX
  8
0
 10
-177.8
 20
-101.9438
 30
0.0
  0
VERTEX
  8
0
 10
-177.8
 20
-101.8938
 30
0.0
  0
VERTEX
  8
0
 10
-177.8
 20
-101.8438
 30
0.0
  0
VERTEX
  8
0
 10
-177.8
 20
-101.7938
 30
0.0
  0
VERTEX
  8
0
 10
-177.8
 20
-101.7438
 30
0.0
  0
VERTEX
  8
0
 10
-177.8
 20
-101.6938
 30
0.0
  0
VERTEX
  8
0
 10
-177.8
 20
-101.6438
 30
0.0
  0
VERTEX
  8
0
 10
-177.8
 20
-101.5938
 30
0.0
  0
VERTEX
  8
0
 10
-177.8
 20
-101.5438
 30
0.0
  0
VERTEX
  8
0
 10
-177.8
 20
-101.4938
 30
0.0
  0
VERTEX
  8
0
 10
-177.8
 20
-101.4438
 30
0.0
  0
VERTEX
  8
0
 10
-177.8
 20
-101.3938
 30
0.0
  0
VERTEX
  8
0
 10
-177.8
 20
-101.3438
 30
0.0
  0
VERTEX
  8
0
 10
-177.8
 20
-101.2938
 30
0.0
  0
VERTEX
  8
0
 10
-177.8
 20
-101.2438
 30
0.0
  0
VERTEX
  8
0
 10
-177.8
 20
-101.1938
 30
0.0
  0
VERTEX
  8
0
 10
-177.8
 20
-101.1438
 30
0.0
  0
VERTEX
  8
0
 10
-177.8
 20
-101.0938
 30
0.0
  0
VERTEX
  8
0
 10
-177.8
 20
-101.0438
 30
0.0
  0
VERTEX
  8
0
 10
-177.8
 20
-100.9938
 30
0.0
  0
VERTEX
  8
0
 10
-177.8
 20
-100.9438
 30
0.0
  0
VERTEX
  8
0
 10
-177.8
 20
-100.8938
 30
0.0
  0
VERTEX
  8
0
 10
-177.8
 20
-100.8438
 30
0.0
  0
VERTEX
  8
0
 10
-177.8
 20
-100.7938
 30
0.0
  0
VERTEX
  8
0
 10
-177.8
 20
-100.7438
 30
0.0
  0
VERTEX
  8
0
 10
-177.8
 20
-100.6938
 30
0.0
  0
VERTEX
  8
0
 10
-177.8
 20
-100.6438
 30
0.0
  0
VERTEX
  8
0
 10
-177.8
 20
-100.5938
 30
0.0
  0
VERTEX
  8
0
 10
-177.8
 20
-100.5438
 30
0.0
  0
VERTEX
  8
0
 10
-177.8
 20
-100.4938
 30
0.0
  0
VERTEX
  8
0
 10
-177.8
 20
-100.4438
 30
0.0
  0
VERTEX
  8
0
 10
-177.8
 20
-100.3938
 30
0.0
  0
VERTEX
  8
0
 10
-177.8
 20
-100.3438
 30
0.0
  0
VERTEX
  8
0
 10
-177.8
 20
-100.2938
 30
0.0
  0
VERTEX
  8
0
 10
-177.8
 20
-100.2438
 30
0.0
  0
VERTEX
  8
0
 10
-177.8
 20
-100.1938
 30
0.0
  0
VERTEX
  8
0
 10
-177.8
 20
-100.1438
 30
0.0
  0
VERTEX
  8
0
 10
-177.8
 20
-100.0938
 30
0.0
  0
VERTEX
  8
0
 10
-177.8
 20
-100.0438
 30
0.0
  0
VERTEX
  8
0
 10
-177.8
 20
-99.9938
 30
0.0
  0
VERTEX
  8
0
 10
-177.8
 20
-99.9438
 30
0.0
  0
VERTEX
  8
0
 10
-177.8
 20
-99.8938
 30
0.0
  0
VERTEX
  8
0
 10
-177.8
 20
-99.8438
 30
0.0
  0
VERTEX
  8
0
 10
-177.8
 20
-99.7938
 30
0.0
  0
VERTEX
  8
0
 10
-177.8
 20
-99.7438
 30
0.0
  0
VERTEX
  8
0
 10
-177.8
 20
-99.6938
 30
0.0
  0
VERTEX
  8
0
 10
-177.8
 20
-99.6438
 30
0.0
  0
VERTEX
  8
0
 10
-177.8
 20
-99.5938
 30
0.0
  0
VERTEX
  8
0
 10
-177.8
 20
-99.5438
 30
0.0
  0
VERTEX
  8
0
 10
-177.8
 20
-99.4938
 30
0.0
  0
VERTEX
  8
0
 10
-177.8
 20
-99.4438
 30
0.0
  0
VERTEX
  8
0
 10
-177.8
 20
-99.3938
 30
0.0
  0
VERTEX
  8
0
 10
-177.8
 20
-99.3438
 30
0.0
  0
VERTEX
  8
0
 10
-177.8
 20
-99.2938
 30
0.0
  0
VERTEX
  8
0
 10
-177.8
 20
-99.2438
 30
0.0
  0
VERTEX
  8
0
 10
-177.8
 20
-99.1938
 30
0.0
  0
VERTEX
  8
0
 10
-177.8
 20
-99.1438
 30
0.0
  0
VERTEX
  8
0
 10
-177.8
 20
-99.0938
 30
0.0
  0
VERTEX
  8
0
 10
-177.8
 20
-99.0438
 30
0.0
  0
VERTEX
  8
0
 10
-177.8
 20
-98.9938
 30
0.0
  0
VERTEX
  8
0
 10
-177.8
 20
-98.9438
 30
0.0
  0
VERTEX
  8
0
 10
-177.8
 20
-98.8938
 30
0.0
  0
VERTEX
  8
0
 10
-177.8
 20
-98.8438
 30
0.0
  0
VERTEX
  8
0
 10
-177.8
 20
-98.7938
 30
0.0
  0
VERTEX
  8
0
 10
-177.8
 20
-98.7438
 30
0.0
  0
VERTEX
  8
0
 10
-177.8
 20
-98.6938
 30
0.0
  0
VERTEX
  8
0
 10
-177.8
 20
-98.6438
 30
0.0
  0
VERTEX
  8
0
 10
-177.8
 20
-98.5938
 30
0.0
  0
VERTEX
  8
0
 10
-177.8
 20
-98.5438
 30
0.0
  0
VERTEX
  8
0
 10
-177.8
 20
-98.4938
 30
0.0
  0
VERTEX
  8
0
 10
-177.8
 20
-98.4438
 30
0.0
  0
VERTEX
  8
0
 10
-177.8
 20
-98.3938
 30
0.0
  0
VERTEX
  8
0
 10
-177.8
 20
-98.3438
 30
0.0
  0
VERTEX
  8
0
 10
-177.8
 20
-98.2938
 30
0.0
  0
VERTEX
  8
0
 10
-177.8
 20
-98.2438
 30
0.0
  0
VERTEX
  8
0
 10
-177.8
 20
-98.1938
 30
0.0
  0
VERTEX
  8
0
 10
-177.8
 20
-98.1438
 30
0.0
  0
VERTEX
  8
0
 10
-177.8
 20
-98.0938
 30
0.0
  0
VERTEX
  8
0
 10
-177.8
 20
-98.0438
 30
0.0
  0
VERTEX
  8
0
 10
-177.8
 20
-97.9938
 30
0.0
  0
VERTEX
  8
0
 10
-177.8
 20
-97.9438
 30
0.0
  0
VERTEX
  8
0
 10
-177.8
 20
-97.8938
 30
0.0
  0
VERTEX
  8
0
 10
-177.8
 20
-97.8438
 30
0.0
  0
VERTEX
  8
0
 10
-177.8
 20
-97.7938
 30
0.0
  0
VERTEX
  8
0
 10
-177.8
 20
-97.7438
 30
0.0
  0
VERTEX
  8
0
 10
-177.8
 20
-97.6938
 30
0.0
  0
VERTEX
  8
0
 10
-177.8
 20
-97.6438
 30
0.0
  0
VERTEX
  8
0
 10
-177.8
 20
-97.5938
 30
0.0
  0
VERTEX
  8
0
 10
-177.8
 20
-97.5438
 30
0.0
  0
VERTEX
  8
0
 10
-177.8
 20
-97.4938
 30
0.0
  0
VERTEX
  8
0
 10
-177.8
 20
-97.4438
 30
0.0
  0
VERTEX
  8
0
 10
-177.8
 20
-97.3938
 30
0.0
  0
VERTEX
  8
0
 10
-177.8
 20
-97.3438
 30
0.0
  0
VERTEX
  8
0
 10
-177.8
 20
-97.2938
 30
0.0
  0
VERTEX
  8
0
 10
-177.8
 20
-97.2438
 30
0.0
  0
VERTEX
  8
0
 10
-177.8
 20
-97.1938
 30
0.0
  0
VERTEX
  8
0
 10
-177.8
 20
-97.1438
 30
0.0
  0
VERTEX
  8
0
 10
-177.8
 20
-97.0938
 30
0.0
  0
VERTEX
  8
0
 10
-177.8
 20
-97.0438
 30
0.0
  0
VERTEX
  8
0
 10
-177.8
 20
-96.9938
 30
0.0
  0
VERTEX
  8
0
 10
-177.8
 20
-96.9438
 30
0.0
  0
VERTEX
  8
0
 10
-177.8
 20
-96.8938
 30
0.0
  0
VERTEX
  8
0
 10
-177.8
 20
-96.8438
 30
0.0
  0
VERTEX
  8
0
 10
-177.8
 20
-96.7938
 30
0.0
  0
VERTEX
  8
0
 10
-177.8
 20
-96.7438
 30
0.0
  0
VERTEX
  8
0
 10
-177.8
 20
-96.6938
 30
0.0
  0
VERTEX
  8
0
 10
-177.8
 20
-96.6438
 30
0.0
  0
VERTEX
  8
0
 10
-177.8
 20
-96.5938
 30
0.0
  0
VERTEX
  8
0
 10
-177.8
 20
-96.5438
 30
0.0
  0
VERTEX
  8
0
 10
-177.8
 20
-96.4938
 30
0.0
  0
VERTEX
  8
0
 10
-177.8
 20
-96.4438
 30
0.0
  0
VERTEX
  8
0
 10
-177.8
 20
-96.3938
 30
0.0
  0
VERTEX
  8
0
 10
-177.8
 20
-96.3438
 30
0.0
  0
VERTEX
  8
0
 10
-177.8
 20
-96.2938
 30
0.0
  0
VERTEX
  8
0
 10
-177.8
 20
-96.2438
 30
0.0
  0
VERTEX
  8
0
 10
-177.8
 20
-96.1938
 30
0.0
  0
VERTEX
  8
0
 10
-177.8
 20
-96.1438
 30
0.0
  0
VERTEX
  8
0
 10
-177.8
 20
-96.0938
 30
0.0
  0
VERTEX
  8
0
 10
-177.8
 20
-96.0438
 30
0.0
  0
VERTEX
  8
0
 10
-177.8
 20
-95.9938
 30
0.0
  0
VERTEX
  8
0
 10
-177.8
 20
-95.9438
 30
0.0
  0
VERTEX
  8
0
 10
-177.8
 20
-95.8938
 30
0.0
  0
VERTEX
  8
0
 10
-177.8
 20
-95.8438
 30
0.0
  0
VERTEX
  8
0
 10
-177.8
 20
-95.7938
 30
0.0
  0
VERTEX
  8
0
 10
-177.8
 20
-95.7438
 30
0.0
  0
VERTEX
  8
0
 10
-177.8
 20
-95.6938
 30
0.0
  0
VERTEX
  8
0
 10
-177.8
 20
-95.6438
 30
0.0
  0
VERTEX
  8
0
 10
-177.8
 20
-95.5938
 30
0.0
  0
VERTEX
  8
0
 10
-177.8
 20
-95.5438
 30
0.0
  0
VERTEX
  8
0
 10
-177.8
 20
-95.4938
 30
0.0
  0
VERTEX
  8
0
 10
-177.8
 20
-95.4438
 30
0.0
  0
VERTEX
  8
0
 10
-177.8
 20
-95.3938
 30
0.0
  0
VERTEX
  8
0
 10
-177.8
 20
-95.3438
 30
0.0
  0
VERTEX
  8
0
 10
-177.8
 20
-95.2938
 30
0.0
  0
VERTEX
  8
0
 10
-177.8
 20
-95.2438
 30
0.0
  0
VERTEX
  8
0
 10
-177.8
 20
-95.1938
 30
0.0
  0
VERTEX
  8
0
 10
-177.8
 20
-95.1438
 30
0.0
  0
VERTEX
  8
0
 10
-177.8
 20
-95.0938
 30
0.0
  0
VERTEX
  8
0
 10
-177.8
 20
-95.0438
 30
0.0
  0
VERTEX
  8
0
 10
-177.8
 20
-94.9938
 30
0.0
  0
VERTEX
  8
0
 10
-177.8
 20
-94.9438
 30
0.0
  0
VERTEX
  8
0
 10
-177.8
 20
-94.8938
 30
0.0
  0
VERTEX
  8
0
 10
-177.8
 20
-94.8438
 30
0.0
  0
VERTEX
  8
0
 10
-177.8
 20
-94.7938
 30
0.0
  0
VERTEX
  8
0
 10
-177.8
 20
-94.7438
 30
0.0
  0
VERTEX
  8
0
 10
-177.8
 20
-94.6938
 30
0.0
  0
VERTEX
  8
0
 10
-177.8
 20
-94.6438
 30
0.0
  0
VERTEX
  8
0
 10
-177.8
 20
-94.5938
 30
0.0
  0
VERTEX
  8
0
 10
-177.8
 20
-94.5438
 30
0.0
  0
VERTEX
  8
0
 10
-177.8
 20
-94.4938
 30
0.0
  0
VERTEX
  8
0
 10
-177.8
 20
-94.4438
 30
0.0
  0
VERTEX
  8
0
 10
-177.8
 20
-94.3938
 30
0.0
  0
VERTEX
  8
0
 10
-177.8
 20
-94.3438
 30
0.0
  0
VERTEX
  8
0
 10
-177.8
 20
-94.2938
 30
0.0
  0
VERTEX
  8
0
 10
-177.8
 20
-94.2438
 30
0.0
  0
VERTEX
  8
0
 10
-177.8
 20
-94.1938
 30
0.0
  0
VERTEX
  8
0
 10
-177.8
 20
-94.1438
 30
0.0
  0
VERTEX
  8
0
 10
-177.8
 20
-94.0938
 30
0.0
  0
VERTEX
  8
0
 10
-177.8
 20
-94.0438
 30
0.0
  0
VERTEX
  8
0
 10
-177.8
 20
-93.9938
 30
0.0
  0
VERTEX
  8
0
 10
-177.8
 20
-93.9438
 30
0.0
  0
VERTEX
  8
0
 10
-177.8
 20
-93.8938
 30
0.0
  0
VERTEX
  8
0
 10
-177.8
 20
-93.8438
 30
0.0
  0
VERTEX
  8
0
 10
-177.8
 20
-93.7938
 30
0.0
  0
VERTEX
  8
0
 10
-177.8
 20
-93.7438
 30
0.0
  0
VERTEX
  8
0
 10
-177.8
 20
-93.6938
 30
0.0
  0
VERTEX
  8
0
 10
-177.8
 20
-93.6438
 30
0.0
  0
VERTEX
  8
0
 10
-177.8
 20
-93.5938
 30
0.0
  0
VERTEX
  8
0
 10
-177.8
 20
-93.5438
 30
0.0
  0
VERTEX
  8
0
 10
-177.8
 20
-93.4938
 30
0.0
  0
VERTEX
  8
0
 10
-177.8
 20
-93.4438
 30
0.0
  0
VERTEX
  8
0
 10
-177.8
 20
-93.3938
 30
0.0
  0
VERTEX
  8
0
 10
-177.8
 20
-93.3438
 30
0.0
  0
VERTEX
  8
0
 10
-177.8
 20
-93.2938
 30
0.0
  0
VERTEX
  8
0
 10
-177.8
 20
-93.2438
 30
0.0
  0
VERTEX
  8
0
 10
-177.8
 20
-93.1938
 30
0.0
  0
VERTEX
  8
0
 10
-177.8
 20
-93.1438
 30
0.0
  0
VERTEX
  8
0
 10
-177.8
 20
-93.0938
 30
0.0
  0
VERTEX
  8
0
 10
-177.8
 20
-93.0438
 30
0.0
  0
VERTEX
  8
0
 10
-177.8
 20
-92.9938
 30
0.0
  0
VERTEX
  8
0
 10
-177.8
 20
-92.9438
 30
0.0
  0
VERTEX
  8
0
 10
-177.8
 20
-92.8938
 30
0.0
  0
VERTEX
  8
0
 10
-177.8
 20
-92.8438
 30
0.0
  0
VERTEX
  8
0
 10
-177.8
 20
-92.7938
 30
0.0
  0
VERTEX
  8
0
 10
-177.8
 20
-92.7438
 30
0.0
  0
VERTEX
  8
0
 10
-177.8
 20
-92.6938
 30
0.0
  0
VERTEX
  8
0
 10
-177.8
 20
-92.6438
 30
0.0
  0
VERTEX
  8
0
 10
-177.8
 20
-92.5938
 30
0.0
  0
VERTEX
  8
0
 10
-177.8
 20
-92.5438
 30
0.0
  0
VERTEX
  8
0
 10
-177.8
 20
-92.4938
 30
0.0
  0
VERTEX
  8
0
 10
-177.8
 20
-92.4438
 30
0.0
  0
VERTEX
  8
0
 10
-177.8
 20
-92.3938
 30
0.0
  0
VERTEX
  8
0
 10
-177.8
 20
-92.3438
 30
0.0
  0
VERTEX
  8
0
 10
-177.8
 20
-92.2938
 30
0.0
  0
VERTEX
  8
0
 10
-177.8
 20
-92.2438
 30
0.0
  0
VERTEX
  8
0
 10
-177.8
 20
-92.1938
 30
0.0
  0
VERTEX
  8
0
 10
-177.8
 20
-92.1438
 30
0.0
  0
VERTEX
  8
0
 10
-177.8
 20
-92.0938
 30
0.0
  0
VERTEX
  8
0
 10
-177.8
 20
-92.0438
 30
0.0
  0
VERTEX
  8
0
 10
-177.8
 20
-91.9938
 30
0.0
  0
VERTEX
  8
0
 10
-177.8
 20
-91.9438
 30
0.0
  0
VERTEX
  8
0
 10
-177.8
 20
-91.8938
 30
0.0
  0
VERTEX
  8
0
 10
-177.8
 20
-91.8438
 30
0.0
  0
VERTEX
  8
0
 10
-177.8
 20
-91.7938
 30
0.0
  0
VERTEX
  8
0
 10
-177.8
 20
-91.7438
 30
0.0
  0
VERTEX
  8
0
 10
-177.8
 20
-91.6938
 30
0.0
  0
SEQEND
  8
0
  0
POLYLINE
  8
0
 62
0
 70
0
 66
1
 10
0.0
 20
0.0
 30
0.0
  0
VERTEX
  8
0
 10
-177.8
 20
-167.8938
 30
0.0
  0
VERTEX
  8
0
 10
-177.8
 20
-167.8438
 30
0.0
  0
VERTEX
  8
0
 10
-177.8
 20
-167.7938
 30
0.0
  0
VERTEX
  8
0
 10
-177.8
 20
-167.7438
 30
0.0
  0
VERTEX
  8
0
 10
-177.8
 20
-167.6938
 30
0.0
  0
VERTEX
  8
0
 10
-177.8
 20
-167.6438
 30
0.0
  0
VERTEX
  8
0
 10
-177.8
 20
-167.5938
 30
0.0
  0
VERTEX
  8
0
 10
-177.8
 20
-167.5438
 30
0.0
  0
VERTEX
  8
0
 10
-177.8
 20
-167.4938
 30
0.0
  0
VERTEX
  8
0
 10
-177.8
 20
-167.4438
 30
0.0
  0
VERTEX
  8
0
 10
-177.8
 20
-167.3938
 30
0.0
  0
VERTEX
  8
0
 10
-177.8
 20
-167.3438
 30
0.0
  0
VERTEX
  8
0
 10
-177.8
 20
-167.2938
 30
0.0
  0
VERTEX
  8
0
 10
-177.8
 20
-167.2438
 30
0.0
  0
VERTEX
  8
0
 10
-177.8
 20
-167.1938
 30
0.0
  0
VERTEX
  8
0
 10
-177.8
 20
-167.1438
 30
0.0
  0
VERTEX
  8
0
 10
-177.8
 20
-167.0938
 30
0.0
  0
VERTEX
  8
0
 10
-177.8
 20
-167.0438
 30
0.0
  0
VERTEX
  8
0
 10
-177.8
 20
-166.9938
 30
0.0
  0
VERTEX
  8
0
 10
-177.8
 20
-166.9438
 30
0.0
  0
VERTEX
  8
0
 10
-177.8
 20
-166.8938
 30
0.0
  0
VERTEX
  8
0
 10
-177.8
 20
-166.8438
 30
0.0
  0
VERTEX
  8
0
 10
-177.8
 20
-166.7938
 30
0.0
  0
VERTEX
  8
0
 10
-177.8
 20
-166.7438
 30
0.0
  0
VERTEX
  8
0
 10
-177.8
 20
-166.6938
 30
0.0
  0
VERTEX
  8
0
 10
-177.8
 20
-166.6438
 30
0.0
  0
VERTEX
  8
0
 10
-177.8
 20
-166.5938
 30
0.0
  0
VERTEX
  8
0
 10
-177.8
 20
-166.5438
 30
0.0
  0
VERTEX
  8
0
 10
-177.8
 20
-166.4938
 30
0.0
  0
VERTEX
  8
0
 10
-177.8
 20
-166.4438
 30
0.0
  0
VERTEX
  8
0
 10
-177.8
 20
-166.3938
 30
0.0
  0
VERTEX
  8
0
 10
-177.8
 20
-166.3438
 30
0.0
  0
VERTEX
  8
0
 10
-177.8
 20
-166.2938
 30
0.0
  0
VERTEX
  8
0
 10
-177.8
 20
-166.2438
 30
0.0
  0
VERTEX
  8
0
 10
-177.8
 20
-166.1938
 30
0.0
  0
VERTEX
  8
0
 10
-177.8
 20
-166.1438
 30
0.0
  0
VERTEX
  8
0
 10
-177.8
 20
-166.0938
 30
0.0
  0
VERTEX
  8
0
 10
-177.8
 20
-166.0438
 30
0.0
  0
VERTEX
  8
0
 10
-177.8
 20
-165.9938
 30
0.0
  0
VERTEX
  8
0
 10
-177.8
 20
-165.9438
 30
0.0
  0
VERTEX
  8
0
 10
-177.8
 20
-165.8938
 30
0.0
  0
VERTEX
  8
0
 10
-177.8
 20
-165.8438
 30
0.0
  0
VERTEX
  8
0
 10
-177.8
 20
-165.7938
 30
0.0
  0
VERTEX
  8
0
 10
-177.8
 20
-165.7438
 30
0.0
  0
VERTEX
  8
0
 10
-177.8
 20
-165.6938
 30
0.0
  0
VERTEX
  8
0
 10
-177.8
 20
-165.6438
 30
0.0
  0
VERTEX
  8
0
 10
-177.8
 20
-165.5938
 30
0.0
  0
VERTEX
  8
0
 10
-177.8
 20
-165.5438
 30
0.0
  0
VERTEX
  8
0
 10
-177.8
 20
-165.4938
 30
0.0
  0
VERTEX
  8
0
 10
-177.8
 20
-165.4438
 30
0.0
  0
VERTEX
  8
0
 10
-177.8
 20
-165.3938
 30
0.0
  0
VERTEX
  8
0
 10
-177.8
 20
-165.3438
 30
0.0
  0
VERTEX
  8
0
 10
-177.8
 20
-165.2938
 30
0.0
  0
VERTEX
  8
0
 10
-177.8
 20
-165.2438
 30
0.0
  0
VERTEX
  8
0
 10
-177.8
 20
-165.1938
 30
0.0
  0
VERTEX
  8
0
 10
-177.8
 20
-165.1438
 30
0.0
  0
VERTEX
  8
0
 10
-177.8
 20
-165.0938
 30
0.0
  0
VERTEX
  8
0
 10
-177.8
 20
-165.0438
 30
0.0
  0
VERTEX
  8
0
 10
-177.8
 20
-164.9938
 30
0.0
  0
VERTEX
  8
0
 10
-177.8
 20
-164.9438
 30
0.0
  0
VERTEX
  8
0
 10
-177.8
 20
-164.8938
 30
0.0
  0
VERTEX
  8
0
 10
-177.8
 20
-164.8438
 30
0.0
  0
VERTEX
  8
0
 10
-177.8
 20
-164.7938
 30
0.0
  0
VERTEX
  8
0
 10
-177.8
 20
-164.7438
 30
0.0
  0
VERTEX
  8
0
 10
-177.8
 20
-164.6938
 30
0.0
  0
VERTEX
  8
0
 10
-177.8
 20
-164.6438
 30
0.0
  0
VERTEX
  8
0
 10
-177.8
 20
-164.5938
 30
0.0
  0
VERTEX
  8
0
 10
-177.8
 20
-164.5438
 30
0.0
  0
VERTEX
  8
0
 10
-177.8
 20
-164.4938
 30
0.0
  0
VERTEX
  8
0
 10
-177.8
 20
-164.4438
 30
0.0
  0
VERTEX
  8
0
 10
-177.8
 20
-164.3938
 30
0.0
  0
VERTEX
  8
0
 10
-177.8
 20
-164.3438
 30
0.0
  0
VERTEX
  8
0
 10
-177.8
 20
-164.2938
 30
0.0
  0
VERTEX
  8
0
 10
-177.8
 20
-164.2438
 30
0.0
  0
VERTEX
  8
0
 10
-177.8
 20
-164.1938
 30
0.0
  0
VERTEX
  8
0
 10
-177.8
 20
-164.1438
 30
0.0
  0
VERTEX
  8
0
 10
-177.8
 20
-164.0938
 30
0.0
  0
VERTEX
  8
0
 10
-177.8
 20
-164.0438
 30
0.0
  0
VERTEX
  8
0
 10
-177.8
 20
-163.9938
 30
0.0
  0
VERTEX
  8
0
 10
-177.8
 20
-163.9438
 30
0.0
  0
VERTEX
  8
0
 10
-177.8
 20
-163.8938
 30
0.0
  0
VERTEX
  8
0
 10
-177.8
 20
-163.8438
 30
0.0
  0
VERTEX
  8
0
 10
-177.8
 20
-163.7938
 30
0.0
  0
VERTEX
  8
0
 10
-177.8
 20
-163.7438
 30
0.0
  0
VERTEX
  8
0
 10
-177.8
 20
-163.6938
 30
0.0
  0
VERTEX
  8
0
 10
-177.8
 20
-163.6438
 30
0.0
  0
VERTEX
  8
0
 10
-177.8
 20
-163.5938
 30
0.0
  0
VERTEX
  8
0
 10
-177.8
 20
-163.5438
 30
0.0
  0
VERTEX
  8
0
 10
-177.8
 20
-163.4938
 30
0.0
  0
VERTEX
  8
0
 10
-177.8
 20
-163.4438
 30
0.0
  0
VERTEX
  8
0
 10
-177.8
 20
-163.3938
 30
0.0
  0
VERTEX
  8
0
 10
-177.8
 20
-163.3438
 30
0.0
  0
VERTEX
  8
0
 10
-177.8
 20
-163.2938
 30
0.0
  0
VERTEX
  8
0
 10
-177.8
 20
-163.2438
 30
0.0
  0
VERTEX
  8
0
 10
-177.8
 20
-163.1938
 30
0.0
  0
VERTEX
  8
0
 10
-177.8
 20
-163.1438
 30
0.0
  0
VERTEX
  8
0
 10
-177.8
 20
-163.0938
 30
0.0
  0
VERTEX
  8
0
 10
-177.8
 20
-163.0438
 30
0.0
  0
VERTEX
  8
0
 10
-177.8
 20
-162.9938
 30
0.0
  0
VERTEX
  8
0
 10
-177.8
 20
-162.9438
 30
0.0
  0
VERTEX
  8
0
 10
-177.8
 20
-162.8938
 30
0.0
  0
VERTEX
  8
0
 10
-177.8
 20
-162.8438
 30
0.0
  0
VERTEX
  8
0
 10
-177.8
 20
-162.7938
 30
0.0
  0
VERTEX
  8
0
 10
-177.8
 20
-162.7438
 30
0.0
  0
VERTEX
  8
0
 10
-177.8
 20
-162.6938
 30
0.0
  0
VERTEX
  8
0
 10
-177.8
 20
-162.6438
 30
0.0
  0
VERTEX
  8
0
 10
-177.8
 20
-162.5938
 30
0.0
  0
VERTEX
  8
0
 10
-177.8
 20
-162.5438
 30
0.0
  0
VERTEX
  8
0
 10
-177.8
 20
-162.4938
 30
0.0
  0
VERTEX
  8
0
 10
-177.8
 20
-162.4438
 30
0.0
  0
VERTEX
  8
0
 10
-177.8
 20
-162.3938
 30
0.0
  0
VERTEX
  8
0
 10
-177.8
 20
-162.3438
 30
0.0
  0
VERTEX
  8
0
 10
-177.8
 20
-162.2938
 30
0.0
  0
VERTEX
  8
0
 10
-177.8
 20
-162.2438
 30
0.0
  0
VERTEX
  8
0
 10
-177.8
 20
-162.1938
 30
0.0
  0
VERTEX
  8
0
 10
-177.8
 20
-162.1438
 30
0.0
  0
VERTEX
  8
0
 10
-177.8
 20
-162.0938
 30
0.0
  0
VERTEX
  8
0
 10
-177.8
 20
-162.0438
 30
0.0
  0
VERTEX
  8
0
 10
-177.8
 20
-161.9938
 30
0.0
  0
VERTEX
  8
0
 10
-177.8
 20
-161.9438
 30
0.0
  0
VERTEX
  8
0
 10
-177.8
 20
-161.8938
 30
0.0
  0
VERTEX
  8
0
 10
-177.8
 20
-161.8438
 30
0.0
  0
VERTEX
  8
0
 10
-177.8
 20
-161.7938
 30
0.0
  0
VERTEX
  8
0
 10
-177.8
 20
-161.7438
 30
0.0
  0
VERTEX
  8
0
 10
-177.8
 20
-161.6938
 30
0.0
  0
VERTEX
  8
0
 10
-177.8
 20
-161.6438
 30
0.0
  0
VERTEX
  8
0
 10
-177.8
 20
-161.5938
 30
0.0
  0
VERTEX
  8
0
 10
-177.8
 20
-161.5438
 30
0.0
  0
VERTEX
  8
0
 10
-177.8
 20
-161.4938
 30
0.0
  0
VERTEX
  8
0
 10
-177.8
 20
-161.4438
 30
0.0
  0
VERTEX
  8
0
 10
-177.8
 20
-161.3938
 30
0.0
  0
VERTEX
  8
0
 10
-177.8
 20
-161.3438
 30
0.0
  0
VERTEX
  8
0
 10
-177.8
 20
-161.2938
 30
0.0
  0
VERTEX
  8
0
 10
-177.8
 20
-161.2438
 30
0.0
  0
VERTEX
  8
0
 10
-177.8
 20
-161.1938
 30
0.0
  0
VERTEX
  8
0
 10
-177.8
 20
-161.1438
 30
0.0
  0
VERTEX
  8
0
 10
-177.8
 20
-161.0938
 30
0.0
  0
VERTEX
  8
0
 10
-177.8
 20
-161.0438
 30
0.0
  0
VERTEX
  8
0
 10
-177.8
 20
-160.9938
 30
0.0
  0
VERTEX
  8
0
 10
-177.8
 20
-160.9438
 30
0.0
  0
VERTEX
  8
0
 10
-177.8
 20
-160.8938
 30
0.0
  0
VERTEX
  8
0
 10
-177.8
 20
-160.8438
 30
0.0
  0
VERTEX
  8
0
 10
-177.8
 20
-160.7938
 30
0.0
  0
VERTEX
  8
0
 10
-177.8
 20
-160.7438
 30
0.0
  0
VERTEX
  8
0
 10
-177.8
 20
-160.6938
 30
0.0
  0
VERTEX
  8
0
 10
-177.8
 20
-160.6438
 30
0.0
  0
VERTEX
  8
0
 10
-177.8
 20
-160.5938
 30
0.0
  0
VERTEX
  8
0
 10
-177.8
 20
-160.5438
 30
0.0
  0
VERTEX
  8
0
 10
-177.8
 20
-160.4938
 30
0.0
  0
VERTEX
  8
0
 10
-177.8
 20
-160.4438
 30
0.0
  0
VERTEX
  8
0
 10
-177.8
 20
-160.3938
 30
0.0
  0
VERTEX
  8
0
 10
-177.8
 20
-160.3438
 30
0.0
  0
VERTEX
  8
0
 10
-177.8
 20
-160.2938
 30
0.0
  0
VERTEX
  8
0
 10
-177.8
 20
-160.2438
 30
0.0
  0
VERTEX
  8
0
 10
-177.8
 20
-160.1938
 30
0.0
  0
VERTEX
  8
0
 10
-177.8
 20
-160.1438
 30
0.0
  0
VERTEX
  8
0
 10
-177.8
 20
-160.0938
 30
0.0
  0
VERTEX
  8
0
 10
-177.8
 20
-160.0438
 30
0.0
  0
VERTEX
  8
0
 10
-177.8
 20
-159.9938
 30
0.0
  0
VERTEX
  8
0
 10
-177.8
 20
-159.9438
 30
0.0
  0
VERTEX
  8
0
 10
-177.8
 20
-159.8938
 30
0.0
  0
VERTEX
  8
0
 10
-177.8
 20
-159.8438
 30
0.0
  0
VERTEX
  8
0
 10
-177.8
 20
-159.7938
 30
0.0
  0
VERTEX
  8
0
 10
-177.8
 20
-159.7438
 30
0.0
  0
VERTEX
  8
0
 10
-177.8
 20
-159.6938
 30
0.0
  0
VERTEX
  8
0
 10
-177.8
 20
-159.6438
 30
0.0
  0
VERTEX
  8
0
 10
-177.8
 20
-159.5938
 30
0.0
  0
VERTEX
  8
0
 10
-177.8
 20
-159.5438
 30
0.0
  0
VERTEX
  8
0
 10
-177.8
 20
-159.4938
 30
0.0
  0
VERTEX
  8
0
 10
-177.8
 20
-159.4438
 30
0.0
  0
VERTEX
  8
0
 10
-177.8
 20
-159.3938
 30
0.0
  0
VERTEX
  8
0
 10
-177.8
 20
-159.3438
 30
0.0
  0
VERTEX
  8
0
 10
-177.8
 20
-159.2938
 30
0.0
  0
VERTEX
  8
0
 10
-177.8
 20
-159.2438
 30
0.0
  0
VERTEX
  8
0
 10
-177.8
 20
-159.1938
 30
0.0
  0
VERTEX
  8
0
 10
-177.8
 20
-159.1438
 30
0.0
  0
VERTEX
  8
0
 10
-177.8
 20
-159.0938
 30
0.0
  0
VERTEX
  8
0
 10
-177.8
 20
-159.0438
 30
0.0
  0
VERTEX
  8
0
 10
-177.8
 20
-158.9938
 30
0.0
  0
VERTEX
  8
0
 10
-177.8
 20
-158.9438
 30
0.0
  0
VERTEX
  8
0
 10
-177.8
 20
-158.8938
 30
0.0
  0
VERTEX
  8
0
 10
-177.8
 20
-158.8438
 30
0.0
  0
VERTEX
  8
0
 10
-177.8
 20
-158.7938
 30
0.0
  0
VERTEX
  8
0
 10
-177.8
 20
-158.7438
 30
0.0
  0
VERTEX
  8
0
 10
-177.8
 20
-158.6938
 30
0.0
  0
VERTEX
  8
0
 10
-177.8
 20
-158.6438
 30
0.0
  0
VERTEX
  8
0
 10
-177.8
 20
-158.5938
 30
0.0
  0
VERTEX
  8
0
 10
-177.8
 20
-158.5438
 30
0.0
  0
VERTEX
  8
0
 10
-177.8
 20
-158.4938
 30
0.0
  0
VERTEX
  8
0
 10
-177.8
 20
-158.4438
 30
0.0
  0
VERTEX
  8
0
 10
-177.8
 20
-158.3938
 30
0.0
  0
VERTEX
  8
0
 10
-177.8
 20
-158.3438
 30
0.0
  0
VERTEX
  8
0
 10
-177.8
 20
-158.2938
 30
0.0
  0
VERTEX
  8
0
 10
-177.8
 20
-158.2438
 30
0.0
  0
VERTEX
  8
0
 10
-177.8
 20
-158.1938
 30
0.0
  0
VERTEX
  8
0
 10
-177.8
 20
-158.1438
 30
0.0
  0
VERTEX
  8
0
 10
-177.8
 20
-158.0938
 30
0.0
  0
VERTEX
  8
0
 10
-177.8
 20
-158.0438
 30
0.0
  0
VERTEX
  8
0
 10
-177.8
 20
-157.9938
 30
0.0
  0
VERTEX
  8
0
 10
-177.8
 20
-157.9438
 30
0.0
  0
VERTEX
  8
0
 10
-177.8
 20
-157.8938
 30
0.0
  0
VERTEX
  8
0
 10
-177.8
 20
-157.8438
 30
0.0
  0
VERTEX
  8
0
 10
-177.8
 20
-157.7938
 30
0.0
  0
VERTEX
  8
0
 10
-177.8
 20
-157.7438
 30
0.0
  0
VERTEX
  8
0
 10
-177.8
 20
-157.6938
 30
0.0
  0
VERTEX
  8
0
 10
-177.8
 20
-157.6438
 30
0.0
  0
VERTEX
  8
0
 10
-177.8
 20
-157.5938
 30
0.0
  0
VERTEX
  8
0
 10
-177.8
 20
-157.5438
 30
0.0
  0
VERTEX
  8
0
 10
-177.8
 20
-157.4938
 30
0.0
  0
VERTEX
  8
0
 10
-177.8
 20
-157.4438
 30
0.0
  0
VERTEX
  8
0
 10
-177.8
 20
-157.3938
 30
0.0
  0
VERTEX
  8
0
 10
-177.8
 20
-157.3438
 30
0.0
  0
VERTEX
  8
0
 10
-177.8
 20
-157.2938
 30
0.0
  0
VERTEX
  8
0
 10
-177.8
 20
-157.2438
 30
0.0
  0
VERTEX
  8
0
 10
-177.8
 20
-157.1938
 30
0.0
  0
VERTEX
  8
0
 10
-177.8
 20
-157.1438
 30
0.0
  0
VERTEX
  8
0
 10
-177.8
 20
-157.0938
 30
0.0
  0
VERTEX
  8
0
 10
-177.8
 20
-157.0438
 30
0.0
  0
VERTEX
  8
0
 10
-177.8
 20
-156.9938
 30
0.0
  0
VERTEX
  8
0
 10
-177.8
 20
-156.9438
 30
0.0
  0
VERTEX
  8
0
 10
-177.8
 20
-156.8938
 30
0.0
  0
VERTEX
  8
0
 10
-177.8
 20
-156.8438
 30
0.0
  0
VERTEX
  8
0
 10
-177.8
 20
-156.7938
 30
0.0
  0
VERTEX
  8
0
 10
-177.8
 20
-156.7438
 30
0.0
  0
VERTEX
  8
0
 10
-177.8
 20
-156.6938
 30
0.0
  0
VERTEX
  8
0
 10
-177.8
 20
-156.6438
 30
0.0
  0
VERTEX
  8
0
 10
-177.8
 20
-156.5938
 30
0.0
  0
VERTEX
  8
0
 10
-177.8
 20
-156.5438
 30
0.0
  0
VERTEX
  8
0
 10
-177.8
 20
-156.4938
 30
0.0
  0
VERTEX
  8
0
 10
-177.8
 20
-156.4438
 30
0.0
  0
VERTEX
  8
0
 10
-177.8
 20
-156.3938
 30
0.0
  0
VERTEX
  8
0
 10
-177.8
 20
-156.3438
 30
0.0
  0
VERTEX
  8
0
 10
-177.8
 20
-156.2938
 30
0.0
  0
VERTEX
  8
0
 10
-177.8
 20
-156.2438
 30
0.0
  0
VERTEX
  8
0
 10
-177.8
 20
-156.1938
 30
0.0
  0
VERTEX
  8
0
 10
-177.8
 20
-156.1438
 30
0.0
  0
VERTEX
  8
0
 10
-177.8
 20
-156.0938
 30
0.0
  0
VERTEX
  8
0
 10
-177.8
 20
-156.0438
 30
0.0
  0
VERTEX
  8
0
 10
-177.8
 20
-155.9938
 30
0.0
  0
VERTEX
  8
0
 10
-177.8
 20
-155.9438
 30
0.0
  0
VERTEX
  8
0
 10
-177.8
 20
-155.8938
 30
0.0
  0
VERTEX
  8
0
 10
-177.8
 20
-155.8438
 30
0.0
  0
VERTEX
  8
0
 10
-177.8
 20
-155.7938
 30
0.0
  0
VERTEX
  8
0
 10
-177.8
 20
-155.7438
 30
0.0
  0
VERTEX
  8
0
 10
-177.8
 20
-155.6938
 30
0.0
  0
VERTEX
  8
0
 10
-177.8
 20
-155.6438
 30
0.0
  0
VERTEX
  8
0
 10
-177.8
 20
-155.5938
 30
0.0
  0
VERTEX
  8
0
 10
-177.8
 20
-155.5438
 30
0.0
  0
VERTEX
  8
0
 10
-177.8
 20
-155.4938
 30
0.0
  0
VERTEX
  8
0
 10
-177.8
 20
-155.4438
 30
0.0
  0
VERTEX
  8
0
 10
-177.8
 20
-155.3938
 30
0.0
  0
VERTEX
  8
0
 10
-177.8
 20
-155.3438
 30
0.0
  0
VERTEX
  8
0
 10
-177.8
 20
-155.2938
 30
0.0
  0
VERTEX
  8
0
 10
-177.8
 20
-155.2438
 30
0.0
  0
VERTEX
  8
0
 10
-177.8
 20
-155.1938
 30
0.0
  0
VERTEX
  8
0
 10
-177.8
 20
-155.1438
 30
0.0
  0
VERTEX
  8
0
 10
-177.8
 20
-155.0938
 30
0.0
  0
VERTEX
  8
0
 10
-177.8
 20
-155.0438
 30
0.0
  0
VERTEX
  8
0
 10
-177.8
 20
-154.9938
 30
0.0
  0
VERTEX
  8
0
 10
-177.8
 20
-154.9438
 30
0.0
  0
VERTEX
  8
0
 10
-177.8
 20
-154.8938
 30
0.0
  0
VERTEX
  8
0
 10
-177.8
 20
-154.8438
 30
0.0
  0
VERTEX
  8
0
 10
-177.8
 20
-154.7938
 30
0.0
  0
VERTEX
  8
0
 10
-177.8
 20
-154.7438
 30
0.0
  0
VERTEX
  8
0
 10
-177.8
 20
-154.6938
 30
0.0
  0
VERTEX
  8
0
 10
-177.8
 20
-154.6438
 30
0.0
  0
VERTEX
  8
0
 10
-177.8
 20
-154.5938
 30
0.0
  0
VERTEX
  8
0
 10
-177.8
 20
-154.5438
 30
0.0
  0
VERTEX
  8
0
 10
-177.8
 20
-154.4938
 30
0.0
  0
VERTEX
  8
0
 10
-177.8
 20
-154.4438
 30
0.0
  0
VERTEX
  8
0
 10
-177.8
 20
-154.3938
 30
0.0
  0
VERTEX
  8
0
 10
-177.8
 20
-154.3438
 30
0.0
  0
VERTEX
  8
0
 10
-177.8
 20
-154.2938
 30
0.0
  0
VERTEX
  8
0
 10
-177.8
 20
-154.2438
 30
0.0
  0
VERTEX
  8
0
 10
-177.8
 20
-154.1938
 30
0.0
  0
VERTEX
  8
0
 10
-177.8
 20
-154.1438
 30
0.0
  0
VERTEX
  8
0
 10
-177.8
 20
-154.0938
 30
0.0
  0
VERTEX
  8
0
 10
-177.8
 20
-154.0438
 30
0.0
  0
VERTEX
  8
0
 10
-177.8
 20
-153.9938
 30
0.0
  0
VERTEX
  8
0
 10
-177.8
 20
-153.9438
 30
0.0
  0
VERTEX
  8
0
 10
-177.8
 20
-153.8938
 30
0.0
  0
VERTEX
  8
0
 10
-177.8
 20
-153.8438
 30
0.0
  0
VERTEX
  8
0
 10
-177.8
 20
-153.7938
 30
0.0
  0
VERTEX
  8
0
 10
-177.8
 20
-153.7438
 30
0.0
  0
VERTEX
  8
0
 10
-177.8
 20
-153.6938
 30
0.0
  0
VERTEX
  8
0
 10
-177.8
 20
-153.6438
 30
0.0
  0
VERTEX
  8
0
 10
-177.8
 20
-153.5938
 30
0.0
  0
VERTEX
  8
0
 10
-177.8
 20
-153.5438
 30
0.0
  0
VERTEX
  8
0
 10
-177.8
 20
-153.4938
 30
0.0
  0
VERTEX
  8
0
 10
-177.8
 20
-153.4438
 30
0.0
  0
VERTEX
  8
0
 10
-177.8
 20
-153.3938
 30
0.0
  0
VERTEX
  8
0
 10
-177.8
 20
-153.3438
 30
0.0
  0
VERTEX
  8
0
 10
-177.8
 20
-153.2938
 30
0.0
  0
VERTEX
  8
0
 10
-177.8
 20
-153.2438
 30
0.0
  0
VERTEX
  8
0
 10
-177.8
 20
-153.1938
 30
0.0
  0
VERTEX
  8
0
 10
-177.8
 20
-153.1438
 30
0.0
  0
VERTEX
  8
0
 10
-177.8
 20
-153.0938
 30
0.0
  0
VERTEX
  8
0
 10
-177.8
 20
-153.0438
 30
0.0
  0
VERTEX
  8
0
 10
-177.8
 20
-152.9938
 30
0.0
  0
VERTEX
  8
0
 10
-177.8
 20
-152.9438
 30
0.0
  0
VERTEX
  8
0
 10
-177.8
 20
-152.8938
 30
0.0
  0
VERTEX
  8
0
 10
-177.8
 20
-152.8438
 30
0.0
  0
VERTEX
  8
0
 10
-177.8
 20
-152.7938
 30
0.0
  0
VERTEX
  8
0
 10
-177.8
 20
-152.7438
 30
0.0
  0
VERTEX
  8
0
 10
-177.8
 20
-152.6938
 30
0.0
  0
VERTEX
  8
0
 10
-177.8
 20
-152.6438
 30
0.0
  0
VERTEX
  8
0
 10
-177.8
 20
-152.5938
 30
0.0
  0
VERTEX
  8
0
 10
-177.8
 20
-152.5438
 30
0.0
  0
VERTEX
  8
0
 10
-177.8
 20
-152.4938
 30
0.0
  0
VERTEX
  8
0
 10
-177.8
 20
-152.4438
 30
0.0
  0
VERTEX
  8
0
 10
-177.8
 20
-152.3938
 30
0.0
  0
VERTEX
  8
0
 10
-177.8
 20
-152.3438
 30
0.0
  0
VERTEX
  8
0
 10
-177.8
 20
-152.2938
 30
0.0
  0
VERTEX
  8
0
 10
-177.8
 20
-152.2438
 30
0.0
  0
VERTEX
  8
0
 10
-177.8
 20
-152.1938
 30
0.0
  0
VERTEX
  8
0
 10
-177.8
 20
-152.1438
 30
0.0
  0
VERTEX
  8
0
 10
-177.8
 20
-152.0938
 30
0.0
  0
VERTEX
  8
0
 10
-177.8
 20
-152.0438
 30
0.0
  0
VERTEX
  8
0
 10
-177.8
 20
-151.9938
 30
0.0
  0
VERTEX
  8
0
 10
-177.8
 20
-151.9438
 30
0.0
  0
VERTEX
  8
0
 10
-177.8
 20
-151.8938
 30
0.0
  0
VERTEX
  8
0
 10
-177.8
 20
-151.8438
 30
0.0
  0
VERTEX
  8
0
 10
-177.8
 20
-151.7938
 30
0.0
  0
VERTEX
  8
0
 10
-177.8
 20
-151.7438
 30
0.0
  0
VERTEX
  8
0
 10
-177.8
 20
-151.6938
 30
0.0
  0
VERTEX
  8
0
 10
-177.8
 20
-151.6438
 30
0.0
  0
VERTEX
  8
0
 10
-177.8
 20
-151.5938
 30
0.0
  0
VERTEX
  8
0
 10
-177.8
 20
-151.5438
 30
0.0
  0
VERTEX
  8
0
 10
-177.8
 20
-151.4938
 30
0.0
  0
VERTEX
  8
0
 10
-177.8
 20
-151.4438
 30
0.0
  0
VERTEX
  8
0
 10
-177.8
 20
-151.3938
 30
0.0
  0
VERTEX
  8
0
 10
-177.8
 20
-151.3438
 30
0.0
  0
VERTEX
  8
0
 10
-177.8
 20
-151.2938
 30
0.0
  0
VERTEX
  8
0
 10
-177.8
 20
-151.2438
 30
0.0
  0
VERTEX
  8
0
 10
-177.8
 20
-151.1938
 30
0.0
  0
VERTEX
  8
0
 10
-177.8
 20
-151.1438
 30
0.0
  0
VERTEX
  8
0
 10
-177.8
 20
-151.0938
 30
0.0
  0
VERTEX
  8
0
 10
-177.8
 20
-151.0438
 30
0.0
  0
VERTEX
  8
0
 10
-177.8
 20
-150.9938
 30
0.0
  0
VERTEX
  8
0
 10
-177.8
 20
-150.9438
 30
0.0
  0
VERTEX
  8
0
 10
-177.8
 20
-150.8938
 30
0.0
  0
VERTEX
  8
0
 10
-177.8
 20
-150.8438
 30
0.0
  0
VERTEX
  8
0
 10
-177.8
 20
-150.7938
 30
0.0
  0
VERTEX
  8
0
 10
-177.8
 20
-150.7438
 30
0.0
  0
VERTEX
  8
0
 10
-177.8
 20
-150.6938
 30
0.0
  0
VERTEX
  8
0
 10
-177.8
 20
-150.6438
 30
0.0
  0
VERTEX
  8
0
 10
-177.8
 20
-150.5938
 30
0.0
  0
VERTEX
  8
0
 10
-177.8
 20
-150.5438
 30
0.0
  0
VERTEX
  8
0
 10
-177.8
 20
-150.4938
 30
0.0
  0
VERTEX
  8
0
 10
-177.8
 20
-150.4438
 30
0.0
  0
VERTEX
  8
0
 10
-177.8
 20
-150.3938
 30
0.0
  0
VERTEX
  8
0
 10
-177.8
 20
-150.3438
 30
0.0
  0
VERTEX
  8
0
 10
-177.8
 20
-150.2938
 30
0.0
  0
VERTEX
  8
0
 10
-177.8
 20
-150.2438
 30
0.0
  0
VERTEX
  8
0
 10
-177.8
 20
-150.1938
 30
0.0
  0
VERTEX
  8
0
 10
-177.8
 20
-150.1438
 30
0.0
  0
VERTEX
  8
0
 10
-177.8
 20
-150.0938
 30
0.0
  0
VERTEX
  8
0
 10
-177.8
 20
-150.0438
 30
0.0
  0
VERTEX
  8
0
 10
-177.8
 20
-149.9938
 30
0.0
  0
VERTEX
  8
0
 10
-177.8
 20
-149.9438
 30
0.0
  0
VERTEX
  8
0
 10
-177.8
 20
-149.8938
 30
0.0
  0
VERTEX
  8
0
 10
-177.8
 20
-149.8438
 30
0.0
  0
VERTEX
  8
0
 10
-177.8
 20
-149.7938
 30
0.0
  0
VERTEX
  8
0
 10
-177.8
 20
-149.7438
 30
0.0
  0
VERTEX
  8
0
 10
-177.8
 20
-149.6938
 30
0.0
  0
VERTEX
  8
0
 10
-177.8
 20
-149.6438
 30
0.0
  0
VERTEX
  8
0
 10
-177.8
 20
-149.5938
 30
0.0
  0
VERTEX
  8
0
 10
-177.8
 20
-149.5438
 30
0.0
  0
VERTEX
  8
0
 10
-177.8
 20
-149.4938
 30
0.0
  0
VERTEX
  8
0
 10
-177.8
 20
-149.4438
 30
0.0
  0
VERTEX
  8
0
 10
-177.8
 20
-149.3938
 30
0.0
  0
VERTEX
  8
0
 10
-177.8
 20
-149.3438
 30
0.0
  0
VERTEX
  8
0
 10
-177.8
 20
-149.2938
 30
0.0
  0
VERTEX
  8
0
 10
-177.8
 20
-149.2438
 30
0.0
  0
VERTEX
  8
0
 10
-177.8
 20
-149.1938
 30
0.0
  0
VERTEX
  8
0
 10
-177.8
 20
-149.1438
 30
0.0
  0
VERTEX
  8
0
 10
-177.8
 20
-149.0938
 30
0.0
  0
VERTEX
  8
0
 10
-177.8
 20
-149.0438
 30
0.0
  0
VERTEX
  8
0
 10
-177.8
 20
-148.9938
 30
0.0
  0
VERTEX
  8
0
 10
-177.8
 20
-148.9438
 30
0.0
  0
VERTEX
  8
0
 10
-177.8
 20
-148.8938
 30
0.0
  0
VERTEX
  8
0
 10
-177.8
 20
-148.8438
 30
0.0
  0
VERTEX
  8
0
 10
-177.8
 20
-148.7938
 30
0.0
  0
VERTEX
  8
0
 10
-177.8
 20
-148.7438
 30
0.0
  0
VERTEX
  8
0
 10
-177.8
 20
-148.6938
 30
0.0
  0
VERTEX
  8
0
 10
-177.8
 20
-148.6438
 30
0.0
  0
VERTEX
  8
0
 10
-177.8
 20
-148.5938
 30
0.0
  0
VERTEX
  8
0
 10
-177.8
 20
-148.5438
 30
0.0
  0
VERTEX
  8
0
 10
-177.8
 20
-148.4938
 30
0.0
  0
VERTEX
  8
0
 10
-177.8
 20
-148.4438
 30
0.0
  0
VERTEX
  8
0
 10
-177.8
 20
-148.3938
 30
0.0
  0
VERTEX
  8
0
 10
-177.8
 20
-148.3438
 30
0.0
  0
VERTEX
  8
0
 10
-177.8
 20
-148.2938
 30
0.0
  0
VERTEX
  8
0
 10
-177.8
 20
-148.2438
 30
0.0
  0
VERTEX
  8
0
 10
-177.8
 20
-148.1938
 30
0.0
  0
VERTEX
  8
0
 10
-177.8
 20
-148.1438
 30
0.0
  0
VERTEX
  8
0
 10
-177.8
 20
-148.0938
 30
0.0
  0
VERTEX
  8
0
 10
-177.8
 20
-148.0438
 30
0.0
  0
VERTEX
  8
0
 10
-177.8
 20
-147.9938
 30
0.0
  0
VERTEX
  8
0
 10
-177.8
 20
-147.9438
 30
0.0
  0
VERTEX
  8
0
 10
-177.8
 20
-147.8938
 30
0.0
  0
VERTEX
  8
0
 10
-177.8
 20
-147.8438
 30
0.0
  0
VERTEX
  8
0
 10
-177.8
 20
-147.7938
 30
0.0
  0
VERTEX
  8
0
 10
-177.8
 20
-147.7438
 30
0.0
  0
VERTEX
  8
0
 10
-177.8
 20
-147.6938
 30
0.0
  0
VERTEX
  8
0
 10
-177.8
 20
-147.6438
 30
0.0
  0
VERTEX
  8
0
 10
-177.8
 20
-147.5938
 30
0.0
  0
VERTEX
  8
0
 10
-177.8
 20
-147.5438
 30
0.0
  0
VERTEX
  8
0
 10
-177.8
 20
-147.4938
 30
0.0
  0
VERTEX
  8
0
 10
-177.8
 20
-147.4438
 30
0.0
  0
VERTEX
  8
0
 10
-177.8
 20
-147.3938
 30
0.0
  0
VERTEX
  8
0
 10
-177.8
 20
-147.3438
 30
0.0
  0
VERTEX
  8
0
 10
-177.8
 20
-147.2938
 30
0.0
  0
VERTEX
  8
0
 10
-177.8
 20
-147.2438
 30
0.0
  0
VERTEX
  8
0
 10
-177.8
 20
-147.1938
 30
0.0
  0
VERTEX
  8
0
 10
-177.8
 20
-147.1438
 30
0.0
  0
VERTEX
  8
0
 10
-177.8
 20
-147.0938
 30
0.0
  0
VERTEX
  8
0
 10
-177.8
 20
-147.0438
 30
0.0
  0
VERTEX
  8
0
 10
-177.8
 20
-146.9938
 30
0.0
  0
VERTEX
  8
0
 10
-177.8
 20
-146.9438
 30
0.0
  0
VERTEX
  8
0
 10
-177.8
 20
-146.8938
 30
0.0
  0
VERTEX
  8
0
 10
-177.8
 20
-146.8438
 30
0.0
  0
VERTEX
  8
0
 10
-177.8
 20
-146.7938
 30
0.0
  0
VERTEX
  8
0
 10
-177.8
 20
-146.7438
 30
0.0
  0
VERTEX
  8
0
 10
-177.8
 20
-146.6938
 30
0.0
  0
VERTEX
  8
0
 10
-177.8
 20
-146.6438
 30
0.0
  0
VERTEX
  8
0
 10
-177.8
 20
-146.5938
 30
0.0
  0
VERTEX
  8
0
 10
-177.8
 20
-146.5438
 30
0.0
  0
VERTEX
  8
0
 10
-177.8
 20
-146.4938
 30
0.0
  0
VERTEX
  8
0
 10
-177.8
 20
-146.4438
 30
0.0
  0
VERTEX
  8
0
 10
-177.8
 20
-146.3938
 30
0.0
  0
VERTEX
  8
0
 10
-177.8
 20
-146.3438
 30
0.0
  0
VERTEX
  8
0
 10
-177.8
 20
-146.2938
 30
0.0
  0
VERTEX
  8
0
 10
-177.8
 20
-146.2438
 30
0.0
  0
VERTEX
  8
0
 10
-177.8
 20
-146.1938
 30
0.0
  0
VERTEX
  8
0
 10
-177.8
 20
-146.1438
 30
0.0
  0
VERTEX
  8
0
 10
-177.8
 20
-146.0938
 30
0.0
  0
VERTEX
  8
0
 10
-177.8
 20
-146.0438
 30
0.0
  0
VERTEX
  8
0
 10
-177.8
 20
-145.9938
 30
0.0
  0
VERTEX
  8
0
 10
-177.8
 20
-145.9438
 30
0.0
  0
VERTEX
  8
0
 10
-177.8
 20
-145.8938
 30
0.0
  0
VERTEX
  8
0
 10
-177.8
 20
-145.8438
 30
0.0
  0
VERTEX
  8
0
 10
-177.8
 20
-145.7938
 30
0.0
  0
VERTEX
  8
0
 10
-177.8
 20
-145.7438
 30
0.0
  0
VERTEX
  8
0
 10
-177.8
 20
-145.6938
 30
0.0
  0
VERTEX
  8
0
 10
-177.8
 20
-145.6438
 30
0.0
  0
VERTEX
  8
0
 10
-177.8
 20
-145.5938
 30
0.0
  0
VERTEX
  8
0
 10
-177.8
 20
-145.5438
 30
0.0
  0
VERTEX
  8
0
 10
-177.8
 20
-145.4938
 30
0.0
  0
VERTEX
  8
0
 10
-177.8
 20
-145.4438
 30
0.0
  0
VERTEX
  8
0
 10
-177.8
 20
-145.3938
 30
0.0
  0
VERTEX
  8
0
 10
-177.8
 20
-145.3438
 30
0.0
  0
VERTEX
  8
0
 10
-177.8
 20
-145.2938
 30
0.0
  0
VERTEX
  8
0
 10
-177.8
 20
-145.2438
 30
0.0
  0
VERTEX
  8
0
 10
-177.8
 20
-145.1938
 30
0.0
  0
VERTEX
  8
0
 10
-177.8
 20
-145.1438
 30
0.0
  0
VERTEX
  8
0
 10
-177.8
 20
-145.0938
 30
0.0
  0
VERTEX
  8
0
 10
-177.8
 20
-145.0438
 30
0.0
  0
VERTEX
  8
0
 10
-177.8
 20
-144.9938
 30
0.0
  0
VERTEX
  8
0
 10
-177.8
 20
-144.9438
 30
0.0
  0
VERTEX
  8
0
 10
-177.8
 20
-144.8938
 30
0.0
  0
VERTEX
  8
0
 10
-177.8
 20
-144.8438
 30
0.0
  0
VERTEX
  8
0
 10
-177.8
 20
-144.7938
 30
0.0
  0
VERTEX
  8
0
 10
-177.8
 20
-144.7438
 30
0.0
  0
VERTEX
  8
0
 10
-177.8
 20
-144.6938
 30
0.0
  0
VERTEX
  8
0
 10
-177.8
 20
-144.6438
 30
0.0
  0
VERTEX
  8
0
 10
-177.8
 20
-144.5938
 30
0.0
  0
VERTEX
  8
0
 10
-177.8
 20
-144.5438
 30
0.0
  0
VERTEX
  8
0
 10
-177.8
 20
-144.4938
 30
0.0
  0
VERTEX
  8
0
 10
-177.8
 20
-144.4438
 30
0.0
  0
VERTEX
  8
0
 10
-177.8
 20
-144.3938
 30
0.0
  0
VERTEX
  8
0
 10
-177.8
 20
-144.3438
 30
0.0
  0
VERTEX
  8
0
 10
-177.8
 20
-144.2938
 30
0.0
  0
VERTEX
  8
0
 10
-177.8
 20
-144.2438
 30
0.0
  0
VERTEX
  8
0
 10
-177.8
 20
-144.1938
 30
0.0
  0
VERTEX
  8
0
 10
-177.8
 20
-144.1438
 30
0.0
  0
VERTEX
  8
0
 10
-177.8
 20
-144.0938
 30
0.0
  0
VERTEX
  8
0
 10
-177.8
 20
-144.0438
 30
0.0
  0
VERTEX
  8
0
 10
-177.8
 20
-143.9938
 30
0.0
  0
VERTEX
  8
0
 10
-177.8
 20
-143.9438
 30
0.0
  0
VERTEX
  8
0
 10
-177.8
 20
-143.8938
 30
0.0
  0
VERTEX
  8
0
 10
-177.8
 20
-143.8438
 30
0.0
  0
VERTEX
  8
0
 10
-177.8
 20
-143.7938
 30
0.0
  0
VERTEX
  8
0
 10
-177.8
 20
-143.7438
 30
0.0
  0
VERTEX
  8
0
 10
-177.8
 20
-143.6938
 30
0.0
  0
VERTEX
  8
0
 10
-177.8
 20
-143.6438
 30
0.0
  0
VERTEX
  8
0
 10
-177.8
 20
-143.5938
 30
0.0
  0
VERTEX
  8
0
 10
-177.8
 20
-143.5438
 30
0.0
  0
VERTEX
  8
0
 10
-177.8
 20
-143.4938
 30
0.0
  0
VERTEX
  8
0
 10
-177.8
 20
-143.4438
 30
0.0
  0
VERTEX
  8
0
 10
-177.8
 20
-143.3938
 30
0.0
  0
VERTEX
  8
0
 10
-177.8
 20
-143.3438
 30
0.0
  0
VERTEX
  8
0
 10
-177.8
 20
-143.2938
 30
0.0
  0
VERTEX
  8
0
 10
-177.8
 20
-143.2438
 30
0.0
  0
VERTEX
  8
0
 10
-177.8
 20
-143.1938
 30
0.0
  0
VERTEX
  8
0
 10
-177.8
 20
-143.1438
 30
0.0
  0
VERTEX
  8
0
 10
-177.8
 20
-143.0938
 30
0.0
  0
VERTEX
  8
0
 10
-177.8
 20
-143.0438
 30
0.0
  0
VERTEX
  8
0
 10
-177.8
 20
-142.9938
 30
0.0
  0
VERTEX
  8
0
 10
-177.8
 20
-142.9438
 30
0.0
  0
VERTEX
  8
0
 10
-177.8
 20
-142.8938
 30
0.0
  0
VERTEX
  8
0
 10
-177.8
 20
-142.8438
 30
0.0
  0
VERTEX
  8
0
 10
-177.8
 20
-142.7938
 30
0.0
  0
VERTEX
  8
0
 10
-177.8
 20
-142.7438
 30
0.0
  0
VERTEX
  8
0
 10
-177.8
 20
-142.6938
 30
0.0
  0
VERTEX
  8
0
 10
-177.8
 20
-142.6438
 30
0.0
  0
VERTEX
  8
0
 10
-177.8
 20
-142.5938
 30
0.0
  0
VERTEX
  8
0
 10
-177.8
 20
-142.5438
 30
0.0
  0
VERTEX
  8
0
 10
-177.8
 20
-142.4938
 30
0.0
  0
VERTEX
  8
0
 10
-177.8
 20
-142.4438
 30
0.0
  0
VERTEX
  8
0
 10
-177.8
 20
-142.3938
 30
0.0
  0
VERTEX
  8
0
 10
-177.8
 20
-142.3438
 30
0.0
  0
VERTEX
  8
0
 10
-177.8
 20
-142.2938
 30
0.0
  0
VERTEX
  8
0
 10
-177.8
 20
-142.2438
 30
0.0
  0
VERTEX
  8
0
 10
-177.8
 20
-142.1938
 30
0.0
  0
VERTEX
  8
0
 10
-177.8
 20
-142.1438
 30
0.0
  0
VERTEX
  8
0
 10
-177.8
 20
-142.0938
 30
0.0
  0
VERTEX
  8
0
 10
-177.8
 20
-142.0438
 30
0.0
  0
VERTEX
  8
0
 10
-177.8
 20
-141.9938
 30
0.0
  0
VERTEX
  8
0
 10
-177.8
 20
-141.9438
 30
0.0
  0
VERTEX
  8
0
 10
-177.8
 20
-141.8938
 30
0.0
  0
VERTEX
  8
0
 10
-177.8
 20
-141.8438
 30
0.0
  0
VERTEX
  8
0
 10
-177.8
 20
-141.7938
 30
0.0
  0
VERTEX
  8
0
 10
-177.8
 20
-141.7438
 30
0.0
  0
VERTEX
  8
0
 10
-177.8
 20
-141.6938
 30
0.0
  0
VERTEX
  8
0
 10
-177.8
 20
-141.6438
 30
0.0
  0
VERTEX
  8
0
 10
-177.8
 20
-141.5938
 30
0.0
  0
VERTEX
  8
0
 10
-177.8
 20
-141.5438
 30
0.0
  0
VERTEX
  8
0
 10
-177.8
 20
-141.4938
 30
0.0
  0
VERTEX
  8
0
 10
-177.8
 20
-141.4438
 30
0.0
  0
VERTEX
  8
0
 10
-177.8
 20
-141.3938
 30
0.0
  0
VERTEX
  8
0
 10
-177.8
 20
-141.3438
 30
0.0
  0
VERTEX
  8
0
 10
-177.8
 20
-141.2938
 30
0.0
  0
VERTEX
  8
0
 10
-177.8
 20
-141.2438
 30
0.0
  0
VERTEX
  8
0
 10
-177.8
 20
-141.1938
 30
0.0
  0
VERTEX
  8
0
 10
-177.8
 20
-141.1438
 30
0.0
  0
VERTEX
  8
0
 10
-177.8
 20
-141.0938
 30
0.0
  0
VERTEX
  8
0
 10
-177.8
 20
-141.0438
 30
0.0
  0
VERTEX
  8
0
 10
-177.8
 20
-140.9938
 30
0.0
  0
VERTEX
  8
0
 10
-177.8
 20
-140.9438
 30
0.0
  0
VERTEX
  8
0
 10
-177.8
 20
-140.8938
 30
0.0
  0
VERTEX
  8
0
 10
-177.8
 20
-140.8438
 30
0.0
  0
VERTEX
  8
0
 10
-177.8
 20
-140.7938
 30
0.0
  0
VERTEX
  8
0
 10
-177.8
 20
-140.7438
 30
0.0
  0
VERTEX
  8
0
 10
-177.8
 20
-140.6938
 30
0.0
  0
VERTEX
  8
0
 10
-177.8
 20
-140.6438
 30
0.0
  0
VERTEX
  8
0
 10
-177.8
 20
-140.5938
 30
0.0
  0
VERTEX
  8
0
 10
-177.8
 20
-140.5438
 30
0.0
  0
VERTEX
  8
0
 10
-177.8
 20
-140.4938
 30
0.0
  0
VERTEX
  8
0
 10
-177.8
 20
-140.4438
 30
0.0
  0
VERTEX
  8
0
 10
-177.8
 20
-140.3938
 30
0.0
  0
VERTEX
  8
0
 10
-177.8
 20
-140.3438
 30
0.0
  0
VERTEX
  8
0
 10
-177.8
 20
-140.2938
 30
0.0
  0
VERTEX
  8
0
 10
-177.8
 20
-140.2438
 30
0.0
  0
VERTEX
  8
0
 10
-177.8
 20
-140.1938
 30
0.0
  0
VERTEX
  8
0
 10
-177.8
 20
-140.1438
 30
0.0
  0
VERTEX
  8
0
 10
-177.8
 20
-140.0938
 30
0.0
  0
VERTEX
  8
0
 10
-177.8
 20
-140.0438
 30
0.0
  0
VERTEX
  8
0
 10
-177.8
 20
-139.9938
 30
0.0
  0
VERTEX
  8
0
 10
-177.8
 20
-139.9438
 30
0.0
  0
VERTEX
  8
0
 10
-177.8
 20
-139.8938
 30
0.0
  0
VERTEX
  8
0
 10
-177.8
 20
-139.8438
 30
0.0
  0
VERTEX
  8
0
 10
-177.8
 20
-139.7938
 30
0.0
  0
VERTEX
  8
0
 10
-177.8
 20
-139.7438
 30
0.0
  0
VERTEX
  8
0
 10
-177.8
 20
-139.6938
 30
0.0
  0
VERTEX
  8
0
 10
-177.8
 20
-139.6438
 30
0.0
  0
VERTEX
  8
0
 10
-177.8
 20
-139.5938
 30
0.0
  0
VERTEX
  8
0
 10
-177.8
 20
-139.5438
 30
0.0
  0
VERTEX
  8
0
 10
-177.8
 20
-139.4938
 30
0.0
  0
VERTEX
  8
0
 10
-177.8
 20
-139.4438
 30
0.0
  0
VERTEX
  8
0
 10
-177.8
 20
-139.3938
 30
0.0
  0
VERTEX
  8
0
 10
-177.8
 20
-139.3438
 30
0.0
  0
VERTEX
  8
0
 10
-177.8
 20
-139.2938
 30
0.0
  0
VERTEX
  8
0
 10
-177.8
 20
-139.2438
 30
0.0
  0
VERTEX
  8
0
 10
-177.8
 20
-139.1938
 30
0.0
  0
VERTEX
  8
0
 10
-177.8
 20
-139.1438
 30
0.0
  0
VERTEX
  8
0
 10
-177.8
 20
-139.0938
 30
0.0
  0
VERTEX
  8
0
 10
-177.8
 20
-139.0438
 30
0.0
  0
VERTEX
  8
0
 10
-177.8
 20
-138.9938
 30
0.0
  0
VERTEX
  8
0
 10
-177.8
 20
-138.9438
 30
0.0
  0
VERTEX
  8
0
 10
-177.8
 20
-138.8938
 30
0.0
  0
VERTEX
  8
0
 10
-177.8
 20
-138.8438
 30
0.0
  0
VERTEX
  8
0
 10
-177.8
 20
-138.7938
 30
0.0
  0
VERTEX
  8
0
 10
-177.8
 20
-138.7438
 30
0.0
  0
VERTEX
  8
0
 10
-177.8
 20
-138.6938
 30
0.0
  0
VERTEX
  8
0
 10
-177.8
 20
-138.6438
 30
0.0
  0
VERTEX
  8
0
 10
-177.8
 20
-138.5938
 30
0.0
  0
VERTEX
  8
0
 10
-177.8
 20
-138.5438
 30
0.0
  0
VERTEX
  8
0
 10
-177.8
 20
-138.4938
 30
0.0
  0
VERTEX
  8
0
 10
-177.8
 20
-138.4438
 30
0.0
  0
VERTEX
  8
0
 10
-177.8
 20
-138.3938
 30
0.0
  0
VERTEX
  8
0
 10
-177.8
 20
-138.3438
 30
0.0
  0
VERTEX
  8
0
 10
-177.8
 20
-138.2938
 30
0.0
  0
VERTEX
  8
0
 10
-177.8
 20
-138.2438
 30
0.0
  0
VERTEX
  8
0
 10
-177.8
 20
-138.1938
 30
0.0
  0
VERTEX
  8
0
 10
-177.8
 20
-138.1438
 30
0.0
  0
VERTEX
  8
0
 10
-177.8
 20
-138.0938
 30
0.0
  0
VERTEX
  8
0
 10
-177.8
 20
-138.0438
 30
0.0
  0
VERTEX
  8
0
 10
-177.8
 20
-137.9938
 30
0.0
  0
VERTEX
  8
0
 10
-177.8
 20
-137.9438
 30
0.0
  0
VERTEX
  8
0
 10
-177.8
 20
-137.8938
 30
0.0
  0
VERTEX
  8
0
 10
-177.8
 20
-137.8438
 30
0.0
  0
VERTEX
  8
0
 10
-177.8
 20
-137.7938
 30
0.0
  0
VERTEX
  8
0
 10
-177.8
 20
-137.7438
 30
0.0
  0
VERTEX
  8
0
 10
-177.8
 20
-137.6938
 30
0.0
  0
VERTEX
  8
0
 10
-177.8
 20
-137.6438
 30
0.0
  0
VERTEX
  8
0
 10
-177.8
 20
-137.5938
 30
0.0
  0
VERTEX
  8
0
 10
-177.8
 20
-137.5438
 30
0.0
  0
VERTEX
  8
0
 10
-177.8
 20
-137.4938
 30
0.0
  0
VERTEX
  8
0
 10
-177.8
 20
-137.4438
 30
0.0
  0
VERTEX
  8
0
 10
-177.8
 20
-137.3938
 30
0.0
  0
VERTEX
  8
0
 10
-177.8
 20
-137.3438
 30
0.0
  0
VERTEX
  8
0
 10
-177.8
 20
-137.2938
 30
0.0
  0
VERTEX
  8
0
 10
-177.8
 20
-137.2438
 30
0.0
  0
VERTEX
  8
0
 10
-177.8
 20
-137.1938
 30
0.0
  0
VERTEX
  8
0
 10
-177.8
 20
-137.1438
 30
0.0
  0
VERTEX
  8
0
 10
-177.8
 20
-137.0938
 30
0.0
  0
VERTEX
  8
0
 10
-177.8
 20
-137.0438
 30
0.0
  0
VERTEX
  8
0
 10
-177.8
 20
-136.9938
 30
0.0
  0
VERTEX
  8
0
 10
-177.8
 20
-136.9438
 30
0.0
  0
VERTEX
  8
0
 10
-177.8
 20
-136.8938
 30
0.0
  0
VERTEX
  8
0
 10
-177.8
 20
-136.8438
 30
0.0
  0
VERTEX
  8
0
 10
-177.8
 20
-136.7938
 30
0.0
  0
VERTEX
  8
0
 10
-177.8
 20
-136.7438
 30
0.0
  0
VERTEX
  8
0
 10
-177.8
 20
-136.6938
 30
0.0
  0
VERTEX
  8
0
 10
-177.8
 20
-136.6438
 30
0.0
  0
VERTEX
  8
0
 10
-177.8
 20
-136.5938
 30
0.0
  0
VERTEX
  8
0
 10
-177.8
 20
-136.5438
 30
0.0
  0
VERTEX
  8
0
 10
-177.8
 20
-136.4938
 30
0.0
  0
VERTEX
  8
0
 10
-177.8
 20
-136.4438
 30
0.0
  0
VERTEX
  8
0
 10
-177.8
 20
-136.3938
 30
0.0
  0
VERTEX
  8
0
 10
-177.8
 20
-136.3438
 30
0.0
  0
VERTEX
  8
0
 10
-177.8
 20
-136.2938
 30
0.0
  0
VERTEX
  8
0
 10
-177.8
 20
-136.2438
 30
0.0
  0
VERTEX
  8
0
 10
-177.8
 20
-136.1938
 30
0.0
  0
VERTEX
  8
0
 10
-177.8
 20
-136.1438
 30
0.0
  0
VERTEX
  8
0
 10
-177.8
 20
-136.0938
 30
0.0
  0
VERTEX
  8
0
 10
-177.8
 20
-136.0438
 30
0.0
  0
VERTEX
  8
0
 10
-177.8
 20
-135.9938
 30
0.0
  0
VERTEX
  8
0
 10
-177.8
 20
-135.9438
 30
0.0
  0
VERTEX
  8
0
 10
-177.8
 20
-135.8938
 30
0.0
  0
VERTEX
  8
0
 10
-177.8
 20
-135.8438
 30
0.0
  0
VERTEX
  8
0
 10
-177.8
 20
-135.7938
 30
0.0
  0
VERTEX
  8
0
 10
-177.8
 20
-135.7438
 30
0.0
  0
VERTEX
  8
0
 10
-177.8
 20
-135.6938
 30
0.0
  0
VERTEX
  8
0
 10
-177.8
 20
-135.6438
 30
0.0
  0
VERTEX
  8
0
 10
-177.8
 20
-135.5938
 30
0.0
  0
VERTEX
  8
0
 10
-177.8
 20
-135.5438
 30
0.0
  0
VERTEX
  8
0
 10
-177.8
 20
-135.4938
 30
0.0
  0
VERTEX
  8
0
 10
-177.8
 20
-135.4438
 30
0.0
  0
VERTEX
  8
0
 10
-177.8
 20
-135.3938
 30
0.0
  0
VERTEX
  8
0
 10
-177.8
 20
-135.3438
 30
0.0
  0
VERTEX
  8
0
 10
-177.8
 20
-135.2938
 30
0.0
  0
VERTEX
  8
0
 10
-177.8
 20
-135.2438
 30
0.0
  0
VERTEX
  8
0
 10
-177.8
 20
-135.1938
 30
0.0
  0
VERTEX
  8
0
 10
-177.8
 20
-135.1438
 30
0.0
  0
VERTEX
  8
0
 10
-177.8
 20
-135.0938
 30
0.0
  0
VERTEX
  8
0
 10
-177.8
 20
-135.0438
 30
0.0
  0
VERTEX
  8
0
 10
-177.8
 20
-134.9938
 30
0.0
  0
VERTEX
  8
0
 10
-177.8
 20
-134.9438
 30
0.0
  0
VERTEX
  8
0
 10
-177.8
 20
-134.8938
 30
0.0
  0
VERTEX
  8
0
 10
-177.8
 20
-134.8438
 30
0.0
  0
VERTEX
  8
0
 10
-177.8
 20
-134.7938
 30
0.0
  0
VERTEX
  8
0
 10
-177.8
 20
-134.7438
 30
0.0
  0
VERTEX
  8
0
 10
-177.8
 20
-134.6938
 30
0.0
  0
VERTEX
  8
0
 10
-177.8
 20
-134.6438
 30
0.0
  0
VERTEX
  8
0
 10
-177.8
 20
-134.5938
 30
0.0
  0
VERTEX
  8
0
 10
-177.8
 20
-134.5438
 30
0.0
  0
VERTEX
  8
0
 10
-177.8
 20
-134.4938
 30
0.0
  0
VERTEX
  8
0
 10
-177.8
 20
-134.4438
 30
0.0
  0
VERTEX
  8
0
 10
-177.8
 20
-134.3938
 30
0.0
  0
VERTEX
  8
0
 10
-177.8
 20
-134.3438
 30
0.0
  0
VERTEX
  8
0
 10
-177.8
 20
-134.2938
 30
0.0
  0
VERTEX
  8
0
 10
-177.8
 20
-134.2438
 30
0.0
  0
VERTEX
  8
0
 10
-177.8
 20
-134.1938
 30
0.0
  0
VERTEX
  8
0
 10
-177.8
 20
-134.1438
 30
0.0
  0
VERTEX
  8
0
 10
-177.8
 20
-134.0938
 30
0.0
  0
VERTEX
  8
0
 10
-177.8
 20
-134.0438
 30
0.0
  0
VERTEX
  8
0
 10
-177.8
 20
-133.9938
 30
0.0
  0
VERTEX
  8
0
 10
-177.8
 20
-133.9438
 30
0.0
  0
VERTEX
  8
0
 10
-177.8
 20
-133.8938
 30
0.0
  0
VERTEX
  8
0
 10
-177.8
 20
-133.8438
 30
0.0
  0
VERTEX
  8
0
 10
-177.8
 20
-133.7938
 30
0.0
  0
VERTEX
  8
0
 10
-177.8
 20
-133.7438
 30
0.0
  0
VERTEX
  8
0
 10
-177.8
 20
-133.6938
 30
0.0
  0
VERTEX
  8
0
 10
-177.8
 20
-133.6438
 30
0.0
  0
VERTEX
  8
0
 10
-177.8
 20
-133.5938
 30
0.0
  0
VERTEX
  8
0
 10
-177.8
 20
-133.5438
 30
0.0
  0
VERTEX
  8
0
 10
-177.8
 20
-133.4938
 30
0.0
  0
VERTEX
  8
0
 10
-177.8
 20
-133.4438
 30
0.0
  0
VERTEX
  8
0
 10
-177.8
 20
-133.3938
 30
0.0
  0
VERTEX
  8
0
 10
-177.8
 20
-133.3438
 30
0.0
  0
VERTEX
  8
0
 10
-177.8
 20
-133.2938
 30
0.0
  0
VERTEX
  8
0
 10
-177.8
 20
-133.2438
 30
0.0
  0
VERTEX
  8
0
 10
-177.8
 20
-133.1938
 30
0.0
  0
VERTEX
  8
0
 10
-177.8
 20
-133.1438
 30
0.0
  0
VERTEX
  8
0
 10
-177.8
 20
-133.0938
 30
0.0
  0
VERTEX
  8
0
 10
-177.8
 20
-133.0438
 30
0.0
  0
VERTEX
  8
0
 10
-177.8
 20
-132.9938
 30
0.0
  0
VERTEX
  8
0
 10
-177.8
 20
-132.9438
 30
0.0
  0
VERTEX
  8
0
 10
-177.8
 20
-132.8938
 30
0.0
  0
VERTEX
  8
0
 10
-177.8
 20
-132.8438
 30
0.0
  0
VERTEX
  8
0
 10
-177.8
 20
-132.7938
 30
0.0
  0
VERTEX
  8
0
 10
-177.8
 20
-132.7438
 30
0.0
  0
VERTEX
  8
0
 10
-177.8
 20
-132.6938
 30
0.0
  0
VERTEX
  8
0
 10
-177.8
 20
-132.6438
 30
0.0
  0
VERTEX
  8
0
 10
-177.8
 20
-132.5938
 30
0.0
  0
VERTEX
  8
0
 10
-177.8
 20
-132.5438
 30
0.0
  0
VERTEX
  8
0
 10
-177.8
 20
-132.4938
 30
0.0
  0
VERTEX
  8
0
 10
-177.8
 20
-132.4438
 30
0.0
  0
VERTEX
  8
0
 10
-177.8
 20
-132.3938
 30
0.0
  0
VERTEX
  8
0
 10
-177.8
 20
-132.3438
 30
0.0
  0
VERTEX
  8
0
 10
-177.8
 20
-132.2938
 30
0.0
  0
VERTEX
  8
0
 10
-177.8
 20
-132.2438
 30
0.0
  0
VERTEX
  8
0
 10
-177.8
 20
-132.1938
 30
0.0
  0
VERTEX
  8
0
 10
-177.8
 20
-132.1438
 30
0.0
  0
VERTEX
  8
0
 10
-177.8
 20
-132.0938
 30
0.0
  0
VERTEX
  8
0
 10
-177.8
 20
-132.0438
 30
0.0
  0
VERTEX
  8
0
 10
-177.8
 20
-131.9938
 30
0.0
  0
VERTEX
  8
0
 10
-177.8
 20
-131.9438
 30
0.0
  0
VERTEX
  8
0
 10
-177.8
 20
-131.8938
 30
0.0
  0
VERTEX
  8
0
 10
-177.8
 20
-131.8438
 30
0.0
  0
VERTEX
  8
0
 10
-177.8
 20
-131.7938
 30
0.0
  0
VERTEX
  8
0
 10
-177.8
 20
-131.7438
 30
0.0
  0
VERTEX
  8
0
 10
-177.8
 20
-131.6938
 30
0.0
  0
VERTEX
  8
0
 10
-177.8
 20
-131.6438
 30
0.0
  0
VERTEX
  8
0
 10
-177.8
 20
-131.5938
 30
0.0
  0
VERTEX
  8
0
 10
-177.8
 20
-131.5438
 30
0.0
  0
VERTEX
  8
0
 10
-177.8
 20
-131.4938
 30
0.0
  0
VERTEX
  8
0
 10
-177.8
 20
-131.4438
 30
0.0
  0
VERTEX
  8
0
 10
-177.8
 20
-131.3938
 30
0.0
  0
VERTEX
  8
0
 10
-177.8
 20
-131.3438
 30
0.0
  0
VERTEX
  8
0
 10
-177.8
 20
-131.2938
 30
0.0
  0
VERTEX
  8
0
 10
-177.8
 20
-131.2438
 30
0.0
  0
VERTEX
  8
0
 10
-177.8
 20
-131.1938
 30
0.0
  0
VERTEX
  8
0
 10
-177.8
 20
-131.1438
 30
0.0
  0
VERTEX
  8
0
 10
-177.8
 20
-131.0938
 30
0.0
  0
VERTEX
  8
0
 10
-177.8
 20
-131.0438
 30
0.0
  0
VERTEX
  8
0
 10
-177.8
 20
-130.9938
 30
0.0
  0
VERTEX
  8
0
 10
-177.8
 20
-130.9438
 30
0.0
  0
VERTEX
  8
0
 10
-177.8
 20
-130.8938
 30
0.0
  0
VERTEX
  8
0
 10
-177.8
 20
-130.8438
 30
0.0
  0
VERTEX
  8
0
 10
-177.8
 20
-130.7938
 30
0.0
  0
VERTEX
  8
0
 10
-177.8
 20
-130.7438
 30
0.0
  0
VERTEX
  8
0
 10
-177.8
 20
-130.6938
 30
0.0
  0
VERTEX
  8
0
 10
-177.8
 20
-130.6438
 30
0.0
  0
VERTEX
  8
0
 10
-177.8
 20
-130.5938
 30
0.0
  0
VERTEX
  8
0
 10
-177.8
 20
-130.5438
 30
0.0
  0
VERTEX
  8
0
 10
-177.8
 20
-130.4938
 30
0.0
  0
VERTEX
  8
0
 10
-177.8
 20
-130.4438
 30
0.0
  0
VERTEX
  8
0
 10
-177.8
 20
-130.3938
 30
0.0
  0
VERTEX
  8
0
 10
-177.8
 20
-130.3438
 30
0.0
  0
VERTEX
  8
0
 10
-177.8
 20
-130.2938
 30
0.0
  0
VERTEX
  8
0
 10
-177.8
 20
-130.2438
 30
0.0
  0
VERTEX
  8
0
 10
-177.8
 20
-130.1938
 30
0.0
  0
VERTEX
  8
0
 10
-177.8
 20
-130.1438
 30
0.0
  0
VERTEX
  8
0
 10
-177.8
 20
-130.0938
 30
0.0
  0
VERTEX
  8
0
 10
-177.8
 20
-130.0438
 30
0.0
  0
VERTEX
  8
0
 10
-177.8
 20
-129.9938
 30
0.0
  0
VERTEX
  8
0
 10
-177.8
 20
-129.9438
 30
0.0
  0
VERTEX
  8
0
 10
-177.8
 20
-129.8938
 30
0.0
  0
VERTEX
  8
0
 10
-177.8
 20
-129.8438
 30
0.0
  0
VERTEX
  8
0
 10
-177.8
 20
-129.7938
 30
0.0
  0
SEQEND
  8
0
  0
LINE
  8
0
 62
0
 10
-165.1
 20
243.68125
 30
0.0
 11
-177.8
 21
243.68125
 31
0.0
  0
LINE
  8
0
 62
0
 10
-165.1
 20
243.68125
 30
0.0
 11
-165.1
 21
240.50625
 31
0.0
  0
LINE
  8
0
 62
0
 10
-177.8
 20
243.68125
 30
0.0
 11
-177.8
 21
237.33125
 31
0.0
  0
LINE
  8
0
 62
0
 10
-165.1
 20
240.50625
 30
0.0
 11
-177.8
 21
240.50625
 31
0.0
  0
LINE
  8
0
 62
0
 10
-165.1
 20
115.09375
 30
0.0
 11
-177.8
 21
115.09375
 31
0.0
  0
LINE
  8
0
 62
0
 10
-165.1
 20
240.50625
 30
0.0
 11
-165.1
 21
115.09375
 31
0.0
  0
LINE
  8
0
 62
0
 10
-177.8
 20
240.50625
 30
0.0
 11
-177.8
 21
115.09375
 31
0.0
  0
LINE
  8
0
 62
0
 10
-165.1
 20
115.09375
 30
0.0
 11
-165.1
 21
102.39375
 31
0.0
  0
LINE
  8
0
 62
0
 10
-177.8
 20
118.26875
 30
0.0
 11
-177.8
 21
102.39375
 31
0.0
  0
LINE
  8
0
 62
0
 10
-165.1
 20
102.39375
 30
0.0
 11
-177.8
 21
102.39375
 31
0.0
  0
LINE
  8
0
 62
0
 10
-165.1
 20
89.69375
 30
0.0
 11
-177.8
 21
89.69375
 31
0.0
  0
LINE
  8
0
 62
0
 10
-165.1
 20
102.39375
 30
0.0
 11
-165.1
 21
89.69375
 31
0.0
  0
LINE
  8
0
 62
0
 10
-177.8
 20
102.39375
 30
0.0
 11
-177.8
 21
89.69375
 31
0.0
  0
LINE
  8
0
 62
0
 10
-165.1
 20
89.69375
 30
0.0
 11
-165.1
 21
86.51875
 31
0.0
  0
LINE
  8
0
 62
0
 10
-177.8
 20
92.86875
 30
0.0
 11
-177.8
 21
86.51875
 31
0.0
  0
LINE
  8
0
 62
0
 10
-165.1
 20
86.51875
 30
0.0
 11
-177.8
 21
86.51875
 31
0.0
  0
LINE
  8
0
 62
0
 10
-165.1
 20
78.58125
 30
0.0
 11
-177.8
 21
78.58125
 31
0.0
  0
LINE
  8
0
 62
0
 10
-165.1
 20
86.51875
 30
0.0
 11
-165.1
 21
78.58125
 31
0.0
  0
LINE
  8
0
 62
0
 10
-177.8
 20
86.51875
 30
0.0
 11
-177.8
 21
78.58125
 31
0.0
  0
LINE
  8
0
 62
0
 10
-165.1
 20
78.58125
 30
0.0
 11
-165.1
 21
75.40625
 31
0.0
  0
LINE
  8
0
 62
0
 10
-177.8
 20
78.58125
 30
0.0
 11
-177.8
 21
72.23125
 31
0.0
  0
LINE
  8
0
 62
0
 10
-165.1
 20
75.40625
 30
0.0
 11
-177.8
 21
75.40625
 31
0.0
  0
LINE
  8
0
 62
0
 10
-165.1
 20
-75.40625
 30
0.0
 11
-177.8
 21
-75.40625
 31
0.0
  0
LINE
  8
0
 62
0
 10
-165.1
 20
75.40625
 30
0.0
 11
-165.1
 21
-75.40625
 31
0.0
  0
LINE
  8
0
 62
0
 10
-177.8
 20
75.40625
 30
0.0
 11
-177.8
 21
-75.40625
 31
0.0
  0
LINE
  8
0
 62
0
 10
-165.1
 20
-78.58125
 30
0.0
 11
-177.8
 21
-78.58125
 31
0.0
  0
LINE
  8
0
 62
0
 10
-165.1
 20
-75.40625
 30
0.0
 11
-165.1
 21
-78.58125
 31
0.0
  0
LINE
  8
0
 62
0
 10
-177.8
 20
-72.23125
 30
0.0
 11
-177.8
 21
-78.58125
 31
0.0
  0
LINE
  8
0
 62
0
 10
-165.1
 20
-78.58125
 30
0.0
 11
-177.8
 21
-78.58125
 31
0.0
  0
LINE
  8
0
 62
0
 10
-165.1
 20
-86.51875
 30
0.0
 11
-177.8
 21
-86.51875
 31
0.0
  0
LINE
  8
0
 62
0
 10
-165.1
 20
-78.58125
 30
0.0
 11
-165.1
 21
-86.51875
 31
0.0
  0
LINE
  8
0
 62
0
 10
-177.8
 20
-78.58125
 30
0.0
 11
-177.8
 21
-86.51875
 31
0.0
  0
LINE
  8
0
 62
0
 10
-165.1
 20
-86.51875
 30
0.0
 11
-177.8
 21
-86.51875
 31
0.0
  0
LINE
  8
0
 62
0
 10
-165.1
 20
-86.51875
 30
0.0
 11
-165.1
 21
-89.69375
 31
0.0
  0
LINE
  8
0
 62
0
 10
-177.8
 20
-86.51875
 30
0.0
 11
-177.8
 21
-92.86875
 31
0.0
  0
LINE
  8
0
 62
0
 10
-165.1
 20
-89.69375
 30
0.0
 11
-177.8
 21
-89.69375
 31
0.0
  0
LINE
  8
0
 62
0
 10
-165.1
 20
-215.9
 30
0.0
 11
-177.8
 21
-215.9
 31
0.0
  0
LINE
  8
0
 62
0
 10
-165.1
 20
-89.69375
 30
0.0
 11
-165.1
 21
-215.9
 31
0.0
  0
LINE
  8
0
 62
0
 10
-177.8
 20
-89.69375
 30
0.0
 11
-177.8
 21
-215.9
 31
0.0
  0
LINE
  8
0
 62
0
 10
-177.8
 20
-192.88125
 30
0.0
 11
-177.8
 21
-196.05625
 31
0.0
  0
LINE
  8
0
 62
0
 10
-177.8
 20
-89.69375
 30
0.0
 11
-177.8
 21
-91.6938
 31
0.0
  0
LINE
  8
0
 62
0
 10
-177.8
 20
-72.23125
 30
0.0
 11
-177.8
 21
-75.40625
 31
0.0
  0
LINE
  8
0
 62
0
 10
-177.8
 20
75.40625
 30
0.0
 11
-177.8
 21
72.23125
 31
0.0
  0
LINE
  8
0
 62
0
 10
-177.8
 20
92.471875
 30
0.0
 11
-177.8
 21
89.296875
 31
0.0
  0
LINE
  8
0
 62
0
 10
-177.8
 20
105.56875
 30
0.0
 11
-177.8
 21
102.39375
 31
0.0
  0
LINE
  8
0
 62
0
 10
-177.8
 20
227.0125
 30
0.0
 11
-177.8
 21
223.8375
 31
0.0
  0
LINE
  8
0
 62
0
 10
-177.8
 20
240.50625
 30
0.0
 11
-177.8
 21
237.33125
 31
0.0
  0
LINE
  8
0
 62
0
 10
-165.1
 20
254.0
 30
0.0
 11
-177.8
 21
254.0
 31
0.0
  0
LINE
  8
0
 62
0
 10
-165.1
 20
243.68125
 30
0.0
 11
-165.1
 21
254.0
 31
0.0
  0
LINE
  8
0
 62
0
 10
-177.8
 20
243.68125
 30
0.0
 11
-177.8
 21
254.0
 31
0.0
  0
ENDBLK
  0
ENDSEC
  0
SECTION
  2
ENTITIES
  0
INSERT
  2
PAD
  8
0
 62
0
 10
0.0
 20
0.0
 30
0.0
  0
ENDSEC
  0
EOF
