ISO-10303-21;
HEADER;
FILE_DESCRIPTION (( 'STEP AP203' ),
    '1' );
FILE_NAME ('GuardSide.STEP',
    '2012-06-25T19:44:43',
    ( '' ),
    ( '' ),
    'SwSTEP 2.0',
    'SolidWorks 2010',
    '' );
FILE_SCHEMA (( 'CONFIG_CONTROL_DESIGN' ));
ENDSEC;

DATA;
#1 = PRODUCT ( 'GuardSide', 'GuardSide', '', ( #179 ) ) ;
#2 = ADVANCED_FACE ( 'NONE', ( #40 ), #43, .F. ) ;
#3 = ADVANCED_FACE ( 'NONE', ( #39 ), #119, .F. ) ;
#4 = ADVANCED_FACE ( 'NONE', ( #41 ), #46, .T. ) ;
#5 = ADVANCED_FACE ( 'NONE', ( #28 ), #115, .F. ) ;
#6 = ADVANCED_FACE ( 'NONE', ( #42 ), #138, .T. ) ;
#7 = ADVANCED_FACE ( 'NONE', ( #44 ), #148, .F. ) ;
#8 = PERSON ( 'UNSPECIFIED', 'UNSPECIFIED', 'UNSPECIFIED', ('UNSPECIFIED'), ('UNSPECIFIED'), ('UNSPECIFIED') ) ;
#9 = ORIENTED_EDGE ( 'NONE', *, *, #197, .F. ) ;
#10 = ORIENTED_EDGE ( 'NONE', *, *, #211, .F. ) ;
#11 = ORIENTED_EDGE ( 'NONE', *, *, #213, .T. ) ;
#12 = ORIENTED_EDGE ( 'NONE', *, *, #202, .T. ) ;
#13 = ORIENTED_EDGE ( 'NONE', *, *, #217, .T. ) ;
#14 = ORIENTED_EDGE ( 'NONE', *, *, #198, .F. ) ;
#15 = ORIENTED_EDGE ( 'NONE', *, *, #212, .F. ) ;
#16 = ORIENTED_EDGE ( 'NONE', *, *, #211, .T. ) ;
#17 = ORIENTED_EDGE ( 'NONE', *, *, #205, .T. ) ;
#18 = ORIENTED_EDGE ( 'NONE', *, *, #198, .T. ) ;
#19 = ORIENTED_EDGE ( 'NONE', *, *, #213, .F. ) ;
#20 = ORIENTED_EDGE ( 'NONE', *, *, #204, .F. ) ;
#21 = ORIENTED_EDGE ( 'NONE', *, *, #201, .F. ) ;
#22 = ORIENTED_EDGE ( 'NONE', *, *, #197, .T. ) ;
#23 = ORIENTED_EDGE ( 'NONE', *, *, #205, .F. ) ;
#24 = ORIENTED_EDGE ( 'NONE', *, *, #212, .T. ) ;
#25 = ORIENTED_EDGE ( 'NONE', *, *, #200, .T. ) ;
#26 = ORIENTED_EDGE ( 'NONE', *, *, #201, .T. ) ;
#27 = ORIENTED_EDGE ( 'NONE', *, *, #204, .T. ) ;
#28 = FACE_OUTER_BOUND ( 'NONE', #34, .T. ) ;
#29 = ORIENTED_EDGE ( 'NONE', *, *, #202, .F. ) ;
#30 = ORIENTED_EDGE ( 'NONE', *, *, #217, .F. ) ;
#31 = ORIENTED_EDGE ( 'NONE', *, *, #214, .F. ) ;
#32 = CLOSED_SHELL ( 'NONE', ( #2, #3, #4, #7, #6, #5 ) ) ;
#33 = EDGE_LOOP ( 'NONE', ( #20, #19, #17, #18 ) ) ;
#34 = EDGE_LOOP ( 'NONE', ( #27, #30, #29, #31 ) ) ;
#35 = EDGE_LOOP ( 'NONE', ( #12, #15, #9, #16 ) ) ;
#36 = EDGE_LOOP ( 'NONE', ( #102, #10, #101, #11 ) ) ;
#37 = EDGE_LOOP ( 'NONE', ( #23, #25, #22, #26 ) ) ;
#38 = EDGE_LOOP ( 'NONE', ( #13, #14, #21, #24 ) ) ;
#39 = FACE_OUTER_BOUND ( 'NONE', #36, .T. ) ;
#40 = FACE_OUTER_BOUND ( 'NONE', #33, .T. ) ;
#41 = FACE_OUTER_BOUND ( 'NONE', #35, .T. ) ;
#42 = FACE_OUTER_BOUND ( 'NONE', #37, .T. ) ;
#43 = CYLINDRICAL_SURFACE ( 'NONE', #203, 75.00000000000001400 ) ;
#44 = FACE_OUTER_BOUND ( 'NONE', #38, .T. ) ;
#45 = LINE ( 'NONE', #162, #49 ) ;
#46 = CYLINDRICAL_SURFACE ( 'NONE', #208, 200.0000000000000000 ) ;
#47 = LINE ( 'NONE', #147, #52 ) ;
#48 = LINE ( 'NONE', #131, #50 ) ;
#49 = VECTOR ( 'NONE', #163, 1000.000000000000000 ) ;
#50 = VECTOR ( 'NONE', #110, 1000.000000000000000 ) ;
#51 = CIRCLE ( 'NONE', #219, 200.0000000000000000 ) ;
#52 = VECTOR ( 'NONE', #132, 1000.000000000000000 ) ;
#53 = LINE ( 'NONE', #166, #63 ) ;
#54 = LINE ( 'NONE', #152, #55 ) ;
#55 = VECTOR ( 'NONE', #153, 1000.000000000000000 ) ;
#56 = CIRCLE ( 'NONE', #206, 200.0000000000000000 ) ;
#57 = CIRCLE ( 'NONE', #218, 75.00000000000001400 ) ;
#58 = LINE ( 'NONE', #142, #62 ) ;
#59 = CIRCLE ( 'NONE', #207, 75.00000000000001400 ) ;
#60 = LINE ( 'NONE', #164, #61 ) ;
#61 = VECTOR ( 'NONE', #165, 1000.000000000000000 ) ;
#62 = VECTOR ( 'NONE', #167, 1000.000000000000000 ) ;
#63 = VECTOR ( 'NONE', #168, 1000.000000000000000 ) ;
#64 = LINE ( 'NONE', #170, #65 ) ;
#65 = VECTOR ( 'NONE', #171, 1000.000000000000000 ) ;
#66 = PERSON_AND_ORGANIZATION ( #8, #81 ) ;
#67 = COORDINATED_UNIVERSAL_TIME_OFFSET ( 6, 0, .BEHIND. ) ;
#68 = APPROVAL_PERSON_ORGANIZATION ( #82, #221, #184 ) ;
#69 = DATE_AND_TIME ( #100, #74 ) ;
#70 = PERSON_AND_ORGANIZATION ( #8, #81 ) ;
#71 =( GEOMETRIC_REPRESENTATION_CONTEXT ( 3 ) GLOBAL_UNCERTAINTY_ASSIGNED_CONTEXT ( ( #240 ) ) GLOBAL_UNIT_ASSIGNED_CONTEXT ( ( #169, #172, #173 ) ) REPRESENTATION_CONTEXT ( 'NONE', 'WORKASPACE' ) );
#72 = CALENDAR_DATE ( 2012, 25, 6 ) ;
#73 = COORDINATED_UNIVERSAL_TIME_OFFSET ( 6, 0, .BEHIND. ) ;
#74 = LOCAL_TIME ( 14, 44, 43.00000000000000000, #67 ) ;
#75 = LOCAL_TIME ( 14, 44, 43.00000000000000000, #73 ) ;
#76 = PERSON_AND_ORGANIZATION ( #8, #81 ) ;
#77 = PERSON_AND_ORGANIZATION ( #8, #81 ) ;
#78 = PERSON_AND_ORGANIZATION ( #8, #81 ) ;
#79 = PERSON_AND_ORGANIZATION ( #8, #81 ) ;
#80 = APPROVAL_DATE_TIME ( #87, #226 ) ;
#81 = ORGANIZATION ( 'UNSPECIFIED', 'UNSPECIFIED', '' ) ;
#82 = PERSON_AND_ORGANIZATION ( #8, #81 ) ;
#83 = DATE_AND_TIME ( #72, #75 ) ;
#84 = LOCAL_TIME ( 14, 44, 43.00000000000000000, #104 ) ;
#85 = LOCAL_TIME ( 14, 44, 43.00000000000000000, #88 ) ;
#86 = CALENDAR_DATE ( 2012, 25, 6 ) ;
#87 = DATE_AND_TIME ( #86, #94 ) ;
#88 = COORDINATED_UNIVERSAL_TIME_OFFSET ( 6, 0, .BEHIND. ) ;
#89 = APPROVAL_DATE_TIME ( #69, #233 ) ;
#90 = COORDINATED_UNIVERSAL_TIME_OFFSET ( 6, 0, .BEHIND. ) ;
#91 = DATE_AND_TIME ( #98, #85 ) ;
#92 = SHAPE_DEFINITION_REPRESENTATION ( #238, #241 ) ;
#93 = DATE_AND_TIME ( #95, #84 ) ;
#94 = LOCAL_TIME ( 14, 44, 43.00000000000000000, #90 ) ;
#95 = CALENDAR_DATE ( 2012, 25, 6 ) ;
#96 = APPROVAL_PERSON_ORGANIZATION ( #97, #226, #188 ) ;
#97 = PERSON_AND_ORGANIZATION ( #8, #81 ) ;
#98 = CALENDAR_DATE ( 2012, 25, 6 ) ;
#99 = APPROVAL_PERSON_ORGANIZATION ( #66, #233, #195 ) ;
#100 = CALENDAR_DATE ( 2012, 25, 6 ) ;
#101 = ORIENTED_EDGE ( 'NONE', *, *, #200, .F. ) ;
#102 = ORIENTED_EDGE ( 'NONE', *, *, #214, .T. ) ;
#103 = APPROVAL_DATE_TIME ( #83, #221 ) ;
#104 = COORDINATED_UNIVERSAL_TIME_OFFSET ( 6, 0, .BEHIND. ) ;
#105 = DIRECTION ( 'NONE',  ( 0.0000000000000000000, 0.0000000000000000000, -1.000000000000000000 ) ) ;
#106 = VERTEX_POINT ( 'NONE', #149 ) ;
#107 = CARTESIAN_POINT ( 'NONE',  ( 0.0000000000000000000, 200.0000000000000000, 0.0000000000000000000 ) ) ;
#108 = CARTESIAN_POINT ( 'NONE',  ( 0.0000000000000000000, 4.503214377627357300E-014, -440.1414213562373400 ) ) ;
#109 = DIRECTION ( 'NONE',  ( -1.000000000000000000, 0.0000000000000000000, -0.0000000000000000000 ) ) ;
#110 = DIRECTION ( 'NONE',  ( -1.000000000000000000, -0.0000000000000000000, -0.0000000000000000000 ) ) ;
#111 = DIRECTION ( 'NONE',  ( 0.0000000000000000000, 0.0000000000000000000, -1.000000000000000000 ) ) ;
#112 = CARTESIAN_POINT ( 'NONE',  ( 1.587499999999999900, 4.503214377627357300E-014, 0.0000000000000000000 ) ) ;
#113 = VERTEX_POINT ( 'NONE', #150 ) ;
#114 = CARTESIAN_POINT ( 'NONE',  ( 1.587499999999999900, 4.503214377627357300E-014, -440.1414213562373400 ) ) ;
#115 = PLANE ( 'NONE',  #216 ) ;
#116 = VERTEX_POINT ( 'NONE', #139 ) ;
#117 = VERTEX_POINT ( 'NONE', #137 ) ;
#118 = CARTESIAN_POINT ( 'NONE',  ( 1.587499999999999900, 4.503214377627357300E-014, 0.0000000000000000000 ) ) ;
#119 = PLANE ( 'NONE',  #199 ) ;
#120 = DIRECTION ( 'NONE',  ( 0.0000000000000000000, 0.0000000000000000000, 1.000000000000000000 ) ) ;
#121 = DIRECTION ( 'NONE',  ( -1.000000000000000000, -0.0000000000000000000, -0.0000000000000000000 ) ) ;
#122 = VERTEX_POINT ( 'NONE', #151 ) ;
#123 = VERTEX_POINT ( 'NONE', #125 ) ;
#124 = DIRECTION ( 'NONE',  ( -1.000000000000000000, -0.0000000000000000000, -0.0000000000000000000 ) ) ;
#125 = CARTESIAN_POINT ( 'NONE',  ( 1.587499999999999900, -75.00000000000001400, 0.0000000000000000000 ) ) ;
#126 = DIRECTION ( 'NONE',  ( 1.000000000000000000, -0.0000000000000000000, 0.0000000000000000000 ) ) ;
#127 = CARTESIAN_POINT ( 'NONE',  ( 1.587499999999999900, 0.0000000000000000000, 0.0000000000000000000 ) ) ;
#128 = CARTESIAN_POINT ( 'NONE',  ( 1.587499999999999900, 0.0000000000000000000, 0.0000000000000000000 ) ) ;
#129 = VERTEX_POINT ( 'NONE', #134 ) ;
#130 = VERTEX_POINT ( 'NONE', #107 ) ;
#131 = CARTESIAN_POINT ( 'NONE',  ( 1.587499999999999900, 75.00000000000001400, 0.0000000000000000000 ) ) ;
#132 = DIRECTION ( 'NONE',  ( 0.0000000000000000000, -1.000000000000000000, 0.0000000000000000000 ) ) ;
#133 = DIRECTION ( 'NONE',  ( 0.0000000000000000000, 0.0000000000000000000, 1.000000000000000000 ) ) ;
#134 = CARTESIAN_POINT ( 'NONE',  ( 1.587499999999999900, 75.00000000000001400, 0.0000000000000000000 ) ) ;
#135 = DIRECTION ( 'NONE',  ( 1.000000000000000000, -0.0000000000000000000, 0.0000000000000000000 ) ) ;
#136 = DIRECTION ( 'NONE',  ( 0.0000000000000000000, 0.0000000000000000000, -1.000000000000000000 ) ) ;
#137 = CARTESIAN_POINT ( 'NONE',  ( 1.587499999999999900, 200.0000000000000000, 0.0000000000000000000 ) ) ;
#138 = PLANE ( 'NONE',  #210 ) ;
#139 = CARTESIAN_POINT ( 'NONE',  ( 1.587499999999999900, -200.0000000000000000, 0.0000000000000000000 ) ) ;
#140 = CARTESIAN_POINT ( 'NONE',  ( 1.587499999999999900, 0.0000000000000000000, 0.0000000000000000000 ) ) ;
#141 = CARTESIAN_POINT ( 'NONE',  ( 0.0000000000000000000, 0.0000000000000000000, 0.0000000000000000000 ) ) ;
#142 = CARTESIAN_POINT ( 'NONE',  ( 1.587499999999999900, -75.00000000000001400, 0.0000000000000000000 ) ) ;
#143 = DIRECTION ( 'NONE',  ( 0.0000000000000000000, 0.0000000000000000000, -1.000000000000000000 ) ) ;
#144 = DIRECTION ( 'NONE',  ( 0.0000000000000000000, 0.0000000000000000000, -1.000000000000000000 ) ) ;
#145 = DIRECTION ( 'NONE',  ( 1.000000000000000000, -0.0000000000000000000, 0.0000000000000000000 ) ) ;
#146 = DIRECTION ( 'NONE',  ( -1.000000000000000000, 0.0000000000000000000, -0.0000000000000000000 ) ) ;
#147 = CARTESIAN_POINT ( 'NONE',  ( 1.587499999999999900, 4.503214377627357300E-014, 0.0000000000000000000 ) ) ;
#148 = PLANE ( 'NONE',  #215 ) ;
#149 = CARTESIAN_POINT ( 'NONE',  ( 0.0000000000000000000, -75.00000000000001400, 0.0000000000000000000 ) ) ;
#150 = CARTESIAN_POINT ( 'NONE',  ( 0.0000000000000000000, -200.0000000000000000, 0.0000000000000000000 ) ) ;
#151 = CARTESIAN_POINT ( 'NONE',  ( 0.0000000000000000000, 75.00000000000001400, 0.0000000000000000000 ) ) ;
#152 = CARTESIAN_POINT ( 'NONE',  ( 1.587499999999999900, 4.503214377627357300E-014, 0.0000000000000000000 ) ) ;
#153 = DIRECTION ( 'NONE',  ( 0.0000000000000000000, -1.000000000000000000, 0.0000000000000000000 ) ) ;
#154 = DIRECTION ( 'NONE',  ( 1.000000000000000000, -0.0000000000000000000, 0.0000000000000000000 ) ) ;
#155 = DIRECTION ( 'NONE',  ( 0.0000000000000000000, 0.0000000000000000000, -1.000000000000000000 ) ) ;
#156 = CARTESIAN_POINT ( 'NONE',  ( 0.0000000000000000000, 0.0000000000000000000, 0.0000000000000000000 ) ) ;
#157 = DIRECTION ( 'NONE',  ( 1.000000000000000000, -0.0000000000000000000, 0.0000000000000000000 ) ) ;
#158 = DIRECTION ( 'NONE',  ( 0.0000000000000000000, 0.0000000000000000000, -1.000000000000000000 ) ) ;
#159 = CARTESIAN_POINT ( 'NONE',  ( 1.587499999999999900, 0.0000000000000000000, 0.0000000000000000000 ) ) ;
#160 = DIRECTION ( 'NONE',  ( 1.000000000000000000, -0.0000000000000000000, 0.0000000000000000000 ) ) ;
#161 = DIRECTION ( 'NONE',  ( 0.0000000000000000000, 0.0000000000000000000, -1.000000000000000000 ) ) ;
#162 = CARTESIAN_POINT ( 'NONE',  ( 1.587499999999999900, -200.0000000000000000, 0.0000000000000000000 ) ) ;
#163 = DIRECTION ( 'NONE',  ( -1.000000000000000000, -0.0000000000000000000, -0.0000000000000000000 ) ) ;
#164 = CARTESIAN_POINT ( 'NONE',  ( 1.587499999999999900, 200.0000000000000000, 0.0000000000000000000 ) ) ;
#165 = DIRECTION ( 'NONE',  ( -1.000000000000000000, -0.0000000000000000000, -0.0000000000000000000 ) ) ;
#166 = CARTESIAN_POINT ( 'NONE',  ( 0.0000000000000000000, 4.503214377627357300E-014, 0.0000000000000000000 ) ) ;
#167 = DIRECTION ( 'NONE',  ( -1.000000000000000000, -0.0000000000000000000, -0.0000000000000000000 ) ) ;
#168 = DIRECTION ( 'NONE',  ( 0.0000000000000000000, -1.000000000000000000, 0.0000000000000000000 ) ) ;
#169 =( LENGTH_UNIT ( ) NAMED_UNIT ( * ) SI_UNIT ( .MILLI., .METRE. ) );
#170 = CARTESIAN_POINT ( 'NONE',  ( 0.0000000000000000000, 4.503214377627357300E-014, 0.0000000000000000000 ) ) ;
#171 = DIRECTION ( 'NONE',  ( 0.0000000000000000000, -1.000000000000000000, 0.0000000000000000000 ) ) ;
#172 =( NAMED_UNIT ( * ) PLANE_ANGLE_UNIT ( ) SI_UNIT ( $, .RADIAN. ) );
#173 =( NAMED_UNIT ( * ) SI_UNIT ( $, .STERADIAN. ) SOLID_ANGLE_UNIT ( ) );
#174 = CARTESIAN_POINT ( 'NONE',  ( 0.0000000000000000000, 0.0000000000000000000, 0.0000000000000000000 ) ) ;
#175 = DIRECTION ( 'NONE',  ( 0.0000000000000000000, 0.0000000000000000000, 1.000000000000000000 ) ) ;
#176 = DIRECTION ( 'NONE',  ( 1.000000000000000000, 0.0000000000000000000, 0.0000000000000000000 ) ) ;
#177 = APPLICATION_CONTEXT ( 'configuration controlled 3d designs of mechanical parts and assemblies' ) ;
#178 = APPLICATION_PROTOCOL_DEFINITION ( 'international standard', 'config_control_design', 1994, #177 ) ;
#179 = MECHANICAL_CONTEXT ( 'NONE', #177, 'mechanical' ) ;
#180 = PERSON_AND_ORGANIZATION_ROLE ( 'design_owner' ) ;
#181 = APPLICATION_CONTEXT ( 'configuration controlled 3d designs of mechanical parts and assemblies' ) ;
#182 = APPLICATION_PROTOCOL_DEFINITION ( 'international standard', 'config_control_design', 1994, #181 ) ;
#183 = APPROVAL_STATUS ( 'not_yet_approved' ) ;
#184 = APPROVAL_ROLE ( '' ) ;
#185 = PERSON_AND_ORGANIZATION_ROLE ( 'creator' ) ;
#186 = DATE_TIME_ROLE ( 'creation_date' ) ;
#187 = APPROVAL_STATUS ( 'not_yet_approved' ) ;
#188 = APPROVAL_ROLE ( '' ) ;
#189 = PERSON_AND_ORGANIZATION_ROLE ( 'creator' ) ;
#190 = PERSON_AND_ORGANIZATION_ROLE ( 'design_supplier' ) ;
#191 = SECURITY_CLASSIFICATION_LEVEL ( 'unclassified' ) ;
#192 = PERSON_AND_ORGANIZATION_ROLE ( 'classification_officer' ) ;
#193 = DATE_TIME_ROLE ( 'classification_date' ) ;
#194 = APPROVAL_STATUS ( 'not_yet_approved' ) ;
#195 = APPROVAL_ROLE ( '' ) ;
#196 = CC_DESIGN_PERSON_AND_ORGANIZATION_ASSIGNMENT ( #79, #180, ( #1 ) ) ;
#197 = EDGE_CURVE ( 'NONE', #116, #117, #51, .T. ) ;
#198 = EDGE_CURVE ( 'NONE', #129, #122, #48, .T. ) ;
#199 = AXIS2_PLACEMENT_3D ( 'NONE', #118, #105, #109 ) ;
#200 = EDGE_CURVE ( 'NONE', #123, #116, #47, .T. ) ;
#201 = EDGE_CURVE ( 'NONE', #117, #129, #54, .T. ) ;
#202 = EDGE_CURVE ( 'NONE', #113, #130, #56, .T. ) ;
#203 = AXIS2_PLACEMENT_3D ( 'NONE', #128, #124, #133 ) ;
#204 = EDGE_CURVE ( 'NONE', #106, #122, #57, .T. ) ;
#205 = EDGE_CURVE ( 'NONE', #123, #129, #59, .T. ) ;
#206 = AXIS2_PLACEMENT_3D ( 'NONE', #141, #154, #155 ) ;
#207 = AXIS2_PLACEMENT_3D ( 'NONE', #159, #160, #161 ) ;
#208 = AXIS2_PLACEMENT_3D ( 'NONE', #127, #121, #120 ) ;
#209 = AXIS2_PLACEMENT_3D ( 'NONE', #174, #175, #176 ) ;
#210 = AXIS2_PLACEMENT_3D ( 'NONE', #114, #145, #136 ) ;
#211 = EDGE_CURVE ( 'NONE', #116, #113, #45, .T. ) ;
#212 = EDGE_CURVE ( 'NONE', #117, #130, #60, .T. ) ;
#213 = EDGE_CURVE ( 'NONE', #123, #106, #58, .T. ) ;
#214 = EDGE_CURVE ( 'NONE', #106, #113, #53, .T. ) ;
#215 = AXIS2_PLACEMENT_3D ( 'NONE', #112, #143, #146 ) ;
#216 = AXIS2_PLACEMENT_3D ( 'NONE', #108, #126, #111 ) ;
#217 = EDGE_CURVE ( 'NONE', #130, #122, #64, .T. ) ;
#218 = AXIS2_PLACEMENT_3D ( 'NONE', #156, #157, #158 ) ;
#219 = AXIS2_PLACEMENT_3D ( 'NONE', #140, #135, #144 ) ;
#220 = PRODUCT_DEFINITION ( 'UNKNOWN', '', #225, #237 ) ;
#221 = APPROVAL ( #183, 'UNSPECIFIED' ) ;
#222 = CC_DESIGN_APPROVAL ( #221, ( #220 ) ) ;
#223 = CC_DESIGN_PERSON_AND_ORGANIZATION_ASSIGNMENT ( #78, #185, ( #220 ) ) ;
#224 = CC_DESIGN_DATE_AND_TIME_ASSIGNMENT ( #91, #186, ( #220 ) ) ;
#225 = PRODUCT_DEFINITION_FORMATION_WITH_SPECIFIED_SOURCE ( 'ANY', '', #1, .NOT_KNOWN. ) ;
#226 = APPROVAL ( #187, 'UNSPECIFIED' ) ;
#227 = CC_DESIGN_APPROVAL ( #226, ( #225 ) ) ;
#228 = CC_DESIGN_PERSON_AND_ORGANIZATION_ASSIGNMENT ( #76, #189, ( #225 ) ) ;
#229 = CC_DESIGN_PERSON_AND_ORGANIZATION_ASSIGNMENT ( #70, #190, ( #225 ) ) ;
#230 = SECURITY_CLASSIFICATION ( '', '', #191 ) ;
#231 = CC_DESIGN_PERSON_AND_ORGANIZATION_ASSIGNMENT ( #77, #192, ( #230 ) ) ;
#232 = CC_DESIGN_DATE_AND_TIME_ASSIGNMENT ( #93, #193, ( #230 ) ) ;
#233 = APPROVAL ( #194, 'UNSPECIFIED' ) ;
#234 = CC_DESIGN_APPROVAL ( #233, ( #230 ) ) ;
#235 = CC_DESIGN_SECURITY_CLASSIFICATION ( #230, ( #225 ) ) ;
#236 = PRODUCT_RELATED_PRODUCT_CATEGORY ( 'detail', '', ( #1 ) ) ;
#237 = DESIGN_CONTEXT ( 'detailed design', #181, 'design' ) ;
#238 = PRODUCT_DEFINITION_SHAPE ( 'NONE', 'NONE',  #220 ) ;
#239 = MANIFOLD_SOLID_BREP ( 'Boss-Extrude1', #32 ) ;
#240 = UNCERTAINTY_MEASURE_WITH_UNIT (LENGTH_MEASURE( 1.000000000000000100E-005 ), #169, 'distance_accuracy_value', 'NONE');
#241 = ADVANCED_BREP_SHAPE_REPRESENTATION ( 'GuardSide', ( #239, #209 ), #71 ) ;
ENDSEC;
END-ISO-10303-21;
