ISO-10303-21;
HEADER;
FILE_DESCRIPTION (( 'STEP AP203' ),
    '1' );
FILE_NAME ('GuardFlat.STEP',
    '2012-06-25T19:52:33',
    ( '' ),
    ( '' ),
    'SwSTEP 2.0',
    'SolidWorks 2010',
    '' );
FILE_SCHEMA (( 'CONFIG_CONTROL_DESIGN' ));
ENDSEC;

DATA;
#1 = PRODUCT ( 'GuardFlat', 'GuardFlat', '', ( #159 ) ) ;
#2 = PERSON ( 'UNSPECIFIED', 'UNSPECIFIED', 'UNSPECIFIED', ('UNSPECIFIED'), ('UNSPECIFIED'), ('UNSPECIFIED') ) ;
#3 = COORDINATED_UNIVERSAL_TIME_OFFSET ( 6, 0, .BEHIND. ) ;
#4 = LOCAL_TIME ( 14, 52, 33.00000000000000000, #3 ) ;
#5 = CALENDAR_DATE ( 2012, 25, 6 ) ;
#6 = VECTOR ( 'NONE', #148, 1000.000000000000000 ) ;
#7 = LINE ( 'NONE', #150, #8 ) ;
#8 = VECTOR ( 'NONE', #151, 1000.000000000000000 ) ;
#9 = VECTOR ( 'NONE', #143, 1000.000000000000000 ) ;
#10 = LINE ( 'NONE', #132, #57 ) ;
#11 = CIRCLE ( 'NONE', #207, 198.4000000000000100 ) ;
#12 = LINE ( 'NONE', #147, #6 ) ;
#13 = PERSON_AND_ORGANIZATION ( #2, #49 ) ;
#14 = PERSON_AND_ORGANIZATION ( #2, #49 ) ;
#15 = COORDINATED_UNIVERSAL_TIME_OFFSET ( 6, 0, .BEHIND. ) ;
#16 = PERSON_AND_ORGANIZATION ( #2, #49 ) ;
#17 = APPROVAL_PERSON_ORGANIZATION ( #16, #233, #175 ) ;
#18 = COORDINATED_UNIVERSAL_TIME_OFFSET ( 6, 0, .BEHIND. ) ;
#19 = CALENDAR_DATE ( 2012, 25, 6 ) ;
#20 = DATE_AND_TIME ( #19, #46 ) ;
#21 = APPROVAL_DATE_TIME ( #20, #233 ) ;
#22 = DATE_AND_TIME ( #5, #4 ) ;
#23 = APPROVAL_DATE_TIME ( #22, #226 ) ;
#24 = PERSON_AND_ORGANIZATION ( #2, #49 ) ;
#25 = LOCAL_TIME ( 14, 52, 33.00000000000000000, #15 ) ;
#26 = CALENDAR_DATE ( 2012, 25, 6 ) ;
#27 = DATE_AND_TIME ( #26, #25 ) ;
#28 = LINE ( 'NONE', #123, #58 ) ;
#29 = LINE ( 'NONE', #131, #45 ) ;
#30 = CIRCLE ( 'NONE', #211, 198.4000000000000100 ) ;
#31 = LINE ( 'NONE', #142, #9 ) ;
#32 = DATE_AND_TIME ( #40, #39 ) ;
#33 = PERSON_AND_ORGANIZATION ( #2, #49 ) ;
#34 = APPROVAL_PERSON_ORGANIZATION ( #33, #226, #168 ) ;
#35 = DATE_AND_TIME ( #55, #54 ) ;
#36 = APPROVAL_DATE_TIME ( #35, #218 ) ;
#37 = PERSON_AND_ORGANIZATION ( #2, #49 ) ;
#38 = COORDINATED_UNIVERSAL_TIME_OFFSET ( 6, 0, .BEHIND. ) ;
#39 = LOCAL_TIME ( 14, 52, 33.00000000000000000, #38 ) ;
#40 = CALENDAR_DATE ( 2012, 25, 6 ) ;
#41 = VECTOR ( 'NONE', #125, 1000.000000000000000 ) ;
#42 = VECTOR ( 'NONE', #128, 1000.000000000000000 ) ;
#43 = LINE ( 'NONE', #126, #42 ) ;
#44 = CIRCLE ( 'NONE', #203, 200.0000000000000000 ) ;
#45 = VECTOR ( 'NONE', #141, 1000.000000000000000 ) ;
#46 = LOCAL_TIME ( 14, 52, 33.00000000000000000, #18 ) ;
#47 =( GEOMETRIC_REPRESENTATION_CONTEXT ( 3 ) GLOBAL_UNCERTAINTY_ASSIGNED_CONTEXT ( ( #239 ) ) GLOBAL_UNIT_ASSIGNED_CONTEXT ( ( #149, #152, #153 ) ) REPRESENTATION_CONTEXT ( 'NONE', 'WORKASPACE' ) );
#48 = SHAPE_DEFINITION_REPRESENTATION ( #238, #240 ) ;
#49 = ORGANIZATION ( 'UNSPECIFIED', 'UNSPECIFIED', '' ) ;
#50 = PERSON_AND_ORGANIZATION ( #2, #49 ) ;
#51 = PERSON_AND_ORGANIZATION ( #2, #49 ) ;
#52 = APPROVAL_PERSON_ORGANIZATION ( #51, #218, #164 ) ;
#53 = COORDINATED_UNIVERSAL_TIME_OFFSET ( 6, 0, .BEHIND. ) ;
#54 = LOCAL_TIME ( 14, 52, 33.00000000000000000, #53 ) ;
#55 = CALENDAR_DATE ( 2012, 25, 6 ) ;
#56 = CIRCLE ( 'NONE', #208, 200.0000000000000000 ) ;
#57 = VECTOR ( 'NONE', #146, 1000.000000000000000 ) ;
#58 = VECTOR ( 'NONE', #133, 1000.000000000000000 ) ;
#59 = LINE ( 'NONE', #124, #41 ) ;
#60 = CLOSED_SHELL ( 'NONE', ( #103, #102, #99, #101, #100, #104 ) ) ;
#61 = ORIENTED_EDGE ( 'NONE', *, *, #196, .F. ) ;
#62 = ORIENTED_EDGE ( 'NONE', *, *, #221, .F. ) ;
#63 = ORIENTED_EDGE ( 'NONE', *, *, #198, .T. ) ;
#64 = ORIENTED_EDGE ( 'NONE', *, *, #197, .T. ) ;
#65 = ORIENTED_EDGE ( 'NONE', *, *, #220, .T. ) ;
#66 = ORIENTED_EDGE ( 'NONE', *, *, #219, .T. ) ;
#67 = ORIENTED_EDGE ( 'NONE', *, *, #200, .F. ) ;
#68 = ORIENTED_EDGE ( 'NONE', *, *, #205, .T. ) ;
#69 = FACE_OUTER_BOUND ( 'NONE', #75, .T. ) ;
#70 = ORIENTED_EDGE ( 'NONE', *, *, #199, .F. ) ;
#71 = ORIENTED_EDGE ( 'NONE', *, *, #222, .T. ) ;
#72 = ORIENTED_EDGE ( 'NONE', *, *, #220, .F. ) ;
#73 = ORIENTED_EDGE ( 'NONE', *, *, #219, .F. ) ;
#74 = ORIENTED_EDGE ( 'NONE', *, *, #223, .T. ) ;
#75 = EDGE_LOOP ( 'NONE', ( #63, #61, #67, #89 ) ) ;
#76 = EDGE_LOOP ( 'NONE', ( #72, #70, #68, #74 ) ) ;
#77 = EDGE_LOOP ( 'NONE', ( #96, #66, #98, #88 ) ) ;
#78 = CYLINDRICAL_SURFACE ( 'NONE', #201, 200.0000000000000000 ) ;
#79 = FACE_OUTER_BOUND ( 'NONE', #81, .T. ) ;
#80 = FACE_OUTER_BOUND ( 'NONE', #76, .T. ) ;
#81 = EDGE_LOOP ( 'NONE', ( #71, #62, #73, #92 ) ) ;
#82 = EDGE_LOOP ( 'NONE', ( #64, #94, #97, #91 ) ) ;
#83 = FACE_OUTER_BOUND ( 'NONE', #82, .T. ) ;
#84 = FACE_OUTER_BOUND ( 'NONE', #87, .T. ) ;
#85 = FACE_OUTER_BOUND ( 'NONE', #77, .T. ) ;
#86 = CYLINDRICAL_SURFACE ( 'NONE', #213, 198.4000000000000100 ) ;
#87 = EDGE_LOOP ( 'NONE', ( #65, #95, #90, #93 ) ) ;
#88 = ORIENTED_EDGE ( 'NONE', *, *, #209, .T. ) ;
#89 = ORIENTED_EDGE ( 'NONE', *, *, #221, .T. ) ;
#90 = ORIENTED_EDGE ( 'NONE', *, *, #198, .F. ) ;
#91 = ORIENTED_EDGE ( 'NONE', *, *, #196, .T. ) ;
#92 = ORIENTED_EDGE ( 'NONE', *, *, #199, .T. ) ;
#93 = ORIENTED_EDGE ( 'NONE', *, *, #222, .F. ) ;
#94 = ORIENTED_EDGE ( 'NONE', *, *, #223, .F. ) ;
#95 = ORIENTED_EDGE ( 'NONE', *, *, #197, .F. ) ;
#96 = ORIENTED_EDGE ( 'NONE', *, *, #205, .F. ) ;
#97 = ORIENTED_EDGE ( 'NONE', *, *, #209, .F. ) ;
#98 = ORIENTED_EDGE ( 'NONE', *, *, #200, .T. ) ;
#99 = ADVANCED_FACE ( 'NONE', ( #69 ), #78, .T. ) ;
#100 = ADVANCED_FACE ( 'NONE', ( #85 ), #192, .T. ) ;
#101 = ADVANCED_FACE ( 'NONE', ( #83 ), #177, .F. ) ;
#102 = ADVANCED_FACE ( 'NONE', ( #79 ), #111, .F. ) ;
#103 = ADVANCED_FACE ( 'NONE', ( #80 ), #86, .F. ) ;
#104 = ADVANCED_FACE ( 'NONE', ( #84 ), #112, .F. ) ;
#105 = VERTEX_POINT ( 'NONE', #195 ) ;
#106 = CARTESIAN_POINT ( 'NONE',  ( 70.00000000000000000, 0.0000000000000000000, 0.0000000000000000000 ) ) ;
#107 = DIRECTION ( 'NONE',  ( -1.000000000000000000, -0.0000000000000000000, -0.0000000000000000000 ) ) ;
#108 = CARTESIAN_POINT ( 'NONE',  ( 0.0000000000000000000, 4.503214377627357300E-014, -440.1414213562373400 ) ) ;
#109 = VERTEX_POINT ( 'NONE', #176 ) ;
#110 = VERTEX_POINT ( 'NONE', #118 ) ;
#111 = PLANE ( 'NONE',  #212 ) ;
#112 = PLANE ( 'NONE',  #214 ) ;
#113 = CARTESIAN_POINT ( 'NONE',  ( 70.00000000000000000, 4.503214377627357300E-014, -440.1414213562373400 ) ) ;
#114 = VERTEX_POINT ( 'NONE', #188 ) ;
#115 = DIRECTION ( 'NONE',  ( 0.0000000000000000000, 0.0000000000000000000, -1.000000000000000000 ) ) ;
#116 = DIRECTION ( 'NONE',  ( 1.000000000000000000, -0.0000000000000000000, 0.0000000000000000000 ) ) ;
#117 = DIRECTION ( 'NONE',  ( 0.0000000000000000000, 0.0000000000000000000, -1.000000000000000000 ) ) ;
#118 = CARTESIAN_POINT ( 'NONE',  ( 0.0000000000000000000, 200.0000000000000000, 0.0000000000000000000 ) ) ;
#119 = CARTESIAN_POINT ( 'NONE',  ( 70.00000000000000000, 200.0000000000000000, 0.0000000000000000000 ) ) ;
#120 = CARTESIAN_POINT ( 'NONE',  ( 70.00000000000000000, -198.4000000000000100, 0.0000000000000000000 ) ) ;
#121 = CARTESIAN_POINT ( 'NONE',  ( 70.00000000000000000, -200.0000000000000000, 0.0000000000000000000 ) ) ;
#122 = CARTESIAN_POINT ( 'NONE',  ( 70.00000000000000000, 198.4000000000000100, 0.0000000000000000000 ) ) ;
#123 = CARTESIAN_POINT ( 'NONE',  ( 70.00000000000000000, -198.4000000000000100, 0.0000000000000000000 ) ) ;
#124 = CARTESIAN_POINT ( 'NONE',  ( 70.00000000000000000, 200.0000000000000000, 0.0000000000000000000 ) ) ;
#125 = DIRECTION ( 'NONE',  ( -1.000000000000000000, -0.0000000000000000000, -0.0000000000000000000 ) ) ;
#126 = CARTESIAN_POINT ( 'NONE',  ( 0.0000000000000000000, 4.503214377627357300E-014, 0.0000000000000000000 ) ) ;
#127 = CARTESIAN_POINT ( 'NONE',  ( 0.0000000000000000000, 0.0000000000000000000, 0.0000000000000000000 ) ) ;
#128 = DIRECTION ( 'NONE',  ( 0.0000000000000000000, -1.000000000000000000, 0.0000000000000000000 ) ) ;
#129 = DIRECTION ( 'NONE',  ( 1.000000000000000000, -0.0000000000000000000, 0.0000000000000000000 ) ) ;
#130 = DIRECTION ( 'NONE',  ( 0.0000000000000000000, 0.0000000000000000000, -1.000000000000000000 ) ) ;
#131 = CARTESIAN_POINT ( 'NONE',  ( 70.00000000000000000, 4.503214377627357300E-014, 0.0000000000000000000 ) ) ;
#132 = CARTESIAN_POINT ( 'NONE',  ( 70.00000000000000000, -200.0000000000000000, 0.0000000000000000000 ) ) ;
#133 = DIRECTION ( 'NONE',  ( -1.000000000000000000, -0.0000000000000000000, -0.0000000000000000000 ) ) ;
#134 = CARTESIAN_POINT ( 'NONE',  ( 70.00000000000000000, 0.0000000000000000000, 0.0000000000000000000 ) ) ;
#135 = DIRECTION ( 'NONE',  ( 1.000000000000000000, -0.0000000000000000000, 0.0000000000000000000 ) ) ;
#136 = DIRECTION ( 'NONE',  ( 0.0000000000000000000, 0.0000000000000000000, -1.000000000000000000 ) ) ;
#137 = CARTESIAN_POINT ( 'NONE',  ( 70.00000000000000000, 0.0000000000000000000, 0.0000000000000000000 ) ) ;
#138 = DIRECTION ( 'NONE',  ( 1.000000000000000000, -0.0000000000000000000, 0.0000000000000000000 ) ) ;
#139 = DIRECTION ( 'NONE',  ( 0.0000000000000000000, 0.0000000000000000000, -1.000000000000000000 ) ) ;
#140 = CARTESIAN_POINT ( 'NONE',  ( 0.0000000000000000000, 0.0000000000000000000, 0.0000000000000000000 ) ) ;
#141 = DIRECTION ( 'NONE',  ( 0.0000000000000000000, -1.000000000000000000, 0.0000000000000000000 ) ) ;
#142 = CARTESIAN_POINT ( 'NONE',  ( 70.00000000000000000, 4.503214377627357300E-014, 0.0000000000000000000 ) ) ;
#143 = DIRECTION ( 'NONE',  ( 0.0000000000000000000, -1.000000000000000000, 0.0000000000000000000 ) ) ;
#144 = DIRECTION ( 'NONE',  ( 1.000000000000000000, -0.0000000000000000000, 0.0000000000000000000 ) ) ;
#145 = DIRECTION ( 'NONE',  ( 0.0000000000000000000, 0.0000000000000000000, -1.000000000000000000 ) ) ;
#146 = DIRECTION ( 'NONE',  ( -1.000000000000000000, -0.0000000000000000000, -0.0000000000000000000 ) ) ;
#147 = CARTESIAN_POINT ( 'NONE',  ( 0.0000000000000000000, 4.503214377627357300E-014, 0.0000000000000000000 ) ) ;
#148 = DIRECTION ( 'NONE',  ( 0.0000000000000000000, -1.000000000000000000, 0.0000000000000000000 ) ) ;
#149 =( LENGTH_UNIT ( ) NAMED_UNIT ( * ) SI_UNIT ( .MILLI., .METRE. ) );
#150 = CARTESIAN_POINT ( 'NONE',  ( 70.00000000000000000, 198.4000000000000100, 0.0000000000000000000 ) ) ;
#151 = DIRECTION ( 'NONE',  ( -1.000000000000000000, -0.0000000000000000000, -0.0000000000000000000 ) ) ;
#152 =( NAMED_UNIT ( * ) PLANE_ANGLE_UNIT ( ) SI_UNIT ( $, .RADIAN. ) );
#153 =( NAMED_UNIT ( * ) SI_UNIT ( $, .STERADIAN. ) SOLID_ANGLE_UNIT ( ) );
#154 = CARTESIAN_POINT ( 'NONE',  ( 0.0000000000000000000, 0.0000000000000000000, 0.0000000000000000000 ) ) ;
#155 = DIRECTION ( 'NONE',  ( 0.0000000000000000000, 0.0000000000000000000, 1.000000000000000000 ) ) ;
#156 = DIRECTION ( 'NONE',  ( 1.000000000000000000, 0.0000000000000000000, 0.0000000000000000000 ) ) ;
#157 = APPLICATION_CONTEXT ( 'configuration controlled 3d designs of mechanical parts and assemblies' ) ;
#158 = APPLICATION_PROTOCOL_DEFINITION ( 'international standard', 'config_control_design', 1994, #157 ) ;
#159 = MECHANICAL_CONTEXT ( 'NONE', #157, 'mechanical' ) ;
#160 = PERSON_AND_ORGANIZATION_ROLE ( 'design_owner' ) ;
#161 = APPLICATION_CONTEXT ( 'configuration controlled 3d designs of mechanical parts and assemblies' ) ;
#162 = APPLICATION_PROTOCOL_DEFINITION ( 'international standard', 'config_control_design', 1994, #161 ) ;
#163 = APPROVAL_STATUS ( 'not_yet_approved' ) ;
#164 = APPROVAL_ROLE ( '' ) ;
#165 = PERSON_AND_ORGANIZATION_ROLE ( 'creator' ) ;
#166 = DATE_TIME_ROLE ( 'creation_date' ) ;
#167 = APPROVAL_STATUS ( 'not_yet_approved' ) ;
#168 = APPROVAL_ROLE ( '' ) ;
#169 = PERSON_AND_ORGANIZATION_ROLE ( 'creator' ) ;
#170 = PERSON_AND_ORGANIZATION_ROLE ( 'design_supplier' ) ;
#171 = SECURITY_CLASSIFICATION_LEVEL ( 'unclassified' ) ;
#172 = PERSON_AND_ORGANIZATION_ROLE ( 'classification_officer' ) ;
#173 = DATE_TIME_ROLE ( 'classification_date' ) ;
#174 = APPROVAL_STATUS ( 'not_yet_approved' ) ;
#175 = APPROVAL_ROLE ( '' ) ;
#176 = CARTESIAN_POINT ( 'NONE',  ( 0.0000000000000000000, 198.4000000000000100, 0.0000000000000000000 ) ) ;
#177 = PLANE ( 'NONE',  #210 ) ;
#178 = VERTEX_POINT ( 'NONE', #119 ) ;
#179 = VERTEX_POINT ( 'NONE', #120 ) ;
#180 = DIRECTION ( 'NONE',  ( 0.0000000000000000000, 0.0000000000000000000, 1.000000000000000000 ) ) ;
#181 = DIRECTION ( 'NONE',  ( -1.000000000000000000, -0.0000000000000000000, -0.0000000000000000000 ) ) ;
#182 = DIRECTION ( 'NONE',  ( -1.000000000000000000, 0.0000000000000000000, -0.0000000000000000000 ) ) ;
#183 = CARTESIAN_POINT ( 'NONE',  ( 70.00000000000000000, 0.0000000000000000000, 0.0000000000000000000 ) ) ;
#184 = CARTESIAN_POINT ( 'NONE',  ( 70.00000000000000000, 4.503214377627357300E-014, 0.0000000000000000000 ) ) ;
#185 = DIRECTION ( 'NONE',  ( 0.0000000000000000000, 0.0000000000000000000, -1.000000000000000000 ) ) ;
#186 = DIRECTION ( 'NONE',  ( 1.000000000000000000, -0.0000000000000000000, 0.0000000000000000000 ) ) ;
#187 = DIRECTION ( 'NONE',  ( 0.0000000000000000000, 0.0000000000000000000, 1.000000000000000000 ) ) ;
#188 = CARTESIAN_POINT ( 'NONE',  ( 0.0000000000000000000, -200.0000000000000000, 0.0000000000000000000 ) ) ;
#189 = VERTEX_POINT ( 'NONE', #121 ) ;
#190 = CARTESIAN_POINT ( 'NONE',  ( 70.00000000000000000, 4.503214377627357300E-014, 0.0000000000000000000 ) ) ;
#191 = DIRECTION ( 'NONE',  ( 0.0000000000000000000, 0.0000000000000000000, -1.000000000000000000 ) ) ;
#192 = PLANE ( 'NONE',  #204 ) ;
#193 = VERTEX_POINT ( 'NONE', #122 ) ;
#194 = DIRECTION ( 'NONE',  ( -1.000000000000000000, 0.0000000000000000000, -0.0000000000000000000 ) ) ;
#195 = CARTESIAN_POINT ( 'NONE',  ( 0.0000000000000000000, -198.4000000000000100, 0.0000000000000000000 ) ) ;
#196 = EDGE_CURVE ( 'NONE', #178, #110, #59, .T. ) ;
#197 = EDGE_CURVE ( 'NONE', #110, #109, #43, .T. ) ;
#198 = EDGE_CURVE ( 'NONE', #114, #110, #44, .T. ) ;
#199 = EDGE_CURVE ( 'NONE', #179, #105, #28, .T. ) ;
#200 = EDGE_CURVE ( 'NONE', #189, #178, #56, .T. ) ;
#201 = AXIS2_PLACEMENT_3D ( 'NONE', #106, #107, #187 ) ;
#202 = CC_DESIGN_PERSON_AND_ORGANIZATION_ASSIGNMENT ( #50, #160, ( #1 ) ) ;
#203 = AXIS2_PLACEMENT_3D ( 'NONE', #127, #129, #130 ) ;
#204 = AXIS2_PLACEMENT_3D ( 'NONE', #113, #186, #185 ) ;
#205 = EDGE_CURVE ( 'NONE', #179, #193, #30, .T. ) ;
#206 = AXIS2_PLACEMENT_3D ( 'NONE', #154, #155, #156 ) ;
#207 = AXIS2_PLACEMENT_3D ( 'NONE', #140, #144, #145 ) ;
#208 = AXIS2_PLACEMENT_3D ( 'NONE', #134, #135, #136 ) ;
#209 = EDGE_CURVE ( 'NONE', #178, #193, #29, .T. ) ;
#210 = AXIS2_PLACEMENT_3D ( 'NONE', #184, #191, #182 ) ;
#211 = AXIS2_PLACEMENT_3D ( 'NONE', #137, #138, #139 ) ;
#212 = AXIS2_PLACEMENT_3D ( 'NONE', #190, #115, #194 ) ;
#213 = AXIS2_PLACEMENT_3D ( 'NONE', #183, #181, #180 ) ;
#214 = AXIS2_PLACEMENT_3D ( 'NONE', #108, #116, #117 ) ;
#215 = CC_DESIGN_APPROVAL ( #218, ( #217 ) ) ;
#216 = CC_DESIGN_PERSON_AND_ORGANIZATION_ASSIGNMENT ( #37, #165, ( #217 ) ) ;
#217 = PRODUCT_DEFINITION ( 'UNKNOWN', '', #225, #237 ) ;
#218 = APPROVAL ( #163, 'UNSPECIFIED' ) ;
#219 = EDGE_CURVE ( 'NONE', #179, #189, #31, .T. ) ;
#220 = EDGE_CURVE ( 'NONE', #105, #109, #11, .T. ) ;
#221 = EDGE_CURVE ( 'NONE', #189, #114, #10, .T. ) ;
#222 = EDGE_CURVE ( 'NONE', #105, #114, #12, .T. ) ;
#223 = EDGE_CURVE ( 'NONE', #193, #109, #7, .T. ) ;
#224 = CC_DESIGN_DATE_AND_TIME_ASSIGNMENT ( #32, #166, ( #217 ) ) ;
#225 = PRODUCT_DEFINITION_FORMATION_WITH_SPECIFIED_SOURCE ( 'ANY', '', #1, .NOT_KNOWN. ) ;
#226 = APPROVAL ( #167, 'UNSPECIFIED' ) ;
#227 = CC_DESIGN_APPROVAL ( #226, ( #225 ) ) ;
#228 = CC_DESIGN_PERSON_AND_ORGANIZATION_ASSIGNMENT ( #24, #169, ( #225 ) ) ;
#229 = CC_DESIGN_PERSON_AND_ORGANIZATION_ASSIGNMENT ( #13, #170, ( #225 ) ) ;
#230 = SECURITY_CLASSIFICATION ( '', '', #171 ) ;
#231 = CC_DESIGN_PERSON_AND_ORGANIZATION_ASSIGNMENT ( #14, #172, ( #230 ) ) ;
#232 = CC_DESIGN_DATE_AND_TIME_ASSIGNMENT ( #27, #173, ( #230 ) ) ;
#233 = APPROVAL ( #174, 'UNSPECIFIED' ) ;
#234 = CC_DESIGN_APPROVAL ( #233, ( #230 ) ) ;
#235 = CC_DESIGN_SECURITY_CLASSIFICATION ( #230, ( #225 ) ) ;
#236 = PRODUCT_RELATED_PRODUCT_CATEGORY ( 'detail', '', ( #1 ) ) ;
#237 = DESIGN_CONTEXT ( 'detailed design', #161, 'design' ) ;
#238 = PRODUCT_DEFINITION_SHAPE ( 'NONE', 'NONE',  #217 ) ;
#239 = UNCERTAINTY_MEASURE_WITH_UNIT (LENGTH_MEASURE( 1.000000000000000100E-005 ), #149, 'distance_accuracy_value', 'NONE');
#240 = ADVANCED_BREP_SHAPE_REPRESENTATION ( 'GuardFlat', ( #241, #206 ), #47 ) ;
#241 = MANIFOLD_SOLID_BREP ( 'Boss-Extrude1', #60 ) ;
ENDSEC;
END-ISO-10303-21;
