ISO-10303-21;
HEADER;
FILE_DESCRIPTION (( 'STEP AP203' ),
    '1' );
FILE_NAME ('ClampJaw.STEP',
    '2012-05-21T19:02:14',
    ( '' ),
    ( '' ),
    'SwSTEP 2.0',
    'SolidWorks 2010',
    '' );
FILE_SCHEMA (( 'CONFIG_CONTROL_DESIGN' ));
ENDSEC;

DATA;
#1 = CC_DESIGN_PERSON_AND_ORGANIZATION_ASSIGNMENT ( #209, #307, ( #320 ) ) ;
#2 = ADVANCED_FACE ( 'NONE', ( #124 ), #331, .T. ) ;
#3 = ADVANCED_FACE ( 'NONE', ( #274 ), #358, .F. ) ;
#4 = ADVANCED_FACE ( 'NONE', ( #217, #250, #131 ), #332, .F. ) ;
#5 = ADVANCED_FACE ( 'NONE', ( #133 ), #219, .F. ) ;
#6 = ADVANCED_FACE ( 'NONE', ( #149 ), #61, .F. ) ;
#7 = ADVANCED_FACE ( 'NONE', ( #193 ), #139, .F. ) ;
#8 = ADVANCED_FACE ( 'NONE', ( #205 ), #202, .F. ) ;
#9 = AXIS2_PLACEMENT_3D ( 'NONE', #87, #67, #69 ) ;
#10 = EDGE_CURVE ( 'NONE', #347, #348, #179, .T. ) ;
#11 = EDGE_CURVE ( 'NONE', #347, #335, #154, .T. ) ;
#12 = EDGE_CURVE ( 'NONE', #356, #334, #174, .T. ) ;
#13 = AXIS2_PLACEMENT_3D ( 'NONE', #107, #77, #29 ) ;
#14 = EDGE_CURVE ( 'NONE', #335, #344, #187, .T. ) ;
#15 = AXIS2_PLACEMENT_3D ( 'NONE', #297, #283, #299 ) ;
#16 = EDGE_CURVE ( 'NONE', #342, #333, #201, .T. ) ;
#17 = PRODUCT ( 'ClampJaw', 'ClampJaw', '', ( #289 ) ) ;
#18 = PERSON ( 'UNSPECIFIED', 'UNSPECIFIED', 'UNSPECIFIED', ('UNSPECIFIED'), ('UNSPECIFIED'), ('UNSPECIFIED') ) ;
#19 = MANIFOLD_SOLID_BREP ( 'Cut-Extrude1', #273 ) ;
#20 = UNCERTAINTY_MEASURE_WITH_UNIT (LENGTH_MEASURE( 1.000000000000000100E-005 ), #65, 'distance_accuracy_value', 'NONE');
#21 = ADVANCED_BREP_SHAPE_REPRESENTATION ( 'ClampJaw', ( #19, #15 ), #136 ) ;
#22 = AXIS2_PLACEMENT_3D ( 'NONE', #28, #86, #78 ) ;
#23 = CC_DESIGN_APPROVAL ( #314, ( #313 ) ) ;
#24 = CC_DESIGN_PERSON_AND_ORGANIZATION_ASSIGNMENT ( #159, #301, ( #313 ) ) ;
#25 = PLANE ( 'NONE',  #377 ) ;
#26 = CARTESIAN_POINT ( 'NONE',  ( 0.0000000000000000000, 50.00000000000000000, -25.00000000000000000 ) ) ;
#27 = CARTESIAN_POINT ( 'NONE',  ( 40.00000000000000000, 10.00000000000000000, -25.00000000000000000 ) ) ;
#28 = CARTESIAN_POINT ( 'NONE',  ( 9.999999999999998200, 10.00000000000000000, -25.00000000000000000 ) ) ;
#29 = DIRECTION ( 'NONE',  ( 1.000000000000000000, 0.0000000000000000000, 0.0000000000000000000 ) ) ;
#30 = DIRECTION ( 'NONE',  ( 0.0000000000000000000, 0.0000000000000000000, -1.000000000000000000 ) ) ;
#31 = DIRECTION ( 'NONE',  ( -1.000000000000000000, 0.0000000000000000000, -0.0000000000000000000 ) ) ;
#32 = CARTESIAN_POINT ( 'NONE',  ( 3.999999999999995600, 10.00000000000000000, -50.00000000000000000 ) ) ;
#33 = CARTESIAN_POINT ( 'NONE',  ( 75.00000000000000000, 50.00000000000000000, -25.00000000000000000 ) ) ;
#34 = CARTESIAN_POINT ( 'NONE',  ( 9.999999999999998200, 10.00000000000000000, -25.00000000000000000 ) ) ;
#35 = CARTESIAN_POINT ( 'NONE',  ( 75.00000000000000000, 50.00000000000000000, -25.00000000000000000 ) ) ;
#36 = CARTESIAN_POINT ( 'NONE',  ( 0.0000000000000000000, 0.0000000000000000000, -25.00000000000000000 ) ) ;
#37 = DIRECTION ( 'NONE',  ( -1.000000000000000000, -0.0000000000000000000, -0.0000000000000000000 ) ) ;
#38 = DIRECTION ( 'NONE',  ( 0.0000000000000000000, -0.0000000000000000000, -1.000000000000000000 ) ) ;
#39 = DIRECTION ( 'NONE',  ( -0.0000000000000000000, -0.0000000000000000000, 1.000000000000000000 ) ) ;
#40 = DIRECTION ( 'NONE',  ( 0.0000000000000000000, -1.000000000000000000, 0.0000000000000000000 ) ) ;
#41 = CARTESIAN_POINT ( 'NONE',  ( 40.00000000000000000, 10.00000000000000000, -50.00000000000000000 ) ) ;
#42 = CARTESIAN_POINT ( 'NONE',  ( 0.0000000000000000000, 50.00000000000000000, -25.00000000000000000 ) ) ;
#43 = DIRECTION ( 'NONE',  ( -0.0000000000000000000, -0.0000000000000000000, 1.000000000000000000 ) ) ;
#44 = DIRECTION ( 'NONE',  ( 1.000000000000000000, 0.0000000000000000000, 0.0000000000000000000 ) ) ;
#45 = CARTESIAN_POINT ( 'NONE',  ( 0.0000000000000000000, 50.00000000000000000, 0.0000000000000000000 ) ) ;
#46 = CARTESIAN_POINT ( 'NONE',  ( 46.00000000000000000, 10.00000000000000000, 0.0000000000000000000 ) ) ;
#47 = CARTESIAN_POINT ( 'NONE',  ( 34.00000000000000000, 10.00000000000000000, 0.0000000000000000000 ) ) ;
#48 = CARTESIAN_POINT ( 'NONE',  ( 46.00000000000000000, 10.00000000000000000, -25.00000000000000000 ) ) ;
#49 = DIRECTION ( 'NONE',  ( 1.000000000000000000, 0.0000000000000000000, 0.0000000000000000000 ) ) ;
#50 = DIRECTION ( 'NONE',  ( 1.000000000000000000, 0.0000000000000000000, 0.0000000000000000000 ) ) ;
#51 = CARTESIAN_POINT ( 'NONE',  ( 0.0000000000000000000, 0.0000000000000000000, 0.0000000000000000000 ) ) ;
#52 = CARTESIAN_POINT ( 'NONE',  ( 0.0000000000000000000, 50.00000000000000000, 0.0000000000000000000 ) ) ;
#53 = CARTESIAN_POINT ( 'NONE',  ( 3.999999999999995600, 10.00000000000000000, 0.0000000000000000000 ) ) ;
#54 = DIRECTION ( 'NONE',  ( 0.0000000000000000000, 0.0000000000000000000, 1.000000000000000000 ) ) ;
#55 = DIRECTION ( 'NONE',  ( -0.0000000000000000000, -0.0000000000000000000, 1.000000000000000000 ) ) ;
#56 = DIRECTION ( 'NONE',  ( -0.0000000000000000000, -1.000000000000000000, -0.0000000000000000000 ) ) ;
#57 = DIRECTION ( 'NONE',  ( -0.0000000000000000000, -1.000000000000000000, -0.0000000000000000000 ) ) ;
#58 = CARTESIAN_POINT ( 'NONE',  ( 75.00000000000000000, 50.00000000000000000, 0.0000000000000000000 ) ) ;
#59 = DIRECTION ( 'NONE',  ( -0.0000000000000000000, -0.0000000000000000000, 1.000000000000000000 ) ) ;
#60 = CARTESIAN_POINT ( 'NONE',  ( 0.0000000000000000000, 50.00000000000000000, 0.0000000000000000000 ) ) ;
#61 = PLANE ( 'NONE',  #318 ) ;
#62 = DIRECTION ( 'NONE',  ( -0.0000000000000000000, 0.0000000000000000000, 1.000000000000000000 ) ) ;
#63 = CARTESIAN_POINT ( 'NONE',  ( 0.0000000000000000000, 50.00000000000000000, 0.0000000000000000000 ) ) ;
#64 = DIRECTION ( 'NONE',  ( -0.0000000000000000000, -1.000000000000000000, -0.0000000000000000000 ) ) ;
#65 =( LENGTH_UNIT ( ) NAMED_UNIT ( * ) SI_UNIT ( .MILLI., .METRE. ) );
#66 = DIRECTION ( 'NONE',  ( 1.000000000000000000, 0.0000000000000000000, 0.0000000000000000000 ) ) ;
#67 = DIRECTION ( 'NONE',  ( -0.0000000000000000000, 0.0000000000000000000, 1.000000000000000000 ) ) ;
#68 = DIRECTION ( 'NONE',  ( -0.0000000000000000000, -1.000000000000000000, -0.0000000000000000000 ) ) ;
#69 = DIRECTION ( 'NONE',  ( 1.000000000000000000, 0.0000000000000000000, 0.0000000000000000000 ) ) ;
#70 = CARTESIAN_POINT ( 'NONE',  ( 75.00000000000000000, 0.0000000000000000000, 0.0000000000000000000 ) ) ;
#71 = DIRECTION ( 'NONE',  ( 1.000000000000000000, 0.0000000000000000000, 0.0000000000000000000 ) ) ;
#72 = CARTESIAN_POINT ( 'NONE',  ( 3.999999999999995600, 10.00000000000000000, -25.00000000000000000 ) ) ;
#73 = CARTESIAN_POINT ( 'NONE',  ( 0.0000000000000000000, 0.0000000000000000000, 0.0000000000000000000 ) ) ;
#74 = CARTESIAN_POINT ( 'NONE',  ( 75.00000000000000000, 50.00000000000000000, 0.0000000000000000000 ) ) ;
#75 = CARTESIAN_POINT ( 'NONE',  ( 0.0000000000000000000, 50.00000000000000000, 0.0000000000000000000 ) ) ;
#76 = DIRECTION ( 'NONE',  ( 1.000000000000000000, -0.0000000000000000000, 0.0000000000000000000 ) ) ;
#77 = DIRECTION ( 'NONE',  ( 0.0000000000000000000, 0.0000000000000000000, 1.000000000000000000 ) ) ;
#78 = DIRECTION ( 'NONE',  ( 1.000000000000000000, 0.0000000000000000000, 0.0000000000000000000 ) ) ;
#79 = DIRECTION ( 'NONE',  ( 0.0000000000000000000, 0.0000000000000000000, -1.000000000000000000 ) ) ;
#80 = DIRECTION ( 'NONE',  ( 0.0000000000000000000, 0.0000000000000000000, -1.000000000000000000 ) ) ;
#81 = CARTESIAN_POINT ( 'NONE',  ( 75.00000000000000000, 0.0000000000000000000, 0.0000000000000000000 ) ) ;
#82 = CARTESIAN_POINT ( 'NONE',  ( 0.0000000000000000000, 50.00000000000000000, -25.00000000000000000 ) ) ;
#83 = CARTESIAN_POINT ( 'NONE',  ( 0.0000000000000000000, 50.00000000000000000, -25.00000000000000000 ) ) ;
#84 = CARTESIAN_POINT ( 'NONE',  ( 0.0000000000000000000, 0.0000000000000000000, -25.00000000000000000 ) ) ;
#85 = CARTESIAN_POINT ( 'NONE',  ( 40.00000000000000000, 10.00000000000000000, 0.0000000000000000000 ) ) ;
#86 = DIRECTION ( 'NONE',  ( 0.0000000000000000000, 0.0000000000000000000, 1.000000000000000000 ) ) ;
#87 = CARTESIAN_POINT ( 'NONE',  ( 9.999999999999998200, 10.00000000000000000, 0.0000000000000000000 ) ) ;
#88 = DIRECTION ( 'NONE',  ( 0.0000000000000000000, 0.0000000000000000000, 1.000000000000000000 ) ) ;
#89 = CARTESIAN_POINT ( 'NONE',  ( 34.00000000000000000, 10.00000000000000000, -25.00000000000000000 ) ) ;
#90 = DIRECTION ( 'NONE',  ( -0.0000000000000000000, 0.0000000000000000000, 1.000000000000000000 ) ) ;
#91 = DIRECTION ( 'NONE',  ( -0.0000000000000000000, 0.0000000000000000000, 1.000000000000000000 ) ) ;
#92 = CARTESIAN_POINT ( 'NONE',  ( 0.0000000000000000000, 50.00000000000000000, 0.0000000000000000000 ) ) ;
#93 = PLANE ( 'NONE',  #373 ) ;
#94 = CARTESIAN_POINT ( 'NONE',  ( 75.00000000000000000, 0.0000000000000000000, -25.00000000000000000 ) ) ;
#95 = DIRECTION ( 'NONE',  ( 1.000000000000000000, 0.0000000000000000000, 0.0000000000000000000 ) ) ;
#96 = DIRECTION ( 'NONE',  ( -0.0000000000000000000, -0.0000000000000000000, 1.000000000000000000 ) ) ;
#97 = DIRECTION ( 'NONE',  ( 0.0000000000000000000, 0.0000000000000000000, -1.000000000000000000 ) ) ;
#98 = CARTESIAN_POINT ( 'NONE',  ( 9.999999999999998200, 10.00000000000000000, 0.0000000000000000000 ) ) ;
#99 = CARTESIAN_POINT ( 'NONE',  ( 40.00000000000000000, 10.00000000000000000, 0.0000000000000000000 ) ) ;
#100 = DIRECTION ( 'NONE',  ( 1.000000000000000000, 0.0000000000000000000, 0.0000000000000000000 ) ) ;
#101 = DIRECTION ( 'NONE',  ( 1.000000000000000000, 0.0000000000000000000, 0.0000000000000000000 ) ) ;
#102 = CARTESIAN_POINT ( 'NONE',  ( 75.00000000000000000, 50.00000000000000000, 0.0000000000000000000 ) ) ;
#103 = CARTESIAN_POINT ( 'NONE',  ( 0.0000000000000000000, 0.0000000000000000000, 0.0000000000000000000 ) ) ;
#104 = DIRECTION ( 'NONE',  ( -1.000000000000000000, -0.0000000000000000000, -0.0000000000000000000 ) ) ;
#105 = DIRECTION ( 'NONE',  ( 1.000000000000000000, 0.0000000000000000000, 0.0000000000000000000 ) ) ;
#106 = CARTESIAN_POINT ( 'NONE',  ( 40.00000000000000000, 10.00000000000000000, -50.00000000000000000 ) ) ;
#107 = CARTESIAN_POINT ( 'NONE',  ( 40.00000000000000000, 10.00000000000000000, -25.00000000000000000 ) ) ;
#108 = CARTESIAN_POINT ( 'NONE',  ( 16.00000000000000000, 10.00000000000000000, -25.00000000000000000 ) ) ;
#109 = DIRECTION ( 'NONE',  ( 1.000000000000000000, 0.0000000000000000000, 0.0000000000000000000 ) ) ;
#110 = DIRECTION ( 'NONE',  ( -0.0000000000000000000, -0.0000000000000000000, 1.000000000000000000 ) ) ;
#111 = CARTESIAN_POINT ( 'NONE',  ( 16.00000000000000000, 10.00000000000000000, 0.0000000000000000000 ) ) ;
#112 = AXIS2_PLACEMENT_3D ( 'NONE', #34, #88, #71 ) ;
#113 = CC_DESIGN_DATE_AND_TIME_ASSIGNMENT ( #177, #298, ( #313 ) ) ;
#114 = AXIS2_PLACEMENT_3D ( 'NONE', #99, #91, #101 ) ;
#115 = ADVANCED_FACE ( 'NONE', ( #275 ), #182, .F. ) ;
#116 = ADVANCED_FACE ( 'NONE', ( #204, #257, #148 ), #93, .F. ) ;
#117 = ADVANCED_FACE ( 'NONE', ( #231 ), #25, .F. ) ;
#118 = EDGE_CURVE ( 'NONE', #334, #356, #225, .T. ) ;
#119 = EDGE_CURVE ( 'NONE', #343, #336, #227, .T. ) ;
#120 = EDGE_CURVE ( 'NONE', #350, #345, #247, .T. ) ;
#121 = AXIS2_PLACEMENT_3D ( 'NONE', #351, #352, #360 ) ;
#122 = EDGE_CURVE ( 'NONE', #344, #359, #216, .T. ) ;
#123 = ORIENTED_EDGE ( 'NONE', *, *, #120, .T. ) ;
#124 = FACE_OUTER_BOUND ( 'NONE', #198, .T. ) ;
#125 = ORIENTED_EDGE ( 'NONE', *, *, #118, .T. ) ;
#126 = VECTOR ( 'NONE', #57, 1000.000000000000000 ) ;
#127 = DATE_AND_TIME ( #269, #272 ) ;
#128 = CALENDAR_DATE ( 2012, 21, 5 ) ;
#129 = ORIENTED_EDGE ( 'NONE', *, *, #384, .F. ) ;
#130 = LINE ( 'NONE', #32, #188 ) ;
#131 = FACE_OUTER_BOUND ( 'NONE', #233, .T. ) ;
#132 = ORIENTED_EDGE ( 'NONE', *, *, #363, .F. ) ;
#133 = FACE_OUTER_BOUND ( 'NONE', #278, .T. ) ;
#134 = EDGE_LOOP ( 'NONE', ( #140, #181, #270, #146 ) ) ;
#135 = ORIENTED_EDGE ( 'NONE', *, *, #119, .T. ) ;
#136 =( GEOMETRIC_REPRESENTATION_CONTEXT ( 3 ) GLOBAL_UNCERTAINTY_ASSIGNED_CONTEXT ( ( #20 ) ) GLOBAL_UNIT_ASSIGNED_CONTEXT ( ( #65, #281, #304 ) ) REPRESENTATION_CONTEXT ( 'NONE', 'WORKASPACE' ) );
#137 = ORIENTED_EDGE ( 'NONE', *, *, #16, .F. ) ;
#138 = DATE_AND_TIME ( #230, #144 ) ;
#139 = CYLINDRICAL_SURFACE ( 'NONE', #316, 6.000000000000001800 ) ;
#140 = ORIENTED_EDGE ( 'NONE', *, *, #365, .T. ) ;
#141 = APPROVAL_DATE_TIME ( #138, #326 ) ;
#142 = VECTOR ( 'NONE', #310, 1000.000000000000000 ) ;
#143 = DATE_AND_TIME ( #128, #229 ) ;
#144 = LOCAL_TIME ( 14, 2, 14.00000000000000000, #261 ) ;
#145 = ORIENTED_EDGE ( 'NONE', *, *, #380, .F. ) ;
#146 = ORIENTED_EDGE ( 'NONE', *, *, #369, .T. ) ;
#147 = ORIENTED_EDGE ( 'NONE', *, *, #10, .F. ) ;
#148 = FACE_OUTER_BOUND ( 'NONE', #245, .T. ) ;
#149 = FACE_OUTER_BOUND ( 'NONE', #251, .T. ) ;
#150 = COORDINATED_UNIVERSAL_TIME_OFFSET ( 6, 0, .BEHIND. ) ;
#151 = ORIENTED_EDGE ( 'NONE', *, *, #383, .F. ) ;
#152 = ORIENTED_EDGE ( 'NONE', *, *, #16, .T. ) ;
#153 = CIRCLE ( 'NONE', #370, 5.999999999999998200 ) ;
#154 = LINE ( 'NONE', #35, #126 ) ;
#155 = ORIENTED_EDGE ( 'NONE', *, *, #383, .T. ) ;
#156 = ORIENTED_EDGE ( 'NONE', *, *, #122, .F. ) ;
#157 = ORIENTED_EDGE ( 'NONE', *, *, #10, .T. ) ;
#158 = COORDINATED_UNIVERSAL_TIME_OFFSET ( 6, 0, .BEHIND. ) ;
#159 = PERSON_AND_ORGANIZATION ( #18, #183 ) ;
#160 = APPROVAL_PERSON_ORGANIZATION ( #165, #314, #309 ) ;
#161 = ORIENTED_EDGE ( 'NONE', *, *, #14, .F. ) ;
#162 = ORIENTED_EDGE ( 'NONE', *, *, #366, .F. ) ;
#163 = PERSON_AND_ORGANIZATION ( #18, #183 ) ;
#164 = ORIENTED_EDGE ( 'NONE', *, *, #367, .F. ) ;
#165 = PERSON_AND_ORGANIZATION ( #18, #183 ) ;
#166 = ORIENTED_EDGE ( 'NONE', *, *, #12, .T. ) ;
#167 = ORIENTED_EDGE ( 'NONE', *, *, #362, .T. ) ;
#168 = CIRCLE ( 'NONE', #22, 6.000000000000001800 ) ;
#169 = LOCAL_TIME ( 14, 2, 14.00000000000000000, #258 ) ;
#170 = LOCAL_TIME ( 14, 2, 14.00000000000000000, #260 ) ;
#171 = ORIENTED_EDGE ( 'NONE', *, *, #364, .T. ) ;
#172 = ORIENTED_EDGE ( 'NONE', *, *, #367, .T. ) ;
#173 = ORIENTED_EDGE ( 'NONE', *, *, #122, .T. ) ;
#174 = CIRCLE ( 'NONE', #13, 5.999999999999998200 ) ;
#175 = ORIENTED_EDGE ( 'NONE', *, *, #384, .T. ) ;
#176 = LINE ( 'NONE', #83, #248 ) ;
#177 = DATE_AND_TIME ( #228, #169 ) ;
#178 = LINE ( 'NONE', #45, #271 ) ;
#179 = LINE ( 'NONE', #26, #194 ) ;
#180 = LINE ( 'NONE', #52, #237 ) ;
#181 = ORIENTED_EDGE ( 'NONE', *, *, #11, .F. ) ;
#182 = CYLINDRICAL_SURFACE ( 'NONE', #322, 5.999999999999998200 ) ;
#183 = ORGANIZATION ( 'UNSPECIFIED', 'UNSPECIFIED', '' ) ;
#184 = ORIENTED_EDGE ( 'NONE', *, *, #12, .F. ) ;
#185 = CIRCLE ( 'NONE', #9, 6.000000000000001800 ) ;
#186 = EDGE_LOOP ( 'NONE', ( #196, #184, #175, #167 ) ) ;
#187 = LINE ( 'NONE', #36, #207 ) ;
#188 = VECTOR ( 'NONE', #55, 1000.000000000000000 ) ;
#189 = APPROVAL_PERSON_ORGANIZATION ( #163, #374, #282 ) ;
#190 = VECTOR ( 'NONE', #303, 1000.000000000000000 ) ;
#191 = LINE ( 'NONE', #73, #243 ) ;
#192 = ORIENTED_EDGE ( 'NONE', *, *, #379, .F. ) ;
#193 = FACE_OUTER_BOUND ( 'NONE', #267, .T. ) ;
#194 = VECTOR ( 'NONE', #37, 1000.000000000000000 ) ;
#195 = LINE ( 'NONE', #70, #238 ) ;
#196 = ORIENTED_EDGE ( 'NONE', *, *, #385, .F. ) ;
#197 = APPROVAL_DATE_TIME ( #127, #374 ) ;
#198 = EDGE_LOOP ( 'NONE', ( #156, #161, #244, #224 ) ) ;
#199 = CIRCLE ( 'NONE', #112, 6.000000000000001800 ) ;
#200 = VECTOR ( 'NONE', #110, 1000.000000000000000 ) ;
#201 = LINE ( 'NONE', #60, #252 ) ;
#202 = CYLINDRICAL_SURFACE ( 'NONE', #321, 5.999999999999998200 ) ;
#203 = SHAPE_DEFINITION_REPRESENTATION ( #311, #21 ) ;
#204 = FACE_BOUND ( 'NONE', #234, .T. ) ;
#205 = FACE_OUTER_BOUND ( 'NONE', #186, .T. ) ;
#206 = ORIENTED_EDGE ( 'NONE', *, *, #385, .T. ) ;
#207 = VECTOR ( 'NONE', #104, 1000.000000000000000 ) ;
#208 = ORIENTED_EDGE ( 'NONE', *, *, #362, .F. ) ;
#209 = PERSON_AND_ORGANIZATION ( #18, #183 ) ;
#210 = EDGE_LOOP ( 'NONE', ( #279, #218 ) ) ;
#211 = LINE ( 'NONE', #74, #240 ) ;
#212 = ORIENTED_EDGE ( 'NONE', *, *, #119, .F. ) ;
#213 = EDGE_LOOP ( 'NONE', ( #242, #206, #123, #129 ) ) ;
#214 = ORIENTED_EDGE ( 'NONE', *, *, #369, .F. ) ;
#215 = EDGE_LOOP ( 'NONE', ( #173, #192, #221, #172 ) ) ;
#216 = LINE ( 'NONE', #103, #200 ) ;
#217 = FACE_BOUND ( 'NONE', #226, .T. ) ;
#218 = ORIENTED_EDGE ( 'NONE', *, *, #380, .T. ) ;
#219 = CYLINDRICAL_SURFACE ( 'NONE', #319, 6.000000000000001800 ) ;
#220 = ORIENTED_EDGE ( 'NONE', *, *, #14, .T. ) ;
#221 = ORIENTED_EDGE ( 'NONE', *, *, #381, .F. ) ;
#222 = LINE ( 'NONE', #291, #190 ) ;
#223 = ORIENTED_EDGE ( 'NONE', *, *, #366, .T. ) ;
#224 = ORIENTED_EDGE ( 'NONE', *, *, #364, .F. ) ;
#225 = CIRCLE ( 'NONE', #372, 5.999999999999998200 ) ;
#226 = EDGE_LOOP ( 'NONE', ( #166, #125 ) ) ;
#227 = CIRCLE ( 'NONE', #376, 6.000000000000001800 ) ;
#228 = CALENDAR_DATE ( 2012, 21, 5 ) ;
#229 = LOCAL_TIME ( 14, 2, 14.00000000000000000, #150 ) ;
#230 = CALENDAR_DATE ( 2012, 21, 5 ) ;
#231 = FACE_OUTER_BOUND ( 'NONE', #215, .T. ) ;
#232 = LINE ( 'NONE', #286, #236 ) ;
#233 = EDGE_LOOP ( 'NONE', ( #220, #164, #147, #235 ) ) ;
#234 = EDGE_LOOP ( 'NONE', ( #208, #277 ) ) ;
#235 = ORIENTED_EDGE ( 'NONE', *, *, #11, .T. ) ;
#236 = VECTOR ( 'NONE', #305, 1000.000000000000000 ) ;
#237 = VECTOR ( 'NONE', #68, 1000.000000000000000 ) ;
#238 = VECTOR ( 'NONE', #79, 1000.000000000000000 ) ;
#239 = APPROVAL_PERSON_ORGANIZATION ( #262, #326, #293 ) ;
#240 = VECTOR ( 'NONE', #80, 1000.000000000000000 ) ;
#241 = EDGE_LOOP ( 'NONE', ( #162, #212 ) ) ;
#242 = ORIENTED_EDGE ( 'NONE', *, *, #118, .F. ) ;
#243 = VECTOR ( 'NONE', #66, 1000.000000000000000 ) ;
#244 = ORIENTED_EDGE ( 'NONE', *, *, #365, .F. ) ;
#245 = EDGE_LOOP ( 'NONE', ( #171, #214, #137, #268 ) ) ;
#246 = ORIENTED_EDGE ( 'NONE', *, *, #382, .T. ) ;
#247 = CIRCLE ( 'NONE', #114, 5.999999999999998200 ) ;
#248 = VECTOR ( 'NONE', #64, 1000.000000000000000 ) ;
#249 = APPROVAL_DATE_TIME ( #143, #314 ) ;
#250 = FACE_BOUND ( 'NONE', #210, .T. ) ;
#251 = EDGE_LOOP ( 'NONE', ( #255, #152, #266, #157 ) ) ;
#252 = VECTOR ( 'NONE', #95, 1000.000000000000000 ) ;
#253 = DATE_AND_TIME ( #256, #170 ) ;
#254 = PERSON_AND_ORGANIZATION ( #18, #183 ) ;
#255 = ORIENTED_EDGE ( 'NONE', *, *, #381, .T. ) ;
#256 = CALENDAR_DATE ( 2012, 21, 5 ) ;
#257 = FACE_BOUND ( 'NONE', #241, .T. ) ;
#258 = COORDINATED_UNIVERSAL_TIME_OFFSET ( 6, 0, .BEHIND. ) ;
#259 = VECTOR ( 'NONE', #56, 1000.000000000000000 ) ;
#260 = COORDINATED_UNIVERSAL_TIME_OFFSET ( 6, 0, .BEHIND. ) ;
#261 = COORDINATED_UNIVERSAL_TIME_OFFSET ( 6, 0, .BEHIND. ) ;
#262 = PERSON_AND_ORGANIZATION ( #18, #183 ) ;
#263 = PERSON_AND_ORGANIZATION ( #18, #183 ) ;
#264 = LINE ( 'NONE', #306, #142 ) ;
#265 = ORIENTED_EDGE ( 'NONE', *, *, #382, .F. ) ;
#266 = ORIENTED_EDGE ( 'NONE', *, *, #368, .T. ) ;
#267 = EDGE_LOOP ( 'NONE', ( #265, #132, #155, #223 ) ) ;
#268 = ORIENTED_EDGE ( 'NONE', *, *, #379, .T. ) ;
#269 = CALENDAR_DATE ( 2012, 21, 5 ) ;
#270 = ORIENTED_EDGE ( 'NONE', *, *, #368, .F. ) ;
#271 = VECTOR ( 'NONE', #59, 1000.000000000000000 ) ;
#272 = LOCAL_TIME ( 14, 2, 14.00000000000000000, #158 ) ;
#273 = CLOSED_SHELL ( 'NONE', ( #115, #5, #117, #116, #3, #4, #6, #2, #7, #8 ) ) ;
#274 = FACE_OUTER_BOUND ( 'NONE', #134, .T. ) ;
#275 = FACE_OUTER_BOUND ( 'NONE', #213, .T. ) ;
#276 = PERSON_AND_ORGANIZATION ( #18, #183 ) ;
#277 = ORIENTED_EDGE ( 'NONE', *, *, #120, .F. ) ;
#278 = EDGE_LOOP ( 'NONE', ( #145, #246, #135, #151 ) ) ;
#279 = ORIENTED_EDGE ( 'NONE', *, *, #363, .T. ) ;
#280 = LINE ( 'NONE', #58, #259 ) ;
#281 =( NAMED_UNIT ( * ) PLANE_ANGLE_UNIT ( ) SI_UNIT ( $, .RADIAN. ) );
#282 = APPROVAL_ROLE ( '' ) ;
#283 = DIRECTION ( 'NONE',  ( 0.0000000000000000000, 0.0000000000000000000, 1.000000000000000000 ) ) ;
#284 = PERSON_AND_ORGANIZATION_ROLE ( 'design_owner' ) ;
#285 = PERSON_AND_ORGANIZATION_ROLE ( 'classification_officer' ) ;
#286 = CARTESIAN_POINT ( 'NONE',  ( 16.00000000000000000, 10.00000000000000000, -50.00000000000000000 ) ) ;
#287 = SECURITY_CLASSIFICATION_LEVEL ( 'unclassified' ) ;
#288 = PERSON_AND_ORGANIZATION_ROLE ( 'design_supplier' ) ;
#289 = MECHANICAL_CONTEXT ( 'NONE', #300, 'mechanical' ) ;
#290 = APPROVAL_STATUS ( 'not_yet_approved' ) ;
#291 = CARTESIAN_POINT ( 'NONE',  ( 46.00000000000000000, 10.00000000000000000, -50.00000000000000000 ) ) ;
#292 = APPLICATION_CONTEXT ( 'configuration controlled 3d designs of mechanical parts and assemblies' ) ;
#293 = APPROVAL_ROLE ( '' ) ;
#294 = APPLICATION_PROTOCOL_DEFINITION ( 'international standard', 'config_control_design', 1994, #300 ) ;
#295 = APPLICATION_PROTOCOL_DEFINITION ( 'international standard', 'config_control_design', 1994, #292 ) ;
#296 = APPROVAL_STATUS ( 'not_yet_approved' ) ;
#297 = CARTESIAN_POINT ( 'NONE',  ( 0.0000000000000000000, 0.0000000000000000000, 0.0000000000000000000 ) ) ;
#298 = DATE_TIME_ROLE ( 'creation_date' ) ;
#299 = DIRECTION ( 'NONE',  ( 1.000000000000000000, 0.0000000000000000000, 0.0000000000000000000 ) ) ;
#300 = APPLICATION_CONTEXT ( 'configuration controlled 3d designs of mechanical parts and assemblies' ) ;
#301 = PERSON_AND_ORGANIZATION_ROLE ( 'creator' ) ;
#302 = DATE_TIME_ROLE ( 'classification_date' ) ;
#303 = DIRECTION ( 'NONE',  ( -0.0000000000000000000, -0.0000000000000000000, 1.000000000000000000 ) ) ;
#304 =( NAMED_UNIT ( * ) SI_UNIT ( $, .STERADIAN. ) SOLID_ANGLE_UNIT ( ) );
#305 = DIRECTION ( 'NONE',  ( -0.0000000000000000000, -0.0000000000000000000, 1.000000000000000000 ) ) ;
#306 = CARTESIAN_POINT ( 'NONE',  ( 34.00000000000000000, 10.00000000000000000, -50.00000000000000000 ) ) ;
#307 = PERSON_AND_ORGANIZATION_ROLE ( 'creator' ) ;
#308 = APPROVAL_STATUS ( 'not_yet_approved' ) ;
#309 = APPROVAL_ROLE ( '' ) ;
#310 = DIRECTION ( 'NONE',  ( -0.0000000000000000000, -0.0000000000000000000, 1.000000000000000000 ) ) ;
#311 = PRODUCT_DEFINITION_SHAPE ( 'NONE', 'NONE',  #313 ) ;
#312 = DESIGN_CONTEXT ( 'detailed design', #292, 'design' ) ;
#313 = PRODUCT_DEFINITION ( 'UNKNOWN', '', #320, #312 ) ;
#314 = APPROVAL ( #308, 'UNSPECIFIED' ) ;
#315 = AXIS2_PLACEMENT_3D ( 'NONE', #357, #337, #339 ) ;
#316 = AXIS2_PLACEMENT_3D ( 'NONE', #338, #43, #44 ) ;
#317 = AXIS2_PLACEMENT_3D ( 'NONE', #341, #330, #353 ) ;
#318 = AXIS2_PLACEMENT_3D ( 'NONE', #42, #40, #38 ) ;
#319 = AXIS2_PLACEMENT_3D ( 'NONE', #340, #354, #355 ) ;
#320 = PRODUCT_DEFINITION_FORMATION_WITH_SPECIFIED_SOURCE ( 'ANY', '', #17, .NOT_KNOWN. ) ;
#321 = AXIS2_PLACEMENT_3D ( 'NONE', #41, #39, #50 ) ;
#322 = AXIS2_PLACEMENT_3D ( 'NONE', #106, #96, #105 ) ;
#323 = SECURITY_CLASSIFICATION ( '', '', #287 ) ;
#324 = CC_DESIGN_PERSON_AND_ORGANIZATION_ASSIGNMENT ( #276, #285, ( #323 ) ) ;
#325 = CC_DESIGN_DATE_AND_TIME_ASSIGNMENT ( #253, #302, ( #323 ) ) ;
#326 = APPROVAL ( #290, 'UNSPECIFIED' ) ;
#327 = CC_DESIGN_APPROVAL ( #326, ( #323 ) ) ;
#328 = CC_DESIGN_SECURITY_CLASSIFICATION ( #323, ( #320 ) ) ;
#329 = PRODUCT_RELATED_PRODUCT_CATEGORY ( 'detail', '', ( #17 ) ) ;
#330 = DIRECTION ( 'NONE',  ( 0.0000000000000000000, 0.0000000000000000000, 1.000000000000000000 ) ) ;
#331 = PLANE ( 'NONE',  #121 ) ;
#332 = PLANE ( 'NONE',  #317 ) ;
#333 = VERTEX_POINT ( 'NONE', #102 ) ;
#334 = VERTEX_POINT ( 'NONE', #89 ) ;
#335 = VERTEX_POINT ( 'NONE', #94 ) ;
#336 = VERTEX_POINT ( 'NONE', #111 ) ;
#337 = DIRECTION ( 'NONE',  ( -1.000000000000000000, 0.0000000000000000000, 0.0000000000000000000 ) ) ;
#338 = CARTESIAN_POINT ( 'NONE',  ( 9.999999999999998200, 10.00000000000000000, -50.00000000000000000 ) ) ;
#339 = DIRECTION ( 'NONE',  ( 0.0000000000000000000, 0.0000000000000000000, 1.000000000000000000 ) ) ;
#340 = CARTESIAN_POINT ( 'NONE',  ( 9.999999999999998200, 10.00000000000000000, -50.00000000000000000 ) ) ;
#341 = CARTESIAN_POINT ( 'NONE',  ( 0.0000000000000000000, 50.00000000000000000, -25.00000000000000000 ) ) ;
#342 = VERTEX_POINT ( 'NONE', #63 ) ;
#343 = VERTEX_POINT ( 'NONE', #53 ) ;
#344 = VERTEX_POINT ( 'NONE', #84 ) ;
#345 = VERTEX_POINT ( 'NONE', #46 ) ;
#346 = VERTEX_POINT ( 'NONE', #108 ) ;
#347 = VERTEX_POINT ( 'NONE', #33 ) ;
#348 = VERTEX_POINT ( 'NONE', #82 ) ;
#349 = VERTEX_POINT ( 'NONE', #81 ) ;
#350 = VERTEX_POINT ( 'NONE', #47 ) ;
#351 = CARTESIAN_POINT ( 'NONE',  ( 0.0000000000000000000, 0.0000000000000000000, -25.00000000000000000 ) ) ;
#352 = DIRECTION ( 'NONE',  ( 0.0000000000000000000, -1.000000000000000000, 0.0000000000000000000 ) ) ;
#353 = DIRECTION ( 'NONE',  ( 1.000000000000000000, 0.0000000000000000000, -0.0000000000000000000 ) ) ;
#354 = DIRECTION ( 'NONE',  ( -0.0000000000000000000, -0.0000000000000000000, 1.000000000000000000 ) ) ;
#355 = DIRECTION ( 'NONE',  ( 1.000000000000000000, 0.0000000000000000000, 0.0000000000000000000 ) ) ;
#356 = VERTEX_POINT ( 'NONE', #48 ) ;
#357 = CARTESIAN_POINT ( 'NONE',  ( 75.00000000000000000, 50.00000000000000000, 0.0000000000000000000 ) ) ;
#358 = PLANE ( 'NONE',  #315 ) ;
#359 = VERTEX_POINT ( 'NONE', #51 ) ;
#360 = DIRECTION ( 'NONE',  ( 0.0000000000000000000, -0.0000000000000000000, -1.000000000000000000 ) ) ;
#361 = VERTEX_POINT ( 'NONE', #72 ) ;
#362 = EDGE_CURVE ( 'NONE', #345, #350, #153, .T. ) ;
#363 = EDGE_CURVE ( 'NONE', #346, #361, #199, .T. ) ;
#364 = EDGE_CURVE ( 'NONE', #359, #349, #191, .T. ) ;
#365 = EDGE_CURVE ( 'NONE', #349, #335, #195, .T. ) ;
#366 = EDGE_CURVE ( 'NONE', #336, #343, #185, .T. ) ;
#367 = EDGE_CURVE ( 'NONE', #348, #344, #176, .T. ) ;
#368 = EDGE_CURVE ( 'NONE', #333, #347, #211, .T. ) ;
#369 = EDGE_CURVE ( 'NONE', #333, #349, #280, .T. ) ;
#370 = AXIS2_PLACEMENT_3D ( 'NONE', #85, #62, #49 ) ;
#371 = CC_DESIGN_PERSON_AND_ORGANIZATION_ASSIGNMENT ( #263, #284, ( #17 ) ) ;
#372 = AXIS2_PLACEMENT_3D ( 'NONE', #27, #54, #109 ) ;
#373 = AXIS2_PLACEMENT_3D ( 'NONE', #92, #97, #31 ) ;
#374 = APPROVAL ( #296, 'UNSPECIFIED' ) ;
#375 = CC_DESIGN_PERSON_AND_ORGANIZATION_ASSIGNMENT ( #254, #288, ( #320 ) ) ;
#376 = AXIS2_PLACEMENT_3D ( 'NONE', #98, #90, #100 ) ;
#377 = AXIS2_PLACEMENT_3D ( 'NONE', #75, #76, #30 ) ;
#378 = CC_DESIGN_APPROVAL ( #374, ( #320 ) ) ;
#379 = EDGE_CURVE ( 'NONE', #342, #359, #180, .T. ) ;
#380 = EDGE_CURVE ( 'NONE', #361, #346, #168, .T. ) ;
#381 = EDGE_CURVE ( 'NONE', #348, #342, #178, .T. ) ;
#382 = EDGE_CURVE ( 'NONE', #361, #343, #130, .T. ) ;
#383 = EDGE_CURVE ( 'NONE', #346, #336, #232, .T. ) ;
#384 = EDGE_CURVE ( 'NONE', #356, #345, #222, .T. ) ;
#385 = EDGE_CURVE ( 'NONE', #334, #350, #264, .T. ) ;
ENDSEC;
END-ISO-10303-21;
