ISO-10303-21;
HEADER;
FILE_DESCRIPTION (( 'STEP AP203' ),
    '1' );
FILE_NAME ('ClampBlock.STEP',
    '2012-06-07T22:37:01',
    ( '' ),
    ( '' ),
    'SwSTEP 2.0',
    'SolidWorks 2010',
    '' );
FILE_SCHEMA (( 'CONFIG_CONTROL_DESIGN' ));
ENDSEC;

DATA;
#1 = PRODUCT_RELATED_PRODUCT_CATEGORY ( 'detail', '', ( #294 ) ) ;
#2 = AXIS2_PLACEMENT_3D ( 'NONE', #55, #60, #61 ) ;
#3 = AXIS2_PLACEMENT_3D ( 'NONE', #62, #65, #66 ) ;
#4 = AXIS2_PLACEMENT_3D ( 'NONE', #47, #53, #54 ) ;
#5 = APPROVAL ( #14, 'UNSPECIFIED' ) ;
#6 = AXIS2_PLACEMENT_3D ( 'NONE', #48, #51, #52 ) ;
#7 = CC_DESIGN_PERSON_AND_ORGANIZATION_ASSIGNMENT ( #147, #90, ( #294 ) ) ;
#8 = AXIS2_PLACEMENT_3D ( 'NONE', #81, #82, #83 ) ;
#9 = AXIS2_PLACEMENT_3D ( 'NONE', #56, #59, #58 ) ;
#10 = CC_DESIGN_APPROVAL ( #5, ( #11 ) ) ;
#11 = PRODUCT_DEFINITION ( 'UNKNOWN', '', #259, #307 ) ;
#12 = PERSON_AND_ORGANIZATION_ROLE ( 'creator' ) ;
#13 = APPLICATION_PROTOCOL_DEFINITION ( 'international standard', 'config_control_design', 1994, #15 ) ;
#14 = APPROVAL_STATUS ( 'not_yet_approved' ) ;
#15 = APPLICATION_CONTEXT ( 'configuration controlled 3d designs of mechanical parts and assemblies' ) ;
#16 = APPROVAL_ROLE ( '' ) ;
#17 = APPROVAL_ROLE ( '' ) ;
#18 = CARTESIAN_POINT ( 'NONE',  ( 35.24999999999999300, 13.00000000000000000, -300.0000000000000000 ) ) ;
#19 = CARTESIAN_POINT ( 'NONE',  ( 0.0000000000000000000, 0.0000000000000000000, -25.39999999999999900 ) ) ;
#20 = DIRECTION ( 'NONE',  ( -0.0000000000000000000, -1.000000000000000000, -0.0000000000000000000 ) ) ;
#21 = DIRECTION ( 'NONE',  ( -1.000000000000000000, 0.0000000000000000000, 0.0000000000000000000 ) ) ;
#22 = DIRECTION ( 'NONE',  ( 1.000000000000000000, 0.0000000000000000000, 0.0000000000000000000 ) ) ;
#23 = PLANE ( 'NONE',  #4 ) ;
#24 = DIRECTION ( 'NONE',  ( -0.0000000000000000000, -0.0000000000000000000, 1.000000000000000000 ) ) ;
#25 = DIRECTION ( 'NONE',  ( -0.0000000000000000000, -0.0000000000000000000, 1.000000000000000000 ) ) ;
#26 = PLANE ( 'NONE',  #303 ) ;
#27 = CARTESIAN_POINT ( 'NONE',  ( 0.0000000000000000000, 0.0000000000000000000, 0.0000000000000000000 ) ) ;
#28 = DIRECTION ( 'NONE',  ( -1.000000000000000000, -0.0000000000000000000, -0.0000000000000000000 ) ) ;
#29 = CARTESIAN_POINT ( 'NONE',  ( 50.00000000000000000, 25.39999999999999900, 0.0000000000000000000 ) ) ;
#30 = PLANE ( 'NONE',  #304 ) ;
#31 = DIRECTION ( 'NONE',  ( 0.0000000000000000000, 0.0000000000000000000, 1.000000000000000000 ) ) ;
#32 = DIRECTION ( 'NONE',  ( 1.000000000000000000, 0.0000000000000000000, 0.0000000000000000000 ) ) ;
#33 = CARTESIAN_POINT ( 'NONE',  ( 0.0000000000000000000, 25.39999999999999900, -25.39999999999999900 ) ) ;
#34 = DIRECTION ( 'NONE',  ( 0.0000000000000000000, 0.0000000000000000000, 1.000000000000000000 ) ) ;
#35 = DIRECTION ( 'NONE',  ( 0.0000000000000000000, 0.0000000000000000000, -1.000000000000000000 ) ) ;
#36 = CARTESIAN_POINT ( 'NONE',  ( 50.00000000000000000, 25.39999999999999900, 0.0000000000000000000 ) ) ;
#37 = CARTESIAN_POINT ( 'NONE',  ( 0.0000000000000000000, 25.39999999999999900, 0.0000000000000000000 ) ) ;
#38 = CARTESIAN_POINT ( 'NONE',  ( 0.0000000000000000000, 25.39999999999999900, 0.0000000000000000000 ) ) ;
#39 = DIRECTION ( 'NONE',  ( -0.0000000000000000000, -0.0000000000000000000, 1.000000000000000000 ) ) ;
#40 = CARTESIAN_POINT ( 'NONE',  ( 50.00000000000000000, 0.0000000000000000000, 0.0000000000000000000 ) ) ;
#41 = DIRECTION ( 'NONE',  ( -0.0000000000000000000, -0.0000000000000000000, 1.000000000000000000 ) ) ;
#42 = DIRECTION ( 'NONE',  ( 0.0000000000000000000, 0.0000000000000000000, -1.000000000000000000 ) ) ;
#43 = PLANE ( 'NONE',  #298 ) ;
#44 = CARTESIAN_POINT ( 'NONE',  ( 0.0000000000000000000, 25.39999999999999900, 0.0000000000000000000 ) ) ;
#45 = DIRECTION ( 'NONE',  ( 1.000000000000000000, -0.0000000000000000000, 0.0000000000000000000 ) ) ;
#46 = DIRECTION ( 'NONE',  ( 0.0000000000000000000, 0.0000000000000000000, -1.000000000000000000 ) ) ;
#47 = CARTESIAN_POINT ( 'NONE',  ( 0.0000000000000000000, 25.39999999999999900, -25.39999999999999900 ) ) ;
#48 = CARTESIAN_POINT ( 'NONE',  ( 29.99999999999999300, 13.00000000000000000, -300.0000000000000000 ) ) ;
#49 = DIRECTION ( 'NONE',  ( 0.0000000000000000000, 0.0000000000000000000, -1.000000000000000000 ) ) ;
#50 = DIRECTION ( 'NONE',  ( -1.000000000000000000, 0.0000000000000000000, -0.0000000000000000000 ) ) ;
#51 = DIRECTION ( 'NONE',  ( -0.0000000000000000000, -0.0000000000000000000, 1.000000000000000000 ) ) ;
#52 = DIRECTION ( 'NONE',  ( 1.000000000000000000, 0.0000000000000000000, 0.0000000000000000000 ) ) ;
#53 = DIRECTION ( 'NONE',  ( 0.0000000000000000000, 0.0000000000000000000, 1.000000000000000000 ) ) ;
#54 = DIRECTION ( 'NONE',  ( 1.000000000000000000, 0.0000000000000000000, -0.0000000000000000000 ) ) ;
#55 = CARTESIAN_POINT ( 'NONE',  ( 0.0000000000000000000, 0.0000000000000000000, -25.39999999999999900 ) ) ;
#56 = CARTESIAN_POINT ( 'NONE',  ( 29.99999999999999300, 13.00000000000000000, -300.0000000000000000 ) ) ;
#57 = PLANE ( 'NONE',  #2 ) ;
#58 = DIRECTION ( 'NONE',  ( 1.000000000000000000, 0.0000000000000000000, 0.0000000000000000000 ) ) ;
#59 = DIRECTION ( 'NONE',  ( -0.0000000000000000000, -0.0000000000000000000, 1.000000000000000000 ) ) ;
#60 = DIRECTION ( 'NONE',  ( 0.0000000000000000000, -1.000000000000000000, 0.0000000000000000000 ) ) ;
#61 = DIRECTION ( 'NONE',  ( 0.0000000000000000000, -0.0000000000000000000, -1.000000000000000000 ) ) ;
#62 = CARTESIAN_POINT ( 'NONE',  ( 0.0000000000000000000, 25.39999999999999900, -25.39999999999999900 ) ) ;
#63 = PLANE ( 'NONE',  #3 ) ;
#64 = CARTESIAN_POINT ( 'NONE',  ( 29.99999999999999300, 13.00000000000000000, -25.39999999999997700 ) ) ;
#65 = DIRECTION ( 'NONE',  ( 0.0000000000000000000, -1.000000000000000000, 0.0000000000000000000 ) ) ;
#66 = DIRECTION ( 'NONE',  ( 0.0000000000000000000, -0.0000000000000000000, -1.000000000000000000 ) ) ;
#67 = CARTESIAN_POINT ( 'NONE',  ( 29.99999999999999300, 13.00000000000000000, 0.0000000000000000000 ) ) ;
#68 = DIRECTION ( 'NONE',  ( 0.0000000000000000000, 0.0000000000000000000, 1.000000000000000000 ) ) ;
#69 = DIRECTION ( 'NONE',  ( 1.000000000000000000, 0.0000000000000000000, 0.0000000000000000000 ) ) ;
#70 = DIRECTION ( 'NONE',  ( 0.0000000000000000000, 0.0000000000000000000, 1.000000000000000000 ) ) ;
#71 = DIRECTION ( 'NONE',  ( 1.000000000000000000, 0.0000000000000000000, 0.0000000000000000000 ) ) ;
#72 = CARTESIAN_POINT ( 'NONE',  ( 0.0000000000000000000, 25.39999999999999900, -25.39999999999999900 ) ) ;
#73 = DIRECTION ( 'NONE',  ( -0.0000000000000000000, -1.000000000000000000, -0.0000000000000000000 ) ) ;
#74 = CARTESIAN_POINT ( 'NONE',  ( 0.0000000000000000000, 25.39999999999999900, 0.0000000000000000000 ) ) ;
#75 = DIRECTION ( 'NONE',  ( 1.000000000000000000, 0.0000000000000000000, 0.0000000000000000000 ) ) ;
#76 =( LENGTH_UNIT ( ) NAMED_UNIT ( * ) SI_UNIT ( .MILLI., .METRE. ) );
#77 = CARTESIAN_POINT ( 'NONE',  ( 0.0000000000000000000, 25.39999999999999900, 0.0000000000000000000 ) ) ;
#78 = DIRECTION ( 'NONE',  ( -0.0000000000000000000, -1.000000000000000000, -0.0000000000000000000 ) ) ;
#79 =( NAMED_UNIT ( * ) PLANE_ANGLE_UNIT ( ) SI_UNIT ( $, .RADIAN. ) );
#80 =( NAMED_UNIT ( * ) SI_UNIT ( $, .STERADIAN. ) SOLID_ANGLE_UNIT ( ) );
#81 = CARTESIAN_POINT ( 'NONE',  ( 0.0000000000000000000, 0.0000000000000000000, 0.0000000000000000000 ) ) ;
#82 = DIRECTION ( 'NONE',  ( 0.0000000000000000000, 0.0000000000000000000, 1.000000000000000000 ) ) ;
#83 = DIRECTION ( 'NONE',  ( 1.000000000000000000, 0.0000000000000000000, 0.0000000000000000000 ) ) ;
#84 = APPLICATION_CONTEXT ( 'configuration controlled 3d designs of mechanical parts and assemblies' ) ;
#85 = MECHANICAL_CONTEXT ( 'NONE', #84, 'mechanical' ) ;
#86 = SECURITY_CLASSIFICATION_LEVEL ( 'unclassified' ) ;
#87 = CARTESIAN_POINT ( 'NONE',  ( 50.00000000000000000, 25.39999999999999900, -25.39999999999999900 ) ) ;
#88 = CARTESIAN_POINT ( 'NONE',  ( 29.99999999999999300, 13.00000000000000000, 0.0000000000000000000 ) ) ;
#89 = CARTESIAN_POINT ( 'NONE',  ( 50.00000000000000000, 25.39999999999999900, 0.0000000000000000000 ) ) ;
#90 = PERSON_AND_ORGANIZATION_ROLE ( 'design_owner' ) ;
#91 = CARTESIAN_POINT ( 'NONE',  ( 0.0000000000000000000, 0.0000000000000000000, -25.39999999999999900 ) ) ;
#92 = VERTEX_POINT ( 'NONE', #125 ) ;
#93 = PERSON_AND_ORGANIZATION_ROLE ( 'creator' ) ;
#94 = CARTESIAN_POINT ( 'NONE',  ( 50.00000000000000000, 0.0000000000000000000, -25.39999999999999900 ) ) ;
#95 = DIRECTION ( 'NONE',  ( -1.000000000000000000, -0.0000000000000000000, -0.0000000000000000000 ) ) ;
#96 = CARTESIAN_POINT ( 'NONE',  ( 29.99999999999999300, 13.00000000000000000, -25.39999999999997700 ) ) ;
#97 = VERTEX_POINT ( 'NONE', #100 ) ;
#98 = VERTEX_POINT ( 'NONE', #102 ) ;
#99 = VERTEX_POINT ( 'NONE', #91 ) ;
#100 = CARTESIAN_POINT ( 'NONE',  ( 35.24999999999999300, 13.00000000000000000, -25.39999999999997700 ) ) ;
#101 = VERTEX_POINT ( 'NONE', #117 ) ;
#102 = CARTESIAN_POINT ( 'NONE',  ( 24.74999999999999300, 13.00000000000000000, -25.39999999999997700 ) ) ;
#103 = VERTEX_POINT ( 'NONE', #128 ) ;
#104 = APPROVAL_STATUS ( 'not_yet_approved' ) ;
#105 = PERSON_AND_ORGANIZATION_ROLE ( 'design_supplier' ) ;
#106 = DIRECTION ( 'NONE',  ( 0.0000000000000000000, 0.0000000000000000000, 1.000000000000000000 ) ) ;
#107 = DIRECTION ( 'NONE',  ( 1.000000000000000000, 0.0000000000000000000, 0.0000000000000000000 ) ) ;
#108 = APPROVAL_STATUS ( 'not_yet_approved' ) ;
#109 = CARTESIAN_POINT ( 'NONE',  ( 24.74999999999999300, 13.00000000000000000, -300.0000000000000000 ) ) ;
#110 = CARTESIAN_POINT ( 'NONE',  ( 50.00000000000000000, 0.0000000000000000000, 0.0000000000000000000 ) ) ;
#111 = CARTESIAN_POINT ( 'NONE',  ( 0.0000000000000000000, 0.0000000000000000000, 0.0000000000000000000 ) ) ;
#112 = DATE_TIME_ROLE ( 'classification_date' ) ;
#113 = PERSON_AND_ORGANIZATION_ROLE ( 'classification_officer' ) ;
#114 = APPLICATION_PROTOCOL_DEFINITION ( 'international standard', 'config_control_design', 1994, #84 ) ;
#115 = APPROVAL_ROLE ( '' ) ;
#116 = DATE_TIME_ROLE ( 'creation_date' ) ;
#117 = CARTESIAN_POINT ( 'NONE',  ( 0.0000000000000000000, 25.39999999999999900, -25.39999999999999900 ) ) ;
#118 = CARTESIAN_POINT ( 'NONE',  ( 0.0000000000000000000, 0.0000000000000000000, 0.0000000000000000000 ) ) ;
#119 = VERTEX_POINT ( 'NONE', #122 ) ;
#120 = VERTEX_POINT ( 'NONE', #123 ) ;
#121 = DIRECTION ( 'NONE',  ( -0.0000000000000000000, -1.000000000000000000, -0.0000000000000000000 ) ) ;
#122 = CARTESIAN_POINT ( 'NONE',  ( 35.24999999999999300, 13.00000000000000000, 0.0000000000000000000 ) ) ;
#123 = CARTESIAN_POINT ( 'NONE',  ( 0.0000000000000000000, 25.39999999999999900, 0.0000000000000000000 ) ) ;
#124 = VERTEX_POINT ( 'NONE', #127 ) ;
#125 = CARTESIAN_POINT ( 'NONE',  ( 50.00000000000000000, 25.39999999999999900, -25.39999999999999900 ) ) ;
#126 = VERTEX_POINT ( 'NONE', #110 ) ;
#127 = CARTESIAN_POINT ( 'NONE',  ( 24.74999999999999300, 13.00000000000000000, 0.0000000000000000000 ) ) ;
#128 = CARTESIAN_POINT ( 'NONE',  ( 50.00000000000000000, 25.39999999999999900, 0.0000000000000000000 ) ) ;
#129 = VERTEX_POINT ( 'NONE', #118 ) ;
#130 = VERTEX_POINT ( 'NONE', #94 ) ;
#131 = ORIENTED_EDGE ( 'NONE', *, *, #279, .T. ) ;
#132 = ORIENTED_EDGE ( 'NONE', *, *, #274, .F. ) ;
#133 = PERSON_AND_ORGANIZATION ( #293, #159 ) ;
#134 = DATE_AND_TIME ( #187, #202 ) ;
#135 = DATE_AND_TIME ( #210, #208 ) ;
#136 = APPROVAL_PERSON_ORGANIZATION ( #148, #5, #16 ) ;
#137 = FACE_OUTER_BOUND ( 'NONE', #220, .T. ) ;
#138 = EDGE_LOOP ( 'NONE', ( #235, #211, #214, #149 ) ) ;
#139 = ORIENTED_EDGE ( 'NONE', *, *, #270, .F. ) ;
#140 = VECTOR ( 'NONE', #28, 1000.000000000000000 ) ;
#141 = ORIENTED_EDGE ( 'NONE', *, *, #275, .F. ) ;
#142 = CIRCLE ( 'NONE', #301, 5.249999999999997300 ) ;
#143 = ORIENTED_EDGE ( 'NONE', *, *, #267, .F. ) ;
#144 = ORIENTED_EDGE ( 'NONE', *, *, #279, .F. ) ;
#145 = ORIENTED_EDGE ( 'NONE', *, *, #306, .T. ) ;
#146 = LINE ( 'NONE', #33, #140 ) ;
#147 = PERSON_AND_ORGANIZATION ( #293, #159 ) ;
#148 = PERSON_AND_ORGANIZATION ( #293, #159 ) ;
#149 = ORIENTED_EDGE ( 'NONE', *, *, #273, .T. ) ;
#150 = FACE_OUTER_BOUND ( 'NONE', #236, .T. ) ;
#151 = CIRCLE ( 'NONE', #296, 5.249999999999997300 ) ;
#152 = VECTOR ( 'NONE', #78, 1000.000000000000000 ) ;
#153 = COORDINATED_UNIVERSAL_TIME_OFFSET ( 6, 0, .BEHIND. ) ;
#154 = LINE ( 'NONE', #36, #254 ) ;
#155 = ORIENTED_EDGE ( 'NONE', *, *, #276, .F. ) ;
#156 = ORIENTED_EDGE ( 'NONE', *, *, #268, .F. ) ;
#157 = ORIENTED_EDGE ( 'NONE', *, *, #271, .T. ) ;
#158 = SHAPE_DEFINITION_REPRESENTATION ( #308, #311 ) ;
#159 = ORGANIZATION ( 'UNSPECIFIED', 'UNSPECIFIED', '' ) ;
#160 = LINE ( 'NONE', #111, #253 ) ;
#161 = VECTOR ( 'NONE', #95, 1000.000000000000000 ) ;
#162 = LINE ( 'NONE', #89, #229 ) ;
#163 = LINE ( 'NONE', #27, #212 ) ;
#164 = LOCAL_TIME ( 17, 37, 1.000000000000000000, #256 ) ;
#165 = ORIENTED_EDGE ( 'NONE', *, *, #268, .T. ) ;
#166 = CIRCLE ( 'NONE', #305, 5.249999999999997300 ) ;
#167 = ORIENTED_EDGE ( 'NONE', *, *, #276, .T. ) ;
#168 = CALENDAR_DATE ( 2012, 7, 6 ) ;
#169 = LINE ( 'NONE', #77, #152 ) ;
#170 = DATE_AND_TIME ( #168, #251 ) ;
#171 = ORIENTED_EDGE ( 'NONE', *, *, #272, .F. ) ;
#172 = LINE ( 'NONE', #38, #246 ) ;
#173 = ORIENTED_EDGE ( 'NONE', *, *, #297, .T. ) ;
#174 = EDGE_LOOP ( 'NONE', ( #217, #176 ) ) ;
#175 = APPROVAL_DATE_TIME ( #170, #281 ) ;
#176 = ORIENTED_EDGE ( 'NONE', *, *, #299, .T. ) ;
#177 = FACE_BOUND ( 'NONE', #199, .T. ) ;
#178 = ORIENTED_EDGE ( 'NONE', *, *, #299, .F. ) ;
#179 = VECTOR ( 'NONE', #75, 1000.000000000000000 ) ;
#180 = ORIENTED_EDGE ( 'NONE', *, *, #306, .F. ) ;
#181 = FACE_OUTER_BOUND ( 'NONE', #230, .T. ) ;
#182 = ORIENTED_EDGE ( 'NONE', *, *, #270, .T. ) ;
#183 = CLOSED_SHELL ( 'NONE', ( #289, #286, #287, #285, #288, #292, #290, #291 ) ) ;
#184 = ORIENTED_EDGE ( 'NONE', *, *, #300, .F. ) ;
#185 = ORIENTED_EDGE ( 'NONE', *, *, #273, .F. ) ;
#186 = EDGE_LOOP ( 'NONE', ( #213, #231, #215, #131 ) ) ;
#187 = CALENDAR_DATE ( 2012, 7, 6 ) ;
#188 = LINE ( 'NONE', #72, #190 ) ;
#189 = FACE_OUTER_BOUND ( 'NONE', #205, .T. ) ;
#190 = VECTOR ( 'NONE', #73, 1000.000000000000000 ) ;
#191 = CYLINDRICAL_SURFACE ( 'NONE', #9, 5.249999999999997300 ) ;
#192 = PERSON_AND_ORGANIZATION ( #293, #159 ) ;
#193 = FACE_OUTER_BOUND ( 'NONE', #219, .T. ) ;
#194 = LINE ( 'NONE', #109, #209 ) ;
#195 =( GEOMETRIC_REPRESENTATION_CONTEXT ( 3 ) GLOBAL_UNCERTAINTY_ASSIGNED_CONTEXT ( ( #310 ) ) GLOBAL_UNIT_ASSIGNED_CONTEXT ( ( #76, #79, #80 ) ) REPRESENTATION_CONTEXT ( 'NONE', 'WORKASPACE' ) );
#196 = CIRCLE ( 'NONE', #295, 5.249999999999997300 ) ;
#197 = LINE ( 'NONE', #74, #179 ) ;
#198 = FACE_OUTER_BOUND ( 'NONE', #186, .T. ) ;
#199 = EDGE_LOOP ( 'NONE', ( #156, #216 ) ) ;
#200 = COORDINATED_UNIVERSAL_TIME_OFFSET ( 6, 0, .BEHIND. ) ;
#201 = FACE_BOUND ( 'NONE', #174, .T. ) ;
#202 = LOCAL_TIME ( 17, 37, 1.000000000000000000, #153 ) ;
#203 = CYLINDRICAL_SURFACE ( 'NONE', #6, 5.249999999999997300 ) ;
#204 = ORIENTED_EDGE ( 'NONE', *, *, #272, .T. ) ;
#205 = EDGE_LOOP ( 'NONE', ( #218, #171, #239, #141 ) ) ;
#206 = ORIENTED_EDGE ( 'NONE', *, *, #275, .T. ) ;
#207 = VECTOR ( 'NONE', #42, 1000.000000000000000 ) ;
#208 = LOCAL_TIME ( 17, 37, 1.000000000000000000, #200 ) ;
#209 = VECTOR ( 'NONE', #24, 1000.000000000000000 ) ;
#210 = CALENDAR_DATE ( 2012, 7, 6 ) ;
#211 = ORIENTED_EDGE ( 'NONE', *, *, #271, .F. ) ;
#212 = VECTOR ( 'NONE', #25, 1000.000000000000000 ) ;
#213 = ORIENTED_EDGE ( 'NONE', *, *, #267, .T. ) ;
#214 = ORIENTED_EDGE ( 'NONE', *, *, #278, .F. ) ;
#215 = ORIENTED_EDGE ( 'NONE', *, *, #278, .T. ) ;
#216 = ORIENTED_EDGE ( 'NONE', *, *, #297, .F. ) ;
#217 = ORIENTED_EDGE ( 'NONE', *, *, #274, .T. ) ;
#218 = ORIENTED_EDGE ( 'NONE', *, *, #277, .F. ) ;
#219 = EDGE_LOOP ( 'NONE', ( #178, #167, #173, #139 ) ) ;
#220 = EDGE_LOOP ( 'NONE', ( #206, #185, #222, #145 ) ) ;
#221 = ORIENTED_EDGE ( 'NONE', *, *, #277, .T. ) ;
#222 = ORIENTED_EDGE ( 'NONE', *, *, #302, .F. ) ;
#223 = LINE ( 'NONE', #19, #161 ) ;
#224 = LINE ( 'NONE', #18, #252 ) ;
#225 = LINE ( 'NONE', #40, #207 ) ;
#226 = EDGE_LOOP ( 'NONE', ( #221, #180, #143, #250 ) ) ;
#227 = LINE ( 'NONE', #87, #255 ) ;
#228 = COORDINATED_UNIVERSAL_TIME_OFFSET ( 6, 0, .BEHIND. ) ;
#229 = VECTOR ( 'NONE', #121, 1000.000000000000000 ) ;
#230 = EDGE_LOOP ( 'NONE', ( #204, #184, #144, #157 ) ) ;
#231 = ORIENTED_EDGE ( 'NONE', *, *, #302, .T. ) ;
#232 = CALENDAR_DATE ( 2012, 7, 6 ) ;
#233 = FACE_OUTER_BOUND ( 'NONE', #226, .T. ) ;
#234 = PERSON_AND_ORGANIZATION ( #293, #159 ) ;
#235 = ORIENTED_EDGE ( 'NONE', *, *, #269, .T. ) ;
#236 = EDGE_LOOP ( 'NONE', ( #155, #132, #182, #165 ) ) ;
#237 = APPROVAL_PERSON_ORGANIZATION ( #234, #281, #17 ) ;
#238 = FACE_OUTER_BOUND ( 'NONE', #138, .T. ) ;
#239 = ORIENTED_EDGE ( 'NONE', *, *, #269, .F. ) ;
#240 = PERSON_AND_ORGANIZATION ( #293, #159 ) ;
#241 = PERSON_AND_ORGANIZATION ( #293, #159 ) ;
#242 = APPROVAL_DATE_TIME ( #243, #261 ) ;
#243 = DATE_AND_TIME ( #244, #245 ) ;
#244 = CALENDAR_DATE ( 2012, 7, 6 ) ;
#245 = LOCAL_TIME ( 17, 37, 1.000000000000000000, #248 ) ;
#246 = VECTOR ( 'NONE', #39, 1000.000000000000000 ) ;
#247 = APPROVAL_PERSON_ORGANIZATION ( #133, #261, #115 ) ;
#248 = COORDINATED_UNIVERSAL_TIME_OFFSET ( 6, 0, .BEHIND. ) ;
#249 = APPROVAL_DATE_TIME ( #134, #5 ) ;
#250 = ORIENTED_EDGE ( 'NONE', *, *, #300, .T. ) ;
#251 = LOCAL_TIME ( 17, 37, 1.000000000000000000, #228 ) ;
#252 = VECTOR ( 'NONE', #41, 1000.000000000000000 ) ;
#253 = VECTOR ( 'NONE', #22, 1000.000000000000000 ) ;
#254 = VECTOR ( 'NONE', #35, 1000.000000000000000 ) ;
#255 = VECTOR ( 'NONE', #20, 1000.000000000000000 ) ;
#256 = COORDINATED_UNIVERSAL_TIME_OFFSET ( 6, 0, .BEHIND. ) ;
#257 = DATE_AND_TIME ( #232, #164 ) ;
#258 = PERSON_AND_ORGANIZATION ( #293, #159 ) ;
#259 = PRODUCT_DEFINITION_FORMATION_WITH_SPECIFIED_SOURCE ( 'ANY', '', #294, .NOT_KNOWN. ) ;
#260 = CC_DESIGN_DATE_AND_TIME_ASSIGNMENT ( #257, #116, ( #11 ) ) ;
#261 = APPROVAL ( #108, 'UNSPECIFIED' ) ;
#262 = CC_DESIGN_PERSON_AND_ORGANIZATION_ASSIGNMENT ( #241, #93, ( #259 ) ) ;
#263 = CC_DESIGN_APPROVAL ( #261, ( #259 ) ) ;
#264 = CC_DESIGN_PERSON_AND_ORGANIZATION_ASSIGNMENT ( #192, #12, ( #11 ) ) ;
#265 = CC_DESIGN_PERSON_AND_ORGANIZATION_ASSIGNMENT ( #240, #105, ( #259 ) ) ;
#266 = SECURITY_CLASSIFICATION ( '', '', #86 ) ;
#267 = EDGE_CURVE ( 'NONE', #101, #120, #172, .T. ) ;
#268 = EDGE_CURVE ( 'NONE', #119, #124, #142, .T. ) ;
#269 = EDGE_CURVE ( 'NONE', #126, #130, #225, .T. ) ;
#270 = EDGE_CURVE ( 'NONE', #97, #119, #224, .T. ) ;
#271 = EDGE_CURVE ( 'NONE', #92, #130, #227, .T. ) ;
#272 = EDGE_CURVE ( 'NONE', #130, #99, #223, .T. ) ;
#273 = EDGE_CURVE ( 'NONE', #103, #126, #162, .T. ) ;
#274 = EDGE_CURVE ( 'NONE', #97, #98, #196, .T. ) ;
#275 = EDGE_CURVE ( 'NONE', #129, #126, #160, .T. ) ;
#276 = EDGE_CURVE ( 'NONE', #98, #124, #194, .T. ) ;
#277 = EDGE_CURVE ( 'NONE', #99, #129, #163, .T. ) ;
#278 = EDGE_CURVE ( 'NONE', #103, #92, #154, .T. ) ;
#279 = EDGE_CURVE ( 'NONE', #92, #101, #146, .T. ) ;
#280 = CC_DESIGN_APPROVAL ( #281, ( #266 ) ) ;
#281 = APPROVAL ( #104, 'UNSPECIFIED' ) ;
#282 = CC_DESIGN_PERSON_AND_ORGANIZATION_ASSIGNMENT ( #258, #113, ( #266 ) ) ;
#283 = CC_DESIGN_SECURITY_CLASSIFICATION ( #266, ( #259 ) ) ;
#284 = CC_DESIGN_DATE_AND_TIME_ASSIGNMENT ( #135, #112, ( #266 ) ) ;
#285 = ADVANCED_FACE ( 'NONE', ( #238 ), #30, .F. ) ;
#286 = ADVANCED_FACE ( 'NONE', ( #233 ), #26, .F. ) ;
#287 = ADVANCED_FACE ( 'NONE', ( #177, #137 ), #43, .F. ) ;
#288 = ADVANCED_FACE ( 'NONE', ( #201, #181 ), #23, .F. ) ;
#289 = ADVANCED_FACE ( 'NONE', ( #193 ), #203, .F. ) ;
#290 = ADVANCED_FACE ( 'NONE', ( #189 ), #57, .T. ) ;
#291 = ADVANCED_FACE ( 'NONE', ( #150 ), #191, .F. ) ;
#292 = ADVANCED_FACE ( 'NONE', ( #198 ), #63, .F. ) ;
#293 = PERSON ( 'UNSPECIFIED', 'UNSPECIFIED', 'UNSPECIFIED', ('UNSPECIFIED'), ('UNSPECIFIED'), ('UNSPECIFIED') ) ;
#294 = PRODUCT ( 'ClampBlock', 'ClampBlock', '', ( #85 ) ) ;
#295 = AXIS2_PLACEMENT_3D ( 'NONE', #96, #106, #107 ) ;
#296 = AXIS2_PLACEMENT_3D ( 'NONE', #64, #70, #71 ) ;
#297 = EDGE_CURVE ( 'NONE', #124, #119, #166, .T. ) ;
#298 = AXIS2_PLACEMENT_3D ( 'NONE', #44, #49, #50 ) ;
#299 = EDGE_CURVE ( 'NONE', #98, #97, #151, .T. ) ;
#300 = EDGE_CURVE ( 'NONE', #101, #99, #188, .T. ) ;
#301 = AXIS2_PLACEMENT_3D ( 'NONE', #88, #34, #32 ) ;
#302 = EDGE_CURVE ( 'NONE', #120, #103, #197, .T. ) ;
#303 = AXIS2_PLACEMENT_3D ( 'NONE', #37, #45, #46 ) ;
#304 = AXIS2_PLACEMENT_3D ( 'NONE', #29, #21, #31 ) ;
#305 = AXIS2_PLACEMENT_3D ( 'NONE', #67, #68, #69 ) ;
#306 = EDGE_CURVE ( 'NONE', #120, #129, #169, .T. ) ;
#307 = DESIGN_CONTEXT ( 'detailed design', #15, 'design' ) ;
#308 = PRODUCT_DEFINITION_SHAPE ( 'NONE', 'NONE',  #11 ) ;
#309 = MANIFOLD_SOLID_BREP ( 'Cut-Extrude1', #183 ) ;
#310 = UNCERTAINTY_MEASURE_WITH_UNIT (LENGTH_MEASURE( 1.000000000000000100E-005 ), #76, 'distance_accuracy_value', 'NONE');
#311 = ADVANCED_BREP_SHAPE_REPRESENTATION ( 'ClampBlock', ( #309, #8 ), #195 ) ;
ENDSEC;
END-ISO-10303-21;
