ISO-10303-21;
HEADER;
FILE_DESCRIPTION (( 'STEP AP203' ),
    '1' );
FILE_NAME ('MountDisc.STEP',
    '2012-05-24T03:00:38',
    ( '' ),
    ( '' ),
    'SwSTEP 2.0',
    'SolidWorks 2010',
    '' );
FILE_SCHEMA (( 'CONFIG_CONTROL_DESIGN' ));
ENDSEC;

DATA;
#1 = ADVANCED_FACE ( 'NONE', ( #231, #239 ), #87, .T. ) ;
#2 = ADVANCED_FACE ( 'NONE', ( #62 ), #232, .T. ) ;
#3 = ADVANCED_FACE ( 'NONE', ( #64 ), #60, .F. ) ;
#4 = ADVANCED_FACE ( 'NONE', ( #61, #59 ), #155, .F. ) ;
#5 = ADVANCED_FACE ( 'NONE', ( #43 ), #63, .T. ) ;
#6 = ADVANCED_FACE ( 'NONE', ( #42 ), #46, .F. ) ;
#7 = PERSON_AND_ORGANIZATION ( #40, #58 ) ;
#8 = APPROVAL_PERSON_ORGANIZATION ( #7, #194, #143 ) ;
#9 = COORDINATED_UNIVERSAL_TIME_OFFSET ( 6, 0, .BEHIND. ) ;
#10 = LOCAL_TIME ( 22, 0, 38.00000000000000000, #9 ) ;
#11 = CALENDAR_DATE ( 2012, 23, 5 ) ;
#12 = DATE_AND_TIME ( #11, #10 ) ;
#13 = APPROVAL_DATE_TIME ( #12, #194 ) ;
#14 = PERSON_AND_ORGANIZATION ( #40, #58 ) ;
#15 = COORDINATED_UNIVERSAL_TIME_OFFSET ( 6, 0, .BEHIND. ) ;
#16 = LOCAL_TIME ( 22, 0, 38.00000000000000000, #15 ) ;
#17 = CALENDAR_DATE ( 2012, 23, 5 ) ;
#18 = DATE_AND_TIME ( #17, #16 ) ;
#19 = PERSON_AND_ORGANIZATION ( #40, #58 ) ;
#20 = APPROVAL_PERSON_ORGANIZATION ( #19, #198, #101 ) ;
#21 = COORDINATED_UNIVERSAL_TIME_OFFSET ( 6, 0, .BEHIND. ) ;
#22 = LOCAL_TIME ( 22, 0, 38.00000000000000000, #21 ) ;
#23 = CALENDAR_DATE ( 2012, 23, 5 ) ;
#24 = DATE_AND_TIME ( #23, #22 ) ;
#25 = APPROVAL_DATE_TIME ( #24, #198 ) ;
#26 = PERSON_AND_ORGANIZATION ( #40, #58 ) ;
#27 = PERSON_AND_ORGANIZATION ( #40, #58 ) ;
#28 = PERSON_AND_ORGANIZATION ( #40, #58 ) ;
#29 = COORDINATED_UNIVERSAL_TIME_OFFSET ( 6, 0, .BEHIND. ) ;
#30 = LOCAL_TIME ( 22, 0, 38.00000000000000000, #29 ) ;
#31 = CALENDAR_DATE ( 2012, 23, 5 ) ;
#32 = DATE_AND_TIME ( #31, #30 ) ;
#33 = PERSON_AND_ORGANIZATION ( #40, #58 ) ;
#34 = APPROVAL_PERSON_ORGANIZATION ( #33, #200, #117 ) ;
#35 = COORDINATED_UNIVERSAL_TIME_OFFSET ( 6, 0, .BEHIND. ) ;
#36 = LOCAL_TIME ( 22, 0, 38.00000000000000000, #35 ) ;
#37 = CALENDAR_DATE ( 2012, 23, 5 ) ;
#38 = DATE_AND_TIME ( #37, #36 ) ;
#39 = APPROVAL_DATE_TIME ( #38, #200 ) ;
#40 = PERSON ( 'UNSPECIFIED', 'UNSPECIFIED', 'UNSPECIFIED', ('UNSPECIFIED'), ('UNSPECIFIED'), ('UNSPECIFIED') ) ;
#41 = PRODUCT ( 'MountDisc', 'MountDisc', '', ( #109 ) ) ;
#42 = FACE_OUTER_BOUND ( 'NONE', #224, .T. ) ;
#43 = FACE_OUTER_BOUND ( 'NONE', #216, .T. ) ;
#44 = LINE ( 'NONE', #79, #45 ) ;
#45 = VECTOR ( 'NONE', #83, 1000.000000000000000 ) ;
#46 = CYLINDRICAL_SURFACE ( 'NONE', #187, 16.00000000000000000 ) ;
#47 = CIRCLE ( 'NONE', #186, 60.00000000000000000 ) ;
#48 = CIRCLE ( 'NONE', #190, 16.00000000000000000 ) ;
#49 = VECTOR ( 'NONE', #151, 1000.000000000000000 ) ;
#50 = CIRCLE ( 'NONE', #205, 16.00000000000000000 ) ;
#51 = LINE ( 'NONE', #150, #49 ) ;
#52 = VECTOR ( 'NONE', #138, 1000.000000000000000 ) ;
#53 =( GEOMETRIC_REPRESENTATION_CONTEXT ( 3 ) GLOBAL_UNCERTAINTY_ASSIGNED_CONTEXT ( ( #213 ) ) GLOBAL_UNIT_ASSIGNED_CONTEXT ( ( #140, #97, #126 ) ) REPRESENTATION_CONTEXT ( 'NONE', 'WORKASPACE' ) );
#54 = CIRCLE ( 'NONE', #208, 60.00000000000000000 ) ;
#55 = CIRCLE ( 'NONE', #183, 60.00000000000000000 ) ;
#56 = LINE ( 'NONE', #139, #52 ) ;
#57 = CIRCLE ( 'NONE', #191, 16.00000000000000000 ) ;
#58 = ORGANIZATION ( 'UNSPECIFIED', 'UNSPECIFIED', '' ) ;
#59 = FACE_BOUND ( 'NONE', #220, .T. ) ;
#60 = CYLINDRICAL_SURFACE ( 'NONE', #175, 16.00000000000000000 ) ;
#61 = FACE_OUTER_BOUND ( 'NONE', #221, .T. ) ;
#62 = FACE_OUTER_BOUND ( 'NONE', #243, .T. ) ;
#63 = CYLINDRICAL_SURFACE ( 'NONE', #184, 60.00000000000000000 ) ;
#64 = FACE_OUTER_BOUND ( 'NONE', #223, .T. ) ;
#65 = CIRCLE ( 'NONE', #166, 16.00000000000000000 ) ;
#66 = VECTOR ( 'NONE', #129, 1000.000000000000000 ) ;
#67 = CIRCLE ( 'NONE', #181, 60.00000000000000000 ) ;
#68 = SHAPE_DEFINITION_REPRESENTATION ( #209, #211 ) ;
#69 = LINE ( 'NONE', #131, #66 ) ;
#70 = PERSON_AND_ORGANIZATION ( #40, #58 ) ;
#71 = DIRECTION ( 'NONE',  ( 0.0000000000000000000, 0.0000000000000000000, 1.000000000000000000 ) ) ;
#72 = CARTESIAN_POINT ( 'NONE',  ( 0.0000000000000000000, 12.69999999999999900, 0.0000000000000000000 ) ) ;
#73 = DIRECTION ( 'NONE',  ( 0.0000000000000000000, 1.000000000000000000, 0.0000000000000000000 ) ) ;
#74 = VERTEX_POINT ( 'NONE', #119 ) ;
#75 = CARTESIAN_POINT ( 'NONE',  ( 7.347880794884118400E-015, 0.0000000000000000000, 60.00000000000000000 ) ) ;
#76 = VERTEX_POINT ( 'NONE', #158 ) ;
#77 = VERTEX_POINT ( 'NONE', #75 ) ;
#78 = CARTESIAN_POINT ( 'NONE',  ( 0.0000000000000000000, 12.69999999999999900, 0.0000000000000000000 ) ) ;
#79 = CARTESIAN_POINT ( 'NONE',  ( 1.959434878635765100E-015, 12.69999999999999900, 16.00000000000000000 ) ) ;
#80 = CARTESIAN_POINT ( 'NONE',  ( 0.0000000000000000000, 12.69999999999999900, 0.0000000000000000000 ) ) ;
#81 = DIRECTION ( 'NONE',  ( 0.0000000000000000000, 0.0000000000000000000, 1.000000000000000000 ) ) ;
#82 = CARTESIAN_POINT ( 'NONE',  ( 0.0000000000000000000, 12.69999999999999900, 0.0000000000000000000 ) ) ;
#83 = DIRECTION ( 'NONE',  ( -0.0000000000000000000, -1.000000000000000000, -0.0000000000000000000 ) ) ;
#84 = VERTEX_POINT ( 'NONE', #120 ) ;
#85 = DIRECTION ( 'NONE',  ( 0.0000000000000000000, 0.0000000000000000000, -1.000000000000000000 ) ) ;
#86 = DIRECTION ( 'NONE',  ( 0.0000000000000000000, 1.000000000000000000, 0.0000000000000000000 ) ) ;
#87 = PLANE ( 'NONE',  #182 ) ;
#88 = CARTESIAN_POINT ( 'NONE',  ( 0.0000000000000000000, 12.69999999999999900, 0.0000000000000000000 ) ) ;
#89 = CARTESIAN_POINT ( 'NONE',  ( 0.0000000000000000000, 12.69999999999999900, 0.0000000000000000000 ) ) ;
#90 = DIRECTION ( 'NONE',  ( 0.0000000000000000000, -0.0000000000000000000, 1.000000000000000000 ) ) ;
#91 = CARTESIAN_POINT ( 'NONE',  ( 0.0000000000000000000, 0.0000000000000000000, 0.0000000000000000000 ) ) ;
#92 = DIRECTION ( 'NONE',  ( -0.0000000000000000000, -1.000000000000000000, -0.0000000000000000000 ) ) ;
#93 = VERTEX_POINT ( 'NONE', #96 ) ;
#94 = DIRECTION ( 'NONE',  ( 0.0000000000000000000, 1.000000000000000000, 0.0000000000000000000 ) ) ;
#95 = DIRECTION ( 'NONE',  ( -0.0000000000000000000, -1.000000000000000000, -0.0000000000000000000 ) ) ;
#96 = CARTESIAN_POINT ( 'NONE',  ( 7.347880794884118400E-015, 12.69999999999999900, 60.00000000000000000 ) ) ;
#97 =( NAMED_UNIT ( * ) PLANE_ANGLE_UNIT ( ) SI_UNIT ( $, .RADIAN. ) );
#98 = DIRECTION ( 'NONE',  ( 0.0000000000000000000, 0.0000000000000000000, 1.000000000000000000 ) ) ;
#99 = PERSON_AND_ORGANIZATION_ROLE ( 'creator' ) ;
#100 = SECURITY_CLASSIFICATION_LEVEL ( 'unclassified' ) ;
#101 = APPROVAL_ROLE ( '' ) ;
#102 = PERSON_AND_ORGANIZATION_ROLE ( 'design_supplier' ) ;
#103 = APPROVAL_STATUS ( 'not_yet_approved' ) ;
#104 = PERSON_AND_ORGANIZATION_ROLE ( 'classification_officer' ) ;
#105 = DATE_TIME_ROLE ( 'classification_date' ) ;
#106 = APPLICATION_PROTOCOL_DEFINITION ( 'international standard', 'config_control_design', 1994, #107 ) ;
#107 = APPLICATION_CONTEXT ( 'configuration controlled 3d designs of mechanical parts and assemblies' ) ;
#108 = PERSON_AND_ORGANIZATION_ROLE ( 'design_owner' ) ;
#109 = MECHANICAL_CONTEXT ( 'NONE', #107, 'mechanical' ) ;
#110 = APPLICATION_PROTOCOL_DEFINITION ( 'international standard', 'config_control_design', 1994, #111 ) ;
#111 = APPLICATION_CONTEXT ( 'configuration controlled 3d designs of mechanical parts and assemblies' ) ;
#112 = APPROVAL_STATUS ( 'not_yet_approved' ) ;
#113 = CARTESIAN_POINT ( 'NONE',  ( 0.0000000000000000000, 0.0000000000000000000, 0.0000000000000000000 ) ) ;
#114 = DIRECTION ( 'NONE',  ( 1.000000000000000000, 0.0000000000000000000, 0.0000000000000000000 ) ) ;
#115 = CARTESIAN_POINT ( 'NONE',  ( 1.959434878635765100E-015, 0.0000000000000000000, 16.00000000000000000 ) ) ;
#116 = DIRECTION ( 'NONE',  ( -0.0000000000000000000, -1.000000000000000000, -0.0000000000000000000 ) ) ;
#117 = APPROVAL_ROLE ( '' ) ;
#118 = DIRECTION ( 'NONE',  ( 0.0000000000000000000, -0.0000000000000000000, 1.000000000000000000 ) ) ;
#119 = CARTESIAN_POINT ( 'NONE',  ( 0.0000000000000000000, 0.0000000000000000000, -60.00000000000000000 ) ) ;
#120 = CARTESIAN_POINT ( 'NONE',  ( 0.0000000000000000000, 12.69999999999999900, -16.00000000000000000 ) ) ;
#121 = CARTESIAN_POINT ( 'NONE',  ( 0.0000000000000000000, 0.0000000000000000000, 0.0000000000000000000 ) ) ;
#122 = CARTESIAN_POINT ( 'NONE',  ( 0.0000000000000000000, 12.69999999999999900, 0.0000000000000000000 ) ) ;
#123 = DIRECTION ( 'NONE',  ( 0.0000000000000000000, 1.000000000000000000, 0.0000000000000000000 ) ) ;
#124 = APPROVAL_STATUS ( 'not_yet_approved' ) ;
#125 = CARTESIAN_POINT ( 'NONE',  ( 0.0000000000000000000, 12.69999999999999900, 0.0000000000000000000 ) ) ;
#126 =( NAMED_UNIT ( * ) SI_UNIT ( $, .STERADIAN. ) SOLID_ANGLE_UNIT ( ) );
#127 = DIRECTION ( 'NONE',  ( 0.0000000000000000000, 1.000000000000000000, 0.0000000000000000000 ) ) ;
#128 = DIRECTION ( 'NONE',  ( 0.0000000000000000000, 1.000000000000000000, 0.0000000000000000000 ) ) ;
#129 = DIRECTION ( 'NONE',  ( -0.0000000000000000000, -1.000000000000000000, -0.0000000000000000000 ) ) ;
#130 = DIRECTION ( 'NONE',  ( 0.0000000000000000000, 0.0000000000000000000, 1.000000000000000000 ) ) ;
#131 = CARTESIAN_POINT ( 'NONE',  ( 0.0000000000000000000, 12.69999999999999900, -16.00000000000000000 ) ) ;
#132 = CARTESIAN_POINT ( 'NONE',  ( 0.0000000000000000000, 0.0000000000000000000, -16.00000000000000000 ) ) ;
#133 = DIRECTION ( 'NONE',  ( 0.0000000000000000000, 0.0000000000000000000, -1.000000000000000000 ) ) ;
#134 = VERTEX_POINT ( 'NONE', #161 ) ;
#135 = DIRECTION ( 'NONE',  ( -0.0000000000000000000, -1.000000000000000000, -0.0000000000000000000 ) ) ;
#136 = CARTESIAN_POINT ( 'NONE',  ( 0.0000000000000000000, 0.0000000000000000000, 0.0000000000000000000 ) ) ;
#137 = CARTESIAN_POINT ( 'NONE',  ( 0.0000000000000000000, 12.69999999999999900, 0.0000000000000000000 ) ) ;
#138 = DIRECTION ( 'NONE',  ( -0.0000000000000000000, -1.000000000000000000, -0.0000000000000000000 ) ) ;
#139 = CARTESIAN_POINT ( 'NONE',  ( 0.0000000000000000000, 12.69999999999999900, -60.00000000000000000 ) ) ;
#140 =( LENGTH_UNIT ( ) NAMED_UNIT ( * ) SI_UNIT ( .MILLI., .METRE. ) );
#141 = DIRECTION ( 'NONE',  ( 0.0000000000000000000, 0.0000000000000000000, 1.000000000000000000 ) ) ;
#142 = DIRECTION ( 'NONE',  ( 0.0000000000000000000, 0.0000000000000000000, 1.000000000000000000 ) ) ;
#143 = APPROVAL_ROLE ( '' ) ;
#144 = DIRECTION ( 'NONE',  ( 0.0000000000000000000, 0.0000000000000000000, 1.000000000000000000 ) ) ;
#145 = DIRECTION ( 'NONE',  ( 0.0000000000000000000, 1.000000000000000000, 0.0000000000000000000 ) ) ;
#146 = DIRECTION ( 'NONE',  ( 0.0000000000000000000, 1.000000000000000000, 0.0000000000000000000 ) ) ;
#147 = CARTESIAN_POINT ( 'NONE',  ( 0.0000000000000000000, 0.0000000000000000000, 0.0000000000000000000 ) ) ;
#148 = DIRECTION ( 'NONE',  ( 0.0000000000000000000, 1.000000000000000000, 0.0000000000000000000 ) ) ;
#149 = DIRECTION ( 'NONE',  ( 0.0000000000000000000, 1.000000000000000000, 0.0000000000000000000 ) ) ;
#150 = CARTESIAN_POINT ( 'NONE',  ( 7.347880794884118400E-015, 12.69999999999999900, 60.00000000000000000 ) ) ;
#151 = DIRECTION ( 'NONE',  ( -0.0000000000000000000, -1.000000000000000000, -0.0000000000000000000 ) ) ;
#152 = DIRECTION ( 'NONE',  ( 0.0000000000000000000, 0.0000000000000000000, 1.000000000000000000 ) ) ;
#153 = DIRECTION ( 'NONE',  ( 0.0000000000000000000, 0.0000000000000000000, -1.000000000000000000 ) ) ;
#154 = DIRECTION ( 'NONE',  ( 0.0000000000000000000, 0.0000000000000000000, -1.000000000000000000 ) ) ;
#155 = PLANE ( 'NONE',  #199 ) ;
#156 = VERTEX_POINT ( 'NONE', #115 ) ;
#157 = DIRECTION ( 'NONE',  ( 0.0000000000000000000, 0.0000000000000000000, 1.000000000000000000 ) ) ;
#158 = CARTESIAN_POINT ( 'NONE',  ( 0.0000000000000000000, 12.69999999999999900, -60.00000000000000000 ) ) ;
#159 = VERTEX_POINT ( 'NONE', #132 ) ;
#160 = CARTESIAN_POINT ( 'NONE',  ( 0.0000000000000000000, 0.0000000000000000000, 0.0000000000000000000 ) ) ;
#161 = CARTESIAN_POINT ( 'NONE',  ( 1.959434878635765100E-015, 12.69999999999999900, 16.00000000000000000 ) ) ;
#162 = PERSON_AND_ORGANIZATION_ROLE ( 'creator' ) ;
#163 = DATE_TIME_ROLE ( 'creation_date' ) ;
#164 = EDGE_CURVE ( 'NONE', #74, #77, #67, .T. ) ;
#165 = PRODUCT_RELATED_PRODUCT_CATEGORY ( 'detail', '', ( #41 ) ) ;
#166 = AXIS2_PLACEMENT_3D ( 'NONE', #125, #123, #81 ) ;
#167 = EDGE_CURVE ( 'NONE', #84, #159, #69, .T. ) ;
#168 = CC_DESIGN_APPROVAL ( #198, ( #197 ) ) ;
#169 = EDGE_CURVE ( 'NONE', #134, #84, #65, .T. ) ;
#170 = CC_DESIGN_PERSON_AND_ORGANIZATION_ASSIGNMENT ( #14, #162, ( #193 ) ) ;
#171 = EDGE_CURVE ( 'NONE', #159, #156, #50, .T. ) ;
#172 = EDGE_CURVE ( 'NONE', #134, #156, #44, .T. ) ;
#173 = CC_DESIGN_PERSON_AND_ORGANIZATION_ASSIGNMENT ( #28, #104, ( #207 ) ) ;
#174 = EDGE_CURVE ( 'NONE', #76, #93, #54, .T. ) ;
#175 = AXIS2_PLACEMENT_3D ( 'NONE', #122, #135, #154 ) ;
#176 = EDGE_CURVE ( 'NONE', #93, #76, #55, .T. ) ;
#177 = AXIS2_PLACEMENT_3D ( 'NONE', #82, #92, #85 ) ;
#178 = CC_DESIGN_DATE_AND_TIME_ASSIGNMENT ( #32, #105, ( #207 ) ) ;
#179 = CC_DESIGN_APPROVAL ( #200, ( #207 ) ) ;
#180 = EDGE_CURVE ( 'NONE', #93, #77, #51, .T. ) ;
#181 = AXIS2_PLACEMENT_3D ( 'NONE', #91, #94, #98 ) ;
#182 = AXIS2_PLACEMENT_3D ( 'NONE', #89, #128, #90 ) ;
#183 = AXIS2_PLACEMENT_3D ( 'NONE', #72, #145, #71 ) ;
#184 = AXIS2_PLACEMENT_3D ( 'NONE', #78, #116, #153 ) ;
#185 = EDGE_CURVE ( 'NONE', #156, #159, #57, .T. ) ;
#186 = AXIS2_PLACEMENT_3D ( 'NONE', #147, #73, #142 ) ;
#187 = AXIS2_PLACEMENT_3D ( 'NONE', #80, #95, #133 ) ;
#188 = EDGE_CURVE ( 'NONE', #84, #134, #48, .T. ) ;
#189 = AXIS2_PLACEMENT_3D ( 'NONE', #113, #141, #114 ) ;
#190 = AXIS2_PLACEMENT_3D ( 'NONE', #137, #148, #144 ) ;
#191 = AXIS2_PLACEMENT_3D ( 'NONE', #136, #149, #152 ) ;
#192 = CC_DESIGN_DATE_AND_TIME_ASSIGNMENT ( #18, #163, ( #193 ) ) ;
#193 = PRODUCT_DEFINITION ( 'UNKNOWN', '', #197, #210 ) ;
#194 = APPROVAL ( #112, 'UNSPECIFIED' ) ;
#195 = CC_DESIGN_APPROVAL ( #194, ( #193 ) ) ;
#196 = EDGE_CURVE ( 'NONE', #77, #74, #47, .T. ) ;
#197 = PRODUCT_DEFINITION_FORMATION_WITH_SPECIFIED_SOURCE ( 'ANY', '', #41, .NOT_KNOWN. ) ;
#198 = APPROVAL ( #124, 'UNSPECIFIED' ) ;
#199 = AXIS2_PLACEMENT_3D ( 'NONE', #121, #127, #118 ) ;
#200 = APPROVAL ( #103, 'UNSPECIFIED' ) ;
#201 = CC_DESIGN_SECURITY_CLASSIFICATION ( #207, ( #197 ) ) ;
#202 = CC_DESIGN_PERSON_AND_ORGANIZATION_ASSIGNMENT ( #26, #99, ( #197 ) ) ;
#203 = CC_DESIGN_PERSON_AND_ORGANIZATION_ASSIGNMENT ( #27, #102, ( #197 ) ) ;
#204 = CC_DESIGN_PERSON_AND_ORGANIZATION_ASSIGNMENT ( #70, #108, ( #41 ) ) ;
#205 = AXIS2_PLACEMENT_3D ( 'NONE', #160, #86, #130 ) ;
#206 = EDGE_CURVE ( 'NONE', #76, #74, #56, .T. ) ;
#207 = SECURITY_CLASSIFICATION ( '', '', #100 ) ;
#208 = AXIS2_PLACEMENT_3D ( 'NONE', #88, #146, #157 ) ;
#209 = PRODUCT_DEFINITION_SHAPE ( 'NONE', 'NONE',  #193 ) ;
#210 = DESIGN_CONTEXT ( 'detailed design', #111, 'design' ) ;
#211 = ADVANCED_BREP_SHAPE_REPRESENTATION ( 'MountDisc', ( #212, #189 ), #53 ) ;
#212 = MANIFOLD_SOLID_BREP ( 'Boss-Extrude1', #229 ) ;
#213 = UNCERTAINTY_MEASURE_WITH_UNIT (LENGTH_MEASURE( 1.000000000000000100E-005 ), #140, 'distance_accuracy_value', 'NONE');
#214 = ORIENTED_EDGE ( 'NONE', *, *, #180, .T. ) ;
#215 = ORIENTED_EDGE ( 'NONE', *, *, #196, .T. ) ;
#216 = EDGE_LOOP ( 'NONE', ( #225, #214, #215, #236 ) ) ;
#217 = ORIENTED_EDGE ( 'NONE', *, *, #164, .T. ) ;
#218 = ORIENTED_EDGE ( 'NONE', *, *, #206, .T. ) ;
#219 = ORIENTED_EDGE ( 'NONE', *, *, #164, .F. ) ;
#220 = EDGE_LOOP ( 'NONE', ( #227, #238 ) ) ;
#221 = EDGE_LOOP ( 'NONE', ( #219, #240 ) ) ;
#222 = EDGE_LOOP ( 'NONE', ( #245, #237 ) ) ;
#223 = EDGE_LOOP ( 'NONE', ( #234, #228, #230, #244 ) ) ;
#224 = EDGE_LOOP ( 'NONE', ( #249, #247, #233, #248 ) ) ;
#225 = ORIENTED_EDGE ( 'NONE', *, *, #176, .F. ) ;
#226 = ORIENTED_EDGE ( 'NONE', *, *, #174, .F. ) ;
#227 = ORIENTED_EDGE ( 'NONE', *, *, #171, .T. ) ;
#228 = ORIENTED_EDGE ( 'NONE', *, *, #172, .T. ) ;
#229 = CLOSED_SHELL ( 'NONE', ( #3, #5, #1, #4, #2, #6 ) ) ;
#230 = ORIENTED_EDGE ( 'NONE', *, *, #171, .F. ) ;
#231 = FACE_OUTER_BOUND ( 'NONE', #246, .T. ) ;
#232 = CYLINDRICAL_SURFACE ( 'NONE', #177, 60.00000000000000000 ) ;
#233 = ORIENTED_EDGE ( 'NONE', *, *, #167, .T. ) ;
#234 = ORIENTED_EDGE ( 'NONE', *, *, #188, .T. ) ;
#235 = ORIENTED_EDGE ( 'NONE', *, *, #174, .T. ) ;
#236 = ORIENTED_EDGE ( 'NONE', *, *, #206, .F. ) ;
#237 = ORIENTED_EDGE ( 'NONE', *, *, #169, .F. ) ;
#238 = ORIENTED_EDGE ( 'NONE', *, *, #185, .T. ) ;
#239 = FACE_BOUND ( 'NONE', #222, .T. ) ;
#240 = ORIENTED_EDGE ( 'NONE', *, *, #196, .F. ) ;
#241 = ORIENTED_EDGE ( 'NONE', *, *, #180, .F. ) ;
#242 = ORIENTED_EDGE ( 'NONE', *, *, #176, .T. ) ;
#243 = EDGE_LOOP ( 'NONE', ( #241, #226, #218, #217 ) ) ;
#244 = ORIENTED_EDGE ( 'NONE', *, *, #167, .F. ) ;
#245 = ORIENTED_EDGE ( 'NONE', *, *, #188, .F. ) ;
#246 = EDGE_LOOP ( 'NONE', ( #235, #242 ) ) ;
#247 = ORIENTED_EDGE ( 'NONE', *, *, #169, .T. ) ;
#248 = ORIENTED_EDGE ( 'NONE', *, *, #185, .F. ) ;
#249 = ORIENTED_EDGE ( 'NONE', *, *, #172, .F. ) ;
ENDSEC;
END-ISO-10303-21;
