ISO-10303-21;
HEADER;
FILE_DESCRIPTION (( 'STEP AP203' ),
    '1' );
FILE_NAME ('MountDisc.STEP',
    '2012-05-24T22:46:15',
    ( '' ),
    ( '' ),
    'SwSTEP 2.0',
    'SolidWorks 2010',
    '' );
FILE_SCHEMA (( 'CONFIG_CONTROL_DESIGN' ));
ENDSEC;

DATA;
#1 = DIRECTION ( 'NONE',  ( 1.000000000000000000, 0.0000000000000000000, 0.0000000000000000000 ) ) ;
#2 = PERSON_AND_ORGANIZATION_ROLE ( 'design_supplier' ) ;
#3 = DIRECTION ( 'NONE',  ( 0.0000000000000000000, 0.0000000000000000000, 1.000000000000000000 ) ) ;
#4 = SECURITY_CLASSIFICATION_LEVEL ( 'unclassified' ) ;
#5 = CARTESIAN_POINT ( 'NONE',  ( -45.00000000000000000, 0.0000000000000000000, 5.510910596163089600E-015 ) ) ;
#6 = DIRECTION ( 'NONE',  ( -0.0000000000000000000, -1.000000000000000000, -0.0000000000000000000 ) ) ;
#7 = DIRECTION ( 'NONE',  ( -0.0000000000000000000, 1.000000000000000000, -0.0000000000000000000 ) ) ;
#8 = DIRECTION ( 'NONE',  ( 0.0000000000000000000, 1.000000000000000000, -0.0000000000000000000 ) ) ;
#9 = CARTESIAN_POINT ( 'NONE',  ( 45.00000000000000000, 12.69999999999999900, 0.0000000000000000000 ) ) ;
#10 = DIRECTION ( 'NONE',  ( 0.0000000000000000000, 0.0000000000000000000, 1.000000000000000000 ) ) ;
#11 = CARTESIAN_POINT ( 'NONE',  ( 45.00000000000000000, 0.0000000000000000000, 0.0000000000000000000 ) ) ;
#12 = DIRECTION ( 'NONE',  ( 0.0000000000000000000, 0.0000000000000000000, -1.000000000000000000 ) ) ;
#13 = EDGE_CURVE ( 'NONE', #388, #387, #268, .T. ) ;
#14 = EDGE_CURVE ( 'NONE', #391, #383, #238, .T. ) ;
#15 = EDGE_CURVE ( 'NONE', #379, #380, #198, .T. ) ;
#16 = EDGE_CURVE ( 'NONE', #385, #393, #252, .T. ) ;
#17 = EDGE_CURVE ( 'NONE', #374, #384, #251, .T. ) ;
#18 = EDGE_CURVE ( 'NONE', #377, #378, #211, .T. ) ;
#19 = EDGE_CURVE ( 'NONE', #386, #392, #282, .T. ) ;
#20 = EDGE_CURVE ( 'NONE', #393, #385, #259, .T. ) ;
#21 = EDGE_CURVE ( 'NONE', #380, #379, #262, .T. ) ;
#22 = DIRECTION ( 'NONE',  ( -0.0000000000000000000, 1.000000000000000000, -0.0000000000000000000 ) ) ;
#23 = CARTESIAN_POINT ( 'NONE',  ( 45.00000000000000000, 0.0000000000000000000, -4.000000000000006200 ) ) ;
#24 = CARTESIAN_POINT ( 'NONE',  ( 7.347880794884118400E-015, 12.69999999999999900, 60.00000000000000000 ) ) ;
#25 = DIRECTION ( 'NONE',  ( -0.0000000000000000000, 1.000000000000000000, -0.0000000000000000000 ) ) ;
#26 = DIRECTION ( 'NONE',  ( 0.0000000000000000000, 0.0000000000000000000, 1.000000000000000000 ) ) ;
#27 = CARTESIAN_POINT ( 'NONE',  ( 1.959434878635765100E-015, 12.69999999999999900, 16.00000000000000000 ) ) ;
#28 = CARTESIAN_POINT ( 'NONE',  ( 0.0000000000000000000, 0.0000000000000000000, -16.00000000000000000 ) ) ;
#29 =( NAMED_UNIT ( * ) SI_UNIT ( $, .STERADIAN. ) SOLID_ANGLE_UNIT ( ) );
#30 =( LENGTH_UNIT ( ) NAMED_UNIT ( * ) SI_UNIT ( .MILLI., .METRE. ) );
#31 =( NAMED_UNIT ( * ) PLANE_ANGLE_UNIT ( ) SI_UNIT ( $, .RADIAN. ) );
#32 = CARTESIAN_POINT ( 'NONE',  ( 45.00000000000000000, 0.0000000000000000000, -4.000000000000006200 ) ) ;
#33 = APPLICATION_PROTOCOL_DEFINITION ( 'international standard', 'config_control_design', 1994, #89 ) ;
#34 = MECHANICAL_CONTEXT ( 'NONE', #89, 'mechanical' ) ;
#35 = CARTESIAN_POINT ( 'NONE',  ( -45.00000000000000000, 0.0000000000000000000, -4.000000000000000900 ) ) ;
#36 = CARTESIAN_POINT ( 'NONE',  ( -45.00000000000000000, 12.69999999999999900, -4.000000000000000900 ) ) ;
#37 = CARTESIAN_POINT ( 'NONE',  ( 7.347880794884118400E-015, 0.0000000000000000000, 60.00000000000000000 ) ) ;
#38 = CARTESIAN_POINT ( 'NONE',  ( -45.00000000000000000, 0.0000000000000000000, -4.000000000000000900 ) ) ;
#39 = CARTESIAN_POINT ( 'NONE',  ( -45.00000000000000000, 0.0000000000000000000, 4.000000000000011500 ) ) ;
#40 = CARTESIAN_POINT ( 'NONE',  ( 0.0000000000000000000, 0.0000000000000000000, -60.00000000000000000 ) ) ;
#41 = DIRECTION ( 'NONE',  ( -0.0000000000000000000, 1.000000000000000000, -0.0000000000000000000 ) ) ;
#42 = DIRECTION ( 'NONE',  ( 0.0000000000000000000, 0.0000000000000000000, 1.000000000000000000 ) ) ;
#43 = DIRECTION ( 'NONE',  ( 0.0000000000000000000, -0.0000000000000000000, 1.000000000000000000 ) ) ;
#44 = DIRECTION ( 'NONE',  ( 0.0000000000000000000, 1.000000000000000000, 0.0000000000000000000 ) ) ;
#45 = CARTESIAN_POINT ( 'NONE',  ( 45.00000000000000000, 0.0000000000000000000, 0.0000000000000000000 ) ) ;
#46 = PERSON_AND_ORGANIZATION_ROLE ( 'creator' ) ;
#47 = CARTESIAN_POINT ( 'NONE',  ( 0.0000000000000000000, 12.69999999999999900, 0.0000000000000000000 ) ) ;
#48 = DIRECTION ( 'NONE',  ( 0.0000000000000000000, 1.000000000000000000, -0.0000000000000000000 ) ) ;
#49 = CARTESIAN_POINT ( 'NONE',  ( 0.0000000000000000000, 12.69999999999999900, 0.0000000000000000000 ) ) ;
#50 = DIRECTION ( 'NONE',  ( 0.0000000000000000000, 0.0000000000000000000, 1.000000000000000000 ) ) ;
#51 = DIRECTION ( 'NONE',  ( -0.0000000000000000000, 1.000000000000000000, -0.0000000000000000000 ) ) ;
#52 = CARTESIAN_POINT ( 'NONE',  ( -45.00000000000000000, 0.0000000000000000000, 5.510910596163089600E-015 ) ) ;
#53 = DIRECTION ( 'NONE',  ( -0.0000000000000000000, -1.000000000000000000, -0.0000000000000000000 ) ) ;
#54 = DIRECTION ( 'NONE',  ( -0.0000000000000000000, 1.000000000000000000, -0.0000000000000000000 ) ) ;
#55 = DIRECTION ( 'NONE',  ( 0.0000000000000000000, 0.0000000000000000000, -1.000000000000000000 ) ) ;
#56 = PLANE ( 'NONE',  #321 ) ;
#57 = APPROVAL_ROLE ( '' ) ;
#58 = DIRECTION ( 'NONE',  ( 0.0000000000000000000, 0.0000000000000000000, -1.000000000000000000 ) ) ;
#59 = DIRECTION ( 'NONE',  ( -0.0000000000000000000, -1.000000000000000000, -0.0000000000000000000 ) ) ;
#60 = DIRECTION ( 'NONE',  ( 0.0000000000000000000, 0.0000000000000000000, 1.000000000000000000 ) ) ;
#61 = DIRECTION ( 'NONE',  ( 0.0000000000000000000, 0.0000000000000000000, 1.000000000000000000 ) ) ;
#62 = CARTESIAN_POINT ( 'NONE',  ( 0.0000000000000000000, 12.69999999999999900, 0.0000000000000000000 ) ) ;
#63 = DIRECTION ( 'NONE',  ( -0.0000000000000000000, -1.000000000000000000, -0.0000000000000000000 ) ) ;
#64 = DIRECTION ( 'NONE',  ( -0.0000000000000000000, -1.000000000000000000, -0.0000000000000000000 ) ) ;
#65 = CARTESIAN_POINT ( 'NONE',  ( 0.0000000000000000000, 0.0000000000000000000, 0.0000000000000000000 ) ) ;
#66 = CARTESIAN_POINT ( 'NONE',  ( 0.0000000000000000000, 12.69999999999999900, 0.0000000000000000000 ) ) ;
#67 = APPROVAL_STATUS ( 'not_yet_approved' ) ;
#68 = PLANE ( 'NONE',  #325 ) ;
#69 = DIRECTION ( 'NONE',  ( 0.0000000000000000000, 0.0000000000000000000, -1.000000000000000000 ) ) ;
#70 = DIRECTION ( 'NONE',  ( 0.0000000000000000000, 1.000000000000000000, 0.0000000000000000000 ) ) ;
#71 = CARTESIAN_POINT ( 'NONE',  ( 0.0000000000000000000, 12.69999999999999900, 0.0000000000000000000 ) ) ;
#72 = DIRECTION ( 'NONE',  ( 0.0000000000000000000, -0.0000000000000000000, 1.000000000000000000 ) ) ;
#73 = DATE_TIME_ROLE ( 'creation_date' ) ;
#74 = APPLICATION_PROTOCOL_DEFINITION ( 'international standard', 'config_control_design', 1994, #352 ) ;
#75 = APPROVAL_STATUS ( 'not_yet_approved' ) ;
#76 = PRODUCT ( 'MountDisc', 'MountDisc', '', ( #34 ) ) ;
#77 = PERSON ( 'UNSPECIFIED', 'UNSPECIFIED', 'UNSPECIFIED', ('UNSPECIFIED'), ('UNSPECIFIED'), ('UNSPECIFIED') ) ;
#78 = UNCERTAINTY_MEASURE_WITH_UNIT (LENGTH_MEASURE( 1.000000000000000100E-005 ), #30, 'distance_accuracy_value', 'NONE');
#79 = ADVANCED_BREP_SHAPE_REPRESENTATION ( 'MountDisc', ( #90, #330 ), #249 ) ;
#80 = AXIS2_PLACEMENT_3D ( 'NONE', #368, #364, #363 ) ;
#81 = EDGE_CURVE ( 'NONE', #386, #388, #247, .T. ) ;
#82 = EDGE_CURVE ( 'NONE', #378, #377, #279, .T. ) ;
#83 = EDGE_CURVE ( 'NONE', #383, #391, #277, .T. ) ;
#84 = EDGE_CURVE ( 'NONE', #376, #375, #298, .T. ) ;
#85 = AXIS2_PLACEMENT_3D ( 'NONE', #389, #381, #382 ) ;
#86 = APPROVAL_ROLE ( '' ) ;
#87 = PERSON_AND_ORGANIZATION_ROLE ( 'creator' ) ;
#88 = CARTESIAN_POINT ( 'NONE',  ( 0.0000000000000000000, 0.0000000000000000000, 0.0000000000000000000 ) ) ;
#89 = APPLICATION_CONTEXT ( 'configuration controlled 3d designs of mechanical parts and assemblies' ) ;
#90 = MANIFOLD_SOLID_BREP ( 'Cut-Extrude1', #199 ) ;
#91 = PERSON_AND_ORGANIZATION_ROLE ( 'classification_officer' ) ;
#92 = CARTESIAN_POINT ( 'NONE',  ( 0.0000000000000000000, 12.69999999999999900, -60.00000000000000000 ) ) ;
#93 = CARTESIAN_POINT ( 'NONE',  ( 45.00000000000000000, 12.69999999999999900, 4.000000000000006200 ) ) ;
#94 = CARTESIAN_POINT ( 'NONE',  ( -45.00000000000000000, 12.69999999999999900, 4.000000000000011500 ) ) ;
#95 = CARTESIAN_POINT ( 'NONE',  ( 45.00000000000000000, 12.69999999999999900, -4.000000000000006200 ) ) ;
#96 = CARTESIAN_POINT ( 'NONE',  ( 1.959434878635765100E-015, 0.0000000000000000000, 16.00000000000000000 ) ) ;
#97 = CARTESIAN_POINT ( 'NONE',  ( 45.00000000000000000, 0.0000000000000000000, 4.000000000000006200 ) ) ;
#98 = CARTESIAN_POINT ( 'NONE',  ( 0.0000000000000000000, 12.69999999999999900, -16.00000000000000000 ) ) ;
#99 = AXIS2_PLACEMENT_3D ( 'NONE', #397, #371, #142 ) ;
#100 = AXIS2_PLACEMENT_3D ( 'NONE', #372, #367, #365 ) ;
#101 = EDGE_CURVE ( 'NONE', #379, #378, #143, .T. ) ;
#102 = EDGE_CURVE ( 'NONE', #384, #374, #283, .T. ) ;
#103 = EDGE_CURVE ( 'NONE', #380, #377, #280, .T. ) ;
#104 = EDGE_CURVE ( 'NONE', #376, #384, #276, .T. ) ;
#105 = EDGE_CURVE ( 'NONE', #385, #391, #297, .T. ) ;
#106 = EDGE_CURVE ( 'NONE', #375, #376, #148, .T. ) ;
#107 = EDGE_CURVE ( 'NONE', #393, #383, #295, .T. ) ;
#108 = EDGE_CURVE ( 'NONE', #392, #386, #152, .T. ) ;
#109 = DIRECTION ( 'NONE',  ( -0.0000000000000000000, -1.000000000000000000, -0.0000000000000000000 ) ) ;
#110 = DIRECTION ( 'NONE',  ( 0.0000000000000000000, 1.000000000000000000, 0.0000000000000000000 ) ) ;
#111 = DIRECTION ( 'NONE',  ( 0.0000000000000000000, 0.0000000000000000000, 1.000000000000000000 ) ) ;
#112 = CARTESIAN_POINT ( 'NONE',  ( 0.0000000000000000000, 12.69999999999999900, 0.0000000000000000000 ) ) ;
#113 = CARTESIAN_POINT ( 'NONE',  ( 0.0000000000000000000, 0.0000000000000000000, 0.0000000000000000000 ) ) ;
#114 = CARTESIAN_POINT ( 'NONE',  ( 0.0000000000000000000, 12.69999999999999900, -60.00000000000000000 ) ) ;
#115 = CARTESIAN_POINT ( 'NONE',  ( 0.0000000000000000000, 12.69999999999999900, 0.0000000000000000000 ) ) ;
#116 = DATE_TIME_ROLE ( 'classification_date' ) ;
#117 = DIRECTION ( 'NONE',  ( 0.0000000000000000000, 0.0000000000000000000, 1.000000000000000000 ) ) ;
#118 = DIRECTION ( 'NONE',  ( 0.0000000000000000000, 1.000000000000000000, -0.0000000000000000000 ) ) ;
#119 = DIRECTION ( 'NONE',  ( 0.0000000000000000000, 0.0000000000000000000, 1.000000000000000000 ) ) ;
#120 = DIRECTION ( 'NONE',  ( 0.0000000000000000000, 1.000000000000000000, -0.0000000000000000000 ) ) ;
#121 = CARTESIAN_POINT ( 'NONE',  ( -45.00000000000000000, 0.0000000000000000000, 4.000000000000011500 ) ) ;
#122 = DIRECTION ( 'NONE',  ( -0.0000000000000000000, 1.000000000000000000, -0.0000000000000000000 ) ) ;
#123 = CARTESIAN_POINT ( 'NONE',  ( 1.959434878635765100E-015, 12.69999999999999900, 16.00000000000000000 ) ) ;
#124 = DIRECTION ( 'NONE',  ( 0.0000000000000000000, 1.000000000000000000, 0.0000000000000000000 ) ) ;
#125 = DIRECTION ( 'NONE',  ( 0.0000000000000000000, 0.0000000000000000000, 1.000000000000000000 ) ) ;
#126 = CARTESIAN_POINT ( 'NONE',  ( 7.347880794884118400E-015, 12.69999999999999900, 60.00000000000000000 ) ) ;
#127 = DIRECTION ( 'NONE',  ( 0.0000000000000000000, 1.000000000000000000, -0.0000000000000000000 ) ) ;
#128 = CARTESIAN_POINT ( 'NONE',  ( -45.00000000000000000, 0.0000000000000000000, 5.510910596163089600E-015 ) ) ;
#129 = DIRECTION ( 'NONE',  ( -0.0000000000000000000, -1.000000000000000000, -0.0000000000000000000 ) ) ;
#130 = DIRECTION ( 'NONE',  ( 0.0000000000000000000, 0.0000000000000000000, 1.000000000000000000 ) ) ;
#131 = CARTESIAN_POINT ( 'NONE',  ( 45.00000000000000000, 0.0000000000000000000, 4.000000000000006200 ) ) ;
#132 = CARTESIAN_POINT ( 'NONE',  ( 0.0000000000000000000, 12.69999999999999900, -16.00000000000000000 ) ) ;
#133 = CARTESIAN_POINT ( 'NONE',  ( -45.00000000000000000, 12.69999999999999900, 5.510910596163089600E-015 ) ) ;
#134 = DIRECTION ( 'NONE',  ( 0.0000000000000000000, 1.000000000000000000, 0.0000000000000000000 ) ) ;
#135 = DIRECTION ( 'NONE',  ( 0.0000000000000000000, 0.0000000000000000000, 1.000000000000000000 ) ) ;
#136 = CARTESIAN_POINT ( 'NONE',  ( 45.00000000000000000, 0.0000000000000000000, 0.0000000000000000000 ) ) ;
#137 = CARTESIAN_POINT ( 'NONE',  ( -45.00000000000000000, 0.0000000000000000000, 5.510910596163089600E-015 ) ) ;
#138 = DIRECTION ( 'NONE',  ( 0.0000000000000000000, 0.0000000000000000000, 1.000000000000000000 ) ) ;
#139 = DIRECTION ( 'NONE',  ( -0.0000000000000000000, -1.000000000000000000, -0.0000000000000000000 ) ) ;
#140 = DIRECTION ( 'NONE',  ( 0.0000000000000000000, 1.000000000000000000, 0.0000000000000000000 ) ) ;
#141 = DIRECTION ( 'NONE',  ( -0.0000000000000000000, 1.000000000000000000, -0.0000000000000000000 ) ) ;
#142 = DIRECTION ( 'NONE',  ( 0.0000000000000000000, 0.0000000000000000000, 1.000000000000000000 ) ) ;
#143 = LINE ( 'NONE', #114, #275 ) ;
#144 = FACE_BOUND ( 'NONE', #271, .T. ) ;
#145 = FACE_OUTER_BOUND ( 'NONE', #232, .T. ) ;
#146 = CYLINDRICAL_SURFACE ( 'NONE', #323, 4.000000000000006200 ) ;
#147 = FACE_OUTER_BOUND ( 'NONE', #234, .T. ) ;
#148 = CIRCLE ( 'NONE', #316, 4.000000000000006200 ) ;
#149 = ORGANIZATION ( 'UNSPECIFIED', 'UNSPECIFIED', '' ) ;
#150 = CYLINDRICAL_SURFACE ( 'NONE', #319, 4.000000000000006200 ) ;
#151 = FACE_BOUND ( 'NONE', #158, .T. ) ;
#152 = CIRCLE ( 'NONE', #317, 4.000000000000006200 ) ;
#153 = FACE_OUTER_BOUND ( 'NONE', #233, .T. ) ;
#154 = CYLINDRICAL_SURFACE ( 'NONE', #322, 16.00000000000000000 ) ;
#155 = CYLINDRICAL_SURFACE ( 'NONE', #320, 60.00000000000000000 ) ;
#156 = FACE_BOUND ( 'NONE', #257, .T. ) ;
#157 = VECTOR ( 'NONE', #41, 1000.000000000000000 ) ;
#158 = EDGE_LOOP ( 'NONE', ( #291, #292 ) ) ;
#159 = PERSON_AND_ORGANIZATION ( #77, #149 ) ;
#160 = COORDINATED_UNIVERSAL_TIME_OFFSET ( 6, 0, .BEHIND. ) ;
#161 = PERSON_AND_ORGANIZATION ( #77, #149 ) ;
#162 = APPROVAL_PERSON_ORGANIZATION ( #161, #332, #86 ) ;
#163 = LOCAL_TIME ( 17, 46, 15.00000000000000000, #160 ) ;
#164 = CALENDAR_DATE ( 2012, 24, 5 ) ;
#165 = DATE_AND_TIME ( #164, #163 ) ;
#166 = APPROVAL_DATE_TIME ( #165, #332 ) ;
#167 = LOCAL_TIME ( 17, 46, 15.00000000000000000, #222 ) ;
#168 = PERSON_AND_ORGANIZATION ( #77, #149 ) ;
#169 = CALENDAR_DATE ( 2012, 24, 5 ) ;
#170 = DATE_AND_TIME ( #169, #167 ) ;
#171 = PERSON_AND_ORGANIZATION ( #77, #149 ) ;
#172 = APPROVAL_PERSON_ORGANIZATION ( #171, #337, #57 ) ;
#173 = COORDINATED_UNIVERSAL_TIME_OFFSET ( 6, 0, .BEHIND. ) ;
#174 = LOCAL_TIME ( 17, 46, 15.00000000000000000, #173 ) ;
#175 = CALENDAR_DATE ( 2012, 24, 5 ) ;
#176 = DATE_AND_TIME ( #175, #174 ) ;
#177 = APPROVAL_DATE_TIME ( #176, #337 ) ;
#178 = ORIENTED_EDGE ( 'NONE', *, *, #19, .T. ) ;
#179 = APPROVAL_PERSON_ORGANIZATION ( #186, #344, #351 ) ;
#180 = COORDINATED_UNIVERSAL_TIME_OFFSET ( 6, 0, .BEHIND. ) ;
#181 = PERSON_AND_ORGANIZATION ( #77, #149 ) ;
#182 = PERSON_AND_ORGANIZATION ( #77, #149 ) ;
#183 = LOCAL_TIME ( 17, 46, 15.00000000000000000, #180 ) ;
#184 = CALENDAR_DATE ( 2012, 24, 5 ) ;
#185 = DATE_AND_TIME ( #184, #183 ) ;
#186 = PERSON_AND_ORGANIZATION ( #77, #149 ) ;
#187 = COORDINATED_UNIVERSAL_TIME_OFFSET ( 6, 0, .BEHIND. ) ;
#188 = CALENDAR_DATE ( 2012, 24, 5 ) ;
#189 = DATE_AND_TIME ( #188, #195 ) ;
#190 = ORIENTED_EDGE ( 'NONE', *, *, #108, .T. ) ;
#191 = ORIENTED_EDGE ( 'NONE', *, *, #16, .F. ) ;
#192 = ORIENTED_EDGE ( 'NONE', *, *, #20, .F. ) ;
#193 = FACE_OUTER_BOUND ( 'NONE', #263, .T. ) ;
#194 = ORIENTED_EDGE ( 'NONE', *, *, #21, .F. ) ;
#195 = LOCAL_TIME ( 17, 46, 15.00000000000000000, #187 ) ;
#196 = APPROVAL_DATE_TIME ( #189, #344 ) ;
#197 = ORIENTED_EDGE ( 'NONE', *, *, #107, .T. ) ;
#198 = CIRCLE ( 'NONE', #357, 60.00000000000000000 ) ;
#199 = CLOSED_SHELL ( 'NONE', ( #305, #301, #304, #302, #303, #307, #306, #308, #309, #310 ) ) ;
#200 = ORIENTED_EDGE ( 'NONE', *, *, #106, .F. ) ;
#201 = ORIENTED_EDGE ( 'NONE', *, *, #16, .T. ) ;
#202 = ORIENTED_EDGE ( 'NONE', *, *, #81, .F. ) ;
#203 = ORIENTED_EDGE ( 'NONE', *, *, #356, .T. ) ;
#204 = VECTOR ( 'NONE', #141, 1000.000000000000000 ) ;
#205 = ORIENTED_EDGE ( 'NONE', *, *, #108, .F. ) ;
#206 = ORIENTED_EDGE ( 'NONE', *, *, #105, .F. ) ;
#207 = VECTOR ( 'NONE', #129, 1000.000000000000000 ) ;
#208 = FACE_OUTER_BOUND ( 'NONE', #278, .T. ) ;
#209 = ORIENTED_EDGE ( 'NONE', *, *, #21, .T. ) ;
#210 = EDGE_LOOP ( 'NONE', ( #201, #197, #289, #206 ) ) ;
#211 = CIRCLE ( 'NONE', #354, 60.00000000000000000 ) ;
#212 = ORIENTED_EDGE ( 'NONE', *, *, #103, .F. ) ;
#213 = ORIENTED_EDGE ( 'NONE', *, *, #81, .T. ) ;
#214 = ORIENTED_EDGE ( 'NONE', *, *, #20, .T. ) ;
#215 = ORIENTED_EDGE ( 'NONE', *, *, #355, .F. ) ;
#216 = ORIENTED_EDGE ( 'NONE', *, *, #18, .T. ) ;
#217 = ORIENTED_EDGE ( 'NONE', *, *, #83, .T. ) ;
#218 = ORIENTED_EDGE ( 'NONE', *, *, #15, .T. ) ;
#219 = ORIENTED_EDGE ( 'NONE', *, *, #18, .F. ) ;
#220 = ORIENTED_EDGE ( 'NONE', *, *, #17, .T. ) ;
#221 = PERSON_AND_ORGANIZATION ( #77, #149 ) ;
#222 = COORDINATED_UNIVERSAL_TIME_OFFSET ( 6, 0, .BEHIND. ) ;
#223 = FACE_OUTER_BOUND ( 'NONE', #228, .T. ) ;
#224 = ORIENTED_EDGE ( 'NONE', *, *, #15, .F. ) ;
#225 = EDGE_LOOP ( 'NONE', ( #191, #192 ) ) ;
#226 = ORIENTED_EDGE ( 'NONE', *, *, #358, .T. ) ;
#227 = EDGE_LOOP ( 'NONE', ( #284, #240, #244, #246 ) ) ;
#228 = EDGE_LOOP ( 'NONE', ( #218, #209 ) ) ;
#229 = ORIENTED_EDGE ( 'NONE', *, *, #13, .T. ) ;
#230 = ORIENTED_EDGE ( 'NONE', *, *, #17, .F. ) ;
#231 = ORIENTED_EDGE ( 'NONE', *, *, #19, .F. ) ;
#232 = EDGE_LOOP ( 'NONE', ( #205, #288, #203, #202 ) ) ;
#233 = EDGE_LOOP ( 'NONE', ( #212, #224, #266, #250 ) ) ;
#234 = EDGE_LOOP ( 'NONE', ( #194, #300, #216, #286 ) ) ;
#235 = CYLINDRICAL_SURFACE ( 'NONE', #324, 60.00000000000000000 ) ;
#236 = FACE_BOUND ( 'NONE', #261, .T. ) ;
#237 = CYLINDRICAL_SURFACE ( 'NONE', #326, 16.00000000000000000 ) ;
#238 = CIRCLE ( 'NONE', #360, 16.00000000000000000 ) ;
#239 = CYLINDRICAL_SURFACE ( 'NONE', #327, 4.000000000000006200 ) ;
#240 = ORIENTED_EDGE ( 'NONE', *, *, #84, .F. ) ;
#241 = FACE_OUTER_BOUND ( 'NONE', #227, .T. ) ;
#242 = VECTOR ( 'NONE', #25, 1000.000000000000000 ) ;
#243 = CIRCLE ( 'NONE', #318, 4.000000000000006200 ) ;
#244 = ORIENTED_EDGE ( 'NONE', *, *, #104, .T. ) ;
#245 = ORIENTED_EDGE ( 'NONE', *, *, #107, .F. ) ;
#246 = ORIENTED_EDGE ( 'NONE', *, *, #102, .T. ) ;
#247 = LINE ( 'NONE', #131, #204 ) ;
#248 = ORIENTED_EDGE ( 'NONE', *, *, #102, .F. ) ;
#249 =( GEOMETRIC_REPRESENTATION_CONTEXT ( 3 ) GLOBAL_UNCERTAINTY_ASSIGNED_CONTEXT ( ( #78 ) ) GLOBAL_UNIT_ASSIGNED_CONTEXT ( ( #30, #31, #29 ) ) REPRESENTATION_CONTEXT ( 'NONE', 'WORKASPACE' ) );
#250 = ORIENTED_EDGE ( 'NONE', *, *, #82, .T. ) ;
#251 = CIRCLE ( 'NONE', #100, 4.000000000000006200 ) ;
#252 = CIRCLE ( 'NONE', #80, 16.00000000000000000 ) ;
#253 = ORIENTED_EDGE ( 'NONE', *, *, #104, .F. ) ;
#254 = SHAPE_DEFINITION_REPRESENTATION ( #349, #79 ) ;
#255 = FACE_OUTER_BOUND ( 'NONE', #264, .T. ) ;
#256 = FACE_OUTER_BOUND ( 'NONE', #260, .T. ) ;
#257 = EDGE_LOOP ( 'NONE', ( #248, #230 ) ) ;
#258 = EDGE_LOOP ( 'NONE', ( #265, #217 ) ) ;
#259 = CIRCLE ( 'NONE', #359, 16.00000000000000000 ) ;
#260 = EDGE_LOOP ( 'NONE', ( #215, #231, #213, #229 ) ) ;
#261 = EDGE_LOOP ( 'NONE', ( #293, #299 ) ) ;
#262 = CIRCLE ( 'NONE', #311, 60.00000000000000000 ) ;
#263 = EDGE_LOOP ( 'NONE', ( #200, #226, #220, #253 ) ) ;
#264 = EDGE_LOOP ( 'NONE', ( #267, #219 ) ) ;
#265 = ORIENTED_EDGE ( 'NONE', *, *, #14, .T. ) ;
#266 = ORIENTED_EDGE ( 'NONE', *, *, #101, .T. ) ;
#267 = ORIENTED_EDGE ( 'NONE', *, *, #82, .F. ) ;
#268 = CIRCLE ( 'NONE', #85, 4.000000000000006200 ) ;
#269 = CYLINDRICAL_SURFACE ( 'NONE', #328, 4.000000000000006200 ) ;
#270 = LINE ( 'NONE', #23, #242 ) ;
#271 = EDGE_LOOP ( 'NONE', ( #178, #190 ) ) ;
#272 = FACE_BOUND ( 'NONE', #258, .T. ) ;
#273 = VECTOR ( 'NONE', #122, 1000.000000000000000 ) ;
#274 = VECTOR ( 'NONE', #139, 1000.000000000000000 ) ;
#275 = VECTOR ( 'NONE', #109, 1000.000000000000000 ) ;
#276 = LINE ( 'NONE', #121, #273 ) ;
#277 = CIRCLE ( 'NONE', #314, 16.00000000000000000 ) ;
#278 = EDGE_LOOP ( 'NONE', ( #245, #214, #290, #285 ) ) ;
#279 = CIRCLE ( 'NONE', #312, 60.00000000000000000 ) ;
#280 = LINE ( 'NONE', #126, #274 ) ;
#281 = VECTOR ( 'NONE', #63, 1000.000000000000000 ) ;
#282 = CIRCLE ( 'NONE', #99, 4.000000000000006200 ) ;
#283 = CIRCLE ( 'NONE', #315, 4.000000000000006200 ) ;
#284 = ORIENTED_EDGE ( 'NONE', *, *, #358, .F. ) ;
#285 = ORIENTED_EDGE ( 'NONE', *, *, #83, .F. ) ;
#286 = ORIENTED_EDGE ( 'NONE', *, *, #101, .F. ) ;
#287 = FACE_BOUND ( 'NONE', #225, .T. ) ;
#288 = ORIENTED_EDGE ( 'NONE', *, *, #355, .T. ) ;
#289 = ORIENTED_EDGE ( 'NONE', *, *, #14, .F. ) ;
#290 = ORIENTED_EDGE ( 'NONE', *, *, #105, .T. ) ;
#291 = ORIENTED_EDGE ( 'NONE', *, *, #13, .F. ) ;
#292 = ORIENTED_EDGE ( 'NONE', *, *, #356, .F. ) ;
#293 = ORIENTED_EDGE ( 'NONE', *, *, #84, .T. ) ;
#294 = FACE_OUTER_BOUND ( 'NONE', #210, .T. ) ;
#295 = LINE ( 'NONE', #123, #281 ) ;
#296 = LINE ( 'NONE', #35, #157 ) ;
#297 = LINE ( 'NONE', #132, #207 ) ;
#298 = CIRCLE ( 'NONE', #313, 4.000000000000006200 ) ;
#299 = ORIENTED_EDGE ( 'NONE', *, *, #106, .T. ) ;
#300 = ORIENTED_EDGE ( 'NONE', *, *, #103, .T. ) ;
#301 = ADVANCED_FACE ( 'NONE', ( #193 ), #150, .F. ) ;
#302 = ADVANCED_FACE ( 'NONE', ( #147 ), #155, .T. ) ;
#303 = ADVANCED_FACE ( 'NONE', ( #151, #156, #223, #287 ), #56, .T. ) ;
#304 = ADVANCED_FACE ( 'NONE', ( #294 ), #154, .F. ) ;
#305 = ADVANCED_FACE ( 'NONE', ( #145 ), #146, .F. ) ;
#306 = ADVANCED_FACE ( 'NONE', ( #153 ), #235, .T. ) ;
#307 = ADVANCED_FACE ( 'NONE', ( #144, #236, #255, #272 ), #68, .F. ) ;
#308 = ADVANCED_FACE ( 'NONE', ( #208 ), #237, .F. ) ;
#309 = ADVANCED_FACE ( 'NONE', ( #241 ), #239, .F. ) ;
#310 = ADVANCED_FACE ( 'NONE', ( #256 ), #269, .F. ) ;
#311 = AXIS2_PLACEMENT_3D ( 'NONE', #112, #134, #135 ) ;
#312 = AXIS2_PLACEMENT_3D ( 'NONE', #390, #124, #117 ) ;
#313 = AXIS2_PLACEMENT_3D ( 'NONE', #128, #118, #111 ) ;
#314 = AXIS2_PLACEMENT_3D ( 'NONE', #113, #140, #130 ) ;
#315 = AXIS2_PLACEMENT_3D ( 'NONE', #133, #127, #125 ) ;
#316 = AXIS2_PLACEMENT_3D ( 'NONE', #137, #120, #138 ) ;
#317 = AXIS2_PLACEMENT_3D ( 'NONE', #136, #48, #61 ) ;
#318 = AXIS2_PLACEMENT_3D ( 'NONE', #9, #8, #42 ) ;
#319 = AXIS2_PLACEMENT_3D ( 'NONE', #52, #51, #50 ) ;
#320 = AXIS2_PLACEMENT_3D ( 'NONE', #47, #59, #55 ) ;
#321 = AXIS2_PLACEMENT_3D ( 'NONE', #62, #44, #43 ) ;
#322 = AXIS2_PLACEMENT_3D ( 'NONE', #49, #53, #58 ) ;
#323 = AXIS2_PLACEMENT_3D ( 'NONE', #45, #54, #60 ) ;
#324 = AXIS2_PLACEMENT_3D ( 'NONE', #71, #64, #69 ) ;
#325 = AXIS2_PLACEMENT_3D ( 'NONE', #65, #70, #72 ) ;
#326 = AXIS2_PLACEMENT_3D ( 'NONE', #66, #6, #12 ) ;
#327 = AXIS2_PLACEMENT_3D ( 'NONE', #5, #7, #10 ) ;
#328 = AXIS2_PLACEMENT_3D ( 'NONE', #11, #22, #26 ) ;
#329 = CC_DESIGN_PERSON_AND_ORGANIZATION_ASSIGNMENT ( #159, #353, ( #76 ) ) ;
#330 = AXIS2_PLACEMENT_3D ( 'NONE', #88, #3, #1 ) ;
#331 = PRODUCT_DEFINITION ( 'UNKNOWN', '', #336, #348 ) ;
#332 = APPROVAL ( #75, 'UNSPECIFIED' ) ;
#333 = CC_DESIGN_APPROVAL ( #332, ( #331 ) ) ;
#334 = CC_DESIGN_PERSON_AND_ORGANIZATION_ASSIGNMENT ( #168, #87, ( #331 ) ) ;
#335 = CC_DESIGN_DATE_AND_TIME_ASSIGNMENT ( #170, #73, ( #331 ) ) ;
#336 = PRODUCT_DEFINITION_FORMATION_WITH_SPECIFIED_SOURCE ( 'ANY', '', #76, .NOT_KNOWN. ) ;
#337 = APPROVAL ( #67, 'UNSPECIFIED' ) ;
#338 = CC_DESIGN_APPROVAL ( #337, ( #336 ) ) ;
#339 = CC_DESIGN_PERSON_AND_ORGANIZATION_ASSIGNMENT ( #221, #46, ( #336 ) ) ;
#340 = CC_DESIGN_PERSON_AND_ORGANIZATION_ASSIGNMENT ( #181, #2, ( #336 ) ) ;
#341 = SECURITY_CLASSIFICATION ( '', '', #4 ) ;
#342 = CC_DESIGN_PERSON_AND_ORGANIZATION_ASSIGNMENT ( #182, #91, ( #341 ) ) ;
#343 = CC_DESIGN_DATE_AND_TIME_ASSIGNMENT ( #185, #116, ( #341 ) ) ;
#344 = APPROVAL ( #350, 'UNSPECIFIED' ) ;
#345 = CC_DESIGN_APPROVAL ( #344, ( #341 ) ) ;
#346 = CC_DESIGN_SECURITY_CLASSIFICATION ( #341, ( #336 ) ) ;
#347 = PRODUCT_RELATED_PRODUCT_CATEGORY ( 'detail', '', ( #76 ) ) ;
#348 = DESIGN_CONTEXT ( 'detailed design', #352, 'design' ) ;
#349 = PRODUCT_DEFINITION_SHAPE ( 'NONE', 'NONE',  #331 ) ;
#350 = APPROVAL_STATUS ( 'not_yet_approved' ) ;
#351 = APPROVAL_ROLE ( '' ) ;
#352 = APPLICATION_CONTEXT ( 'configuration controlled 3d designs of mechanical parts and assemblies' ) ;
#353 = PERSON_AND_ORGANIZATION_ROLE ( 'design_owner' ) ;
#354 = AXIS2_PLACEMENT_3D ( 'NONE', #394, #396, #395 ) ;
#355 = EDGE_CURVE ( 'NONE', #392, #387, #270, .T. ) ;
#356 = EDGE_CURVE ( 'NONE', #387, #388, #243, .T. ) ;
#357 = AXIS2_PLACEMENT_3D ( 'NONE', #361, #362, #373 ) ;
#358 = EDGE_CURVE ( 'NONE', #375, #374, #296, .T. ) ;
#359 = AXIS2_PLACEMENT_3D ( 'NONE', #115, #110, #119 ) ;
#360 = AXIS2_PLACEMENT_3D ( 'NONE', #370, #366, #369 ) ;
#361 = CARTESIAN_POINT ( 'NONE',  ( 0.0000000000000000000, 12.69999999999999900, 0.0000000000000000000 ) ) ;
#362 = DIRECTION ( 'NONE',  ( 0.0000000000000000000, 1.000000000000000000, 0.0000000000000000000 ) ) ;
#363 = DIRECTION ( 'NONE',  ( 0.0000000000000000000, 0.0000000000000000000, 1.000000000000000000 ) ) ;
#364 = DIRECTION ( 'NONE',  ( 0.0000000000000000000, 1.000000000000000000, 0.0000000000000000000 ) ) ;
#365 = DIRECTION ( 'NONE',  ( 0.0000000000000000000, 0.0000000000000000000, 1.000000000000000000 ) ) ;
#366 = DIRECTION ( 'NONE',  ( 0.0000000000000000000, 1.000000000000000000, 0.0000000000000000000 ) ) ;
#367 = DIRECTION ( 'NONE',  ( 0.0000000000000000000, 1.000000000000000000, -0.0000000000000000000 ) ) ;
#368 = CARTESIAN_POINT ( 'NONE',  ( 0.0000000000000000000, 12.69999999999999900, 0.0000000000000000000 ) ) ;
#369 = DIRECTION ( 'NONE',  ( 0.0000000000000000000, 0.0000000000000000000, 1.000000000000000000 ) ) ;
#370 = CARTESIAN_POINT ( 'NONE',  ( 0.0000000000000000000, 0.0000000000000000000, 0.0000000000000000000 ) ) ;
#371 = DIRECTION ( 'NONE',  ( 0.0000000000000000000, 1.000000000000000000, -0.0000000000000000000 ) ) ;
#372 = CARTESIAN_POINT ( 'NONE',  ( -45.00000000000000000, 12.69999999999999900, 5.510910596163089600E-015 ) ) ;
#373 = DIRECTION ( 'NONE',  ( 0.0000000000000000000, 0.0000000000000000000, 1.000000000000000000 ) ) ;
#374 = VERTEX_POINT ( 'NONE', #36 ) ;
#375 = VERTEX_POINT ( 'NONE', #38 ) ;
#376 = VERTEX_POINT ( 'NONE', #39 ) ;
#377 = VERTEX_POINT ( 'NONE', #37 ) ;
#378 = VERTEX_POINT ( 'NONE', #40 ) ;
#379 = VERTEX_POINT ( 'NONE', #92 ) ;
#380 = VERTEX_POINT ( 'NONE', #24 ) ;
#381 = DIRECTION ( 'NONE',  ( 0.0000000000000000000, 1.000000000000000000, -0.0000000000000000000 ) ) ;
#382 = DIRECTION ( 'NONE',  ( 0.0000000000000000000, 0.0000000000000000000, 1.000000000000000000 ) ) ;
#383 = VERTEX_POINT ( 'NONE', #96 ) ;
#384 = VERTEX_POINT ( 'NONE', #94 ) ;
#385 = VERTEX_POINT ( 'NONE', #98 ) ;
#386 = VERTEX_POINT ( 'NONE', #97 ) ;
#387 = VERTEX_POINT ( 'NONE', #95 ) ;
#388 = VERTEX_POINT ( 'NONE', #93 ) ;
#389 = CARTESIAN_POINT ( 'NONE',  ( 45.00000000000000000, 12.69999999999999900, 0.0000000000000000000 ) ) ;
#390 = CARTESIAN_POINT ( 'NONE',  ( 0.0000000000000000000, 0.0000000000000000000, 0.0000000000000000000 ) ) ;
#391 = VERTEX_POINT ( 'NONE', #28 ) ;
#392 = VERTEX_POINT ( 'NONE', #32 ) ;
#393 = VERTEX_POINT ( 'NONE', #27 ) ;
#394 = CARTESIAN_POINT ( 'NONE',  ( 0.0000000000000000000, 0.0000000000000000000, 0.0000000000000000000 ) ) ;
#395 = DIRECTION ( 'NONE',  ( 0.0000000000000000000, 0.0000000000000000000, 1.000000000000000000 ) ) ;
#396 = DIRECTION ( 'NONE',  ( 0.0000000000000000000, 1.000000000000000000, 0.0000000000000000000 ) ) ;
#397 = CARTESIAN_POINT ( 'NONE',  ( 45.00000000000000000, 0.0000000000000000000, 0.0000000000000000000 ) ) ;
ENDSEC;
END-ISO-10303-21;
