ISO-10303-21;
HEADER;
FILE_DESCRIPTION (( 'STEP AP203' ),
    '1' );
FILE_NAME ('MountDisc.STEP',
    '2012-06-23T00:21:21',
    ( '' ),
    ( '' ),
    'SwSTEP 2.0',
    'SolidWorks 2010',
    '' );
FILE_SCHEMA (( 'CONFIG_CONTROL_DESIGN' ));
ENDSEC;

DATA;
#1 = MANIFOLD_SOLID_BREP ( 'Cut-Extrude1', #119 ) ;
#2 = UNCERTAINTY_MEASURE_WITH_UNIT (LENGTH_MEASURE( 1.000000000000000100E-005 ), #344, 'distance_accuracy_value', 'NONE');
#3 = ADVANCED_BREP_SHAPE_REPRESENTATION ( 'MountDisc', ( #1, #394 ), #165 ) ;
#4 = PRODUCT ( 'MountDisc', 'MountDisc', '', ( #360 ) ) ;
#5 = PERSON ( 'UNSPECIFIED', 'UNSPECIFIED', 'UNSPECIFIED', ('UNSPECIFIED'), ('UNSPECIFIED'), ('UNSPECIFIED') ) ;
#6 = AXIS2_PLACEMENT_3D ( 'NONE', #309, #317, #350 ) ;
#7 = EDGE_LOOP ( 'NONE', ( #87, #110 ) ) ;
#8 = EDGE_LOOP ( 'NONE', ( #123, #117 ) ) ;
#9 = FACE_BOUND ( 'NONE', #7, .T. ) ;
#10 = CIRCLE ( 'NONE', #245, 4.000000000000006200 ) ;
#11 = ORIENTED_EDGE ( 'NONE', *, *, #270, .F. ) ;
#12 = ORIENTED_EDGE ( 'NONE', *, *, #260, .F. ) ;
#13 = ORIENTED_EDGE ( 'NONE', *, *, #244, .T. ) ;
#14 = ORIENTED_EDGE ( 'NONE', *, *, #246, .F. ) ;
#15 = EDGE_LOOP ( 'NONE', ( #89, #75 ) ) ;
#16 = EDGE_LOOP ( 'NONE', ( #23, #81, #71, #86 ) ) ;
#17 = EDGE_LOOP ( 'NONE', ( #114, #12 ) ) ;
#18 = ORIENTED_EDGE ( 'NONE', *, *, #241, .F. ) ;
#19 = FACE_BOUND ( 'NONE', #121, .T. ) ;
#20 = CYLINDRICAL_SURFACE ( 'NONE', #299, 16.00000000000000000 ) ;
#21 = FACE_BOUND ( 'NONE', #8, .T. ) ;
#22 = FACE_OUTER_BOUND ( 'NONE', #108, .T. ) ;
#23 = ORIENTED_EDGE ( 'NONE', *, *, #259, .T. ) ;
#24 = FACE_OUTER_BOUND ( 'NONE', #111, .T. ) ;
#25 = FACE_OUTER_BOUND ( 'NONE', #125, .T. ) ;
#26 = CYLINDRICAL_SURFACE ( 'NONE', #304, 4.000000000000006200 ) ;
#27 = ORIENTED_EDGE ( 'NONE', *, *, #248, .T. ) ;
#28 = FACE_OUTER_BOUND ( 'NONE', #112, .T. ) ;
#29 = CYLINDRICAL_SURFACE ( 'NONE', #395, 16.00000000000000000 ) ;
#30 = FACE_OUTER_BOUND ( 'NONE', #126, .T. ) ;
#31 = VECTOR ( 'NONE', #366, 1000.000000000000000 ) ;
#32 = CIRCLE ( 'NONE', #388, 63.50000000000000000 ) ;
#33 = VECTOR ( 'NONE', #346, 1000.000000000000000 ) ;
#34 = FACE_BOUND ( 'NONE', #17, .T. ) ;
#35 = CIRCLE ( 'NONE', #249, 63.50000000000000000 ) ;
#36 = FACE_BOUND ( 'NONE', #109, .T. ) ;
#37 = CIRCLE ( 'NONE', #239, 4.000000000000006200 ) ;
#38 = LINE ( 'NONE', #365, #54 ) ;
#39 = CYLINDRICAL_SURFACE ( 'NONE', #293, 63.50000000000000000 ) ;
#40 = FACE_OUTER_BOUND ( 'NONE', #16, .T. ) ;
#41 = CYLINDRICAL_SURFACE ( 'NONE', #128, 4.000000000000006200 ) ;
#42 = CYLINDRICAL_SURFACE ( 'NONE', #393, 4.000000000000006200 ) ;
#43 = CYLINDRICAL_SURFACE ( 'NONE', #285, 63.50000000000000000 ) ;
#44 = FACE_OUTER_BOUND ( 'NONE', #106, .T. ) ;
#45 = FACE_OUTER_BOUND ( 'NONE', #127, .T. ) ;
#46 = CIRCLE ( 'NONE', #389, 4.000000000000006200 ) ;
#47 = VECTOR ( 'NONE', #354, 1000.000000000000000 ) ;
#48 = CIRCLE ( 'NONE', #392, 16.00000000000000000 ) ;
#49 = CIRCLE ( 'NONE', #268, 4.000000000000006200 ) ;
#50 = CIRCLE ( 'NONE', #265, 4.000000000000006200 ) ;
#51 = FACE_OUTER_BOUND ( 'NONE', #120, .T. ) ;
#52 = CIRCLE ( 'NONE', #166, 16.00000000000000000 ) ;
#53 = CIRCLE ( 'NONE', #240, 4.000000000000006200 ) ;
#54 = VECTOR ( 'NONE', #371, 1000.000000000000000 ) ;
#55 = CIRCLE ( 'NONE', #6, 16.00000000000000000 ) ;
#56 = LINE ( 'NONE', #373, #31 ) ;
#57 = CYLINDRICAL_SURFACE ( 'NONE', #390, 4.000000000000006200 ) ;
#58 = LINE ( 'NONE', #332, #47 ) ;
#59 = LINE ( 'NONE', #233, #62 ) ;
#60 = FACE_BOUND ( 'NONE', #15, .T. ) ;
#61 = FACE_OUTER_BOUND ( 'NONE', #116, .T. ) ;
#62 = VECTOR ( 'NONE', #191, 1000.000000000000000 ) ;
#63 = CIRCLE ( 'NONE', #273, 63.50000000000000000 ) ;
#64 = CIRCLE ( 'NONE', #251, 4.000000000000006200 ) ;
#65 = VECTOR ( 'NONE', #185, 1000.000000000000000 ) ;
#66 = LINE ( 'NONE', #190, #68 ) ;
#67 = LINE ( 'NONE', #311, #33 ) ;
#68 = VECTOR ( 'NONE', #182, 1000.000000000000000 ) ;
#69 = CIRCLE ( 'NONE', #258, 63.50000000000000000 ) ;
#70 = ORIENTED_EDGE ( 'NONE', *, *, #242, .T. ) ;
#71 = ORIENTED_EDGE ( 'NONE', *, *, #271, .F. ) ;
#72 = LINE ( 'NONE', #193, #65 ) ;
#73 = ORIENTED_EDGE ( 'NONE', *, *, #274, .T. ) ;
#74 = ORIENTED_EDGE ( 'NONE', *, *, #241, .T. ) ;
#75 = ORIENTED_EDGE ( 'NONE', *, *, #250, .T. ) ;
#76 = ORIENTED_EDGE ( 'NONE', *, *, #270, .T. ) ;
#77 = ORIENTED_EDGE ( 'NONE', *, *, #257, .T. ) ;
#78 = ORIENTED_EDGE ( 'NONE', *, *, #246, .T. ) ;
#79 = ORIENTED_EDGE ( 'NONE', *, *, #253, .F. ) ;
#80 = ORIENTED_EDGE ( 'NONE', *, *, #243, .F. ) ;
#81 = ORIENTED_EDGE ( 'NONE', *, *, #243, .T. ) ;
#82 = ORIENTED_EDGE ( 'NONE', *, *, #255, .F. ) ;
#83 = ORIENTED_EDGE ( 'NONE', *, *, #266, .T. ) ;
#84 = ORIENTED_EDGE ( 'NONE', *, *, #247, .F. ) ;
#85 = ORIENTED_EDGE ( 'NONE', *, *, #261, .F. ) ;
#86 = ORIENTED_EDGE ( 'NONE', *, *, #274, .F. ) ;
#87 = ORIENTED_EDGE ( 'NONE', *, *, #259, .F. ) ;
#88 = ORIENTED_EDGE ( 'NONE', *, *, #247, .T. ) ;
#89 = ORIENTED_EDGE ( 'NONE', *, *, #255, .T. ) ;
#90 = CIRCLE ( 'NONE', #252, 16.00000000000000000 ) ;
#91 = LINE ( 'NONE', #176, #115 ) ;
#92 = ORIENTED_EDGE ( 'NONE', *, *, #260, .T. ) ;
#93 = ORIENTED_EDGE ( 'NONE', *, *, #250, .F. ) ;
#94 = ORIENTED_EDGE ( 'NONE', *, *, #253, .T. ) ;
#95 = ORIENTED_EDGE ( 'NONE', *, *, #266, .F. ) ;
#96 = ORIENTED_EDGE ( 'NONE', *, *, #272, .T. ) ;
#97 = ORIENTED_EDGE ( 'NONE', *, *, #271, .T. ) ;
#98 = ORIENTED_EDGE ( 'NONE', *, *, #242, .F. ) ;
#99 = ORIENTED_EDGE ( 'NONE', *, *, #267, .T. ) ;
#100 = ORIENTED_EDGE ( 'NONE', *, *, #264, .T. ) ;
#101 = ORIENTED_EDGE ( 'NONE', *, *, #256, .T. ) ;
#102 = ORIENTED_EDGE ( 'NONE', *, *, #264, .F. ) ;
#103 = ORIENTED_EDGE ( 'NONE', *, *, #257, .F. ) ;
#104 = ORIENTED_EDGE ( 'NONE', *, *, #272, .F. ) ;
#105 = ORIENTED_EDGE ( 'NONE', *, *, #262, .F. ) ;
#106 = EDGE_LOOP ( 'NONE', ( #14, #124, #77, #74 ) ) ;
#107 = ORIENTED_EDGE ( 'NONE', *, *, #269, .T. ) ;
#108 = EDGE_LOOP ( 'NONE', ( #18, #84 ) ) ;
#109 = EDGE_LOOP ( 'NONE', ( #118, #95 ) ) ;
#110 = ORIENTED_EDGE ( 'NONE', *, *, #269, .F. ) ;
#111 = EDGE_LOOP ( 'NONE', ( #93, #96, #92, #11 ) ) ;
#112 = EDGE_LOOP ( 'NONE', ( #113, #78, #88, #103 ) ) ;
#113 = ORIENTED_EDGE ( 'NONE', *, *, #248, .F. ) ;
#114 = ORIENTED_EDGE ( 'NONE', *, *, #256, .F. ) ;
#115 = VECTOR ( 'NONE', #186, 1000.000000000000000 ) ;
#116 = EDGE_LOOP ( 'NONE', ( #105, #94, #83, #102 ) ) ;
#117 = ORIENTED_EDGE ( 'NONE', *, *, #262, .T. ) ;
#118 = ORIENTED_EDGE ( 'NONE', *, *, #244, .F. ) ;
#119 = CLOSED_SHELL ( 'NONE', ( #278, #277, #275, #281, #276, #280, #282, #283, #284, #279 ) ) ;
#120 = EDGE_LOOP ( 'NONE', ( #80, #107, #73, #98 ) ) ;
#121 = EDGE_LOOP ( 'NONE', ( #97, #70 ) ) ;
#122 = CIRCLE ( 'NONE', #254, 4.000000000000006200 ) ;
#123 = ORIENTED_EDGE ( 'NONE', *, *, #261, .T. ) ;
#124 = ORIENTED_EDGE ( 'NONE', *, *, #267, .F. ) ;
#125 = EDGE_LOOP ( 'NONE', ( #99, #27 ) ) ;
#126 = EDGE_LOOP ( 'NONE', ( #79, #85, #100, #13 ) ) ;
#127 = EDGE_LOOP ( 'NONE', ( #104, #82, #76, #101 ) ) ;
#128 = AXIS2_PLACEMENT_3D ( 'NONE', #337, #325, #329 ) ;
#129 = APPROVAL_DATE_TIME ( #130, #305 ) ;
#130 = DATE_AND_TIME ( #131, #132 ) ;
#131 = CALENDAR_DATE ( 2012, 22, 6 ) ;
#132 = LOCAL_TIME ( 19, 21, 21.00000000000000000, #133 ) ;
#133 = COORDINATED_UNIVERSAL_TIME_OFFSET ( 6, 0, .BEHIND. ) ;
#134 = APPROVAL_PERSON_ORGANIZATION ( #135, #305, #376 ) ;
#135 = PERSON_AND_ORGANIZATION ( #5, #163 ) ;
#136 = DATE_AND_TIME ( #137, #138 ) ;
#137 = CALENDAR_DATE ( 2012, 22, 6 ) ;
#138 = LOCAL_TIME ( 19, 21, 21.00000000000000000, #139 ) ;
#139 = COORDINATED_UNIVERSAL_TIME_OFFSET ( 6, 0, .BEHIND. ) ;
#140 = PERSON_AND_ORGANIZATION ( #5, #163 ) ;
#141 = PERSON_AND_ORGANIZATION ( #5, #163 ) ;
#142 = PERSON_AND_ORGANIZATION ( #5, #163 ) ;
#143 = APPROVAL_DATE_TIME ( #144, #289 ) ;
#144 = DATE_AND_TIME ( #145, #146 ) ;
#145 = CALENDAR_DATE ( 2012, 22, 6 ) ;
#146 = LOCAL_TIME ( 19, 21, 21.00000000000000000, #147 ) ;
#147 = COORDINATED_UNIVERSAL_TIME_OFFSET ( 6, 0, .BEHIND. ) ;
#148 = APPROVAL_PERSON_ORGANIZATION ( #149, #289, #380 ) ;
#149 = PERSON_AND_ORGANIZATION ( #5, #163 ) ;
#150 = DATE_AND_TIME ( #151, #152 ) ;
#151 = CALENDAR_DATE ( 2012, 22, 6 ) ;
#152 = LOCAL_TIME ( 19, 21, 21.00000000000000000, #153 ) ;
#153 = COORDINATED_UNIVERSAL_TIME_OFFSET ( 6, 0, .BEHIND. ) ;
#154 = PERSON_AND_ORGANIZATION ( #5, #163 ) ;
#155 = APPROVAL_DATE_TIME ( #156, #288 ) ;
#156 = DATE_AND_TIME ( #157, #158 ) ;
#157 = CALENDAR_DATE ( 2012, 22, 6 ) ;
#158 = LOCAL_TIME ( 19, 21, 21.00000000000000000, #159 ) ;
#159 = COORDINATED_UNIVERSAL_TIME_OFFSET ( 6, 0, .BEHIND. ) ;
#160 = APPROVAL_PERSON_ORGANIZATION ( #161, #288, #369 ) ;
#161 = PERSON_AND_ORGANIZATION ( #5, #163 ) ;
#162 = PERSON_AND_ORGANIZATION ( #5, #163 ) ;
#163 = ORGANIZATION ( 'UNSPECIFIED', 'UNSPECIFIED', '' ) ;
#164 = SHAPE_DEFINITION_REPRESENTATION ( #397, #3 ) ;
#165 =( GEOMETRIC_REPRESENTATION_CONTEXT ( 3 ) GLOBAL_UNCERTAINTY_ASSIGNED_CONTEXT ( ( #2 ) ) GLOBAL_UNIT_ASSIGNED_CONTEXT ( ( #344, #381, #331 ) ) REPRESENTATION_CONTEXT ( 'NONE', 'WORKASPACE' ) );
#166 = AXIS2_PLACEMENT_3D ( 'NONE', #175, #232, #200 ) ;
#167 = CARTESIAN_POINT ( 'NONE',  ( 45.00000000000000000, 12.69999999999999900, -4.000000000000006200 ) ) ;
#168 = VERTEX_POINT ( 'NONE', #170 ) ;
#169 = DIRECTION ( 'NONE',  ( 0.0000000000000000000, 1.000000000000000000, 0.0000000000000000000 ) ) ;
#170 = CARTESIAN_POINT ( 'NONE',  ( 0.0000000000000000000, 12.69999999999999900, -63.50000000000000000 ) ) ;
#171 = CARTESIAN_POINT ( 'NONE',  ( 0.0000000000000000000, 0.0000000000000000000, -63.50000000000000000 ) ) ;
#172 = VERTEX_POINT ( 'NONE', #225 ) ;
#173 = VERTEX_POINT ( 'NONE', #206 ) ;
#174 = VERTEX_POINT ( 'NONE', #187 ) ;
#175 = CARTESIAN_POINT ( 'NONE',  ( 0.0000000000000000000, 12.69999999999999900, 0.0000000000000000000 ) ) ;
#176 = CARTESIAN_POINT ( 'NONE',  ( 7.776507174585693000E-015, 12.69999999999999900, 63.50000000000000000 ) ) ;
#177 = CARTESIAN_POINT ( 'NONE',  ( 1.959434878635765100E-015, 12.69999999999999900, 16.00000000000000000 ) ) ;
#178 = DIRECTION ( 'NONE',  ( 0.0000000000000000000, 1.000000000000000000, -0.0000000000000000000 ) ) ;
#179 = DIRECTION ( 'NONE',  ( 0.0000000000000000000, 0.0000000000000000000, 1.000000000000000000 ) ) ;
#180 = VERTEX_POINT ( 'NONE', #204 ) ;
#181 = CARTESIAN_POINT ( 'NONE',  ( 1.959434878635765100E-015, 0.0000000000000000000, 16.00000000000000000 ) ) ;
#182 = DIRECTION ( 'NONE',  ( -0.0000000000000000000, 1.000000000000000000, -0.0000000000000000000 ) ) ;
#183 = CARTESIAN_POINT ( 'NONE',  ( 0.0000000000000000000, 0.0000000000000000000, 0.0000000000000000000 ) ) ;
#184 = DIRECTION ( 'NONE',  ( 0.0000000000000000000, 1.000000000000000000, -0.0000000000000000000 ) ) ;
#185 = DIRECTION ( 'NONE',  ( -0.0000000000000000000, -1.000000000000000000, -0.0000000000000000000 ) ) ;
#186 = DIRECTION ( 'NONE',  ( -0.0000000000000000000, -1.000000000000000000, -0.0000000000000000000 ) ) ;
#187 = CARTESIAN_POINT ( 'NONE',  ( -45.00000000000000000, 0.0000000000000000000, -4.000000000000000900 ) ) ;
#188 = VERTEX_POINT ( 'NONE', #181 ) ;
#189 = DIRECTION ( 'NONE',  ( 0.0000000000000000000, 0.0000000000000000000, 1.000000000000000000 ) ) ;
#190 = CARTESIAN_POINT ( 'NONE',  ( -45.00000000000000000, 0.0000000000000000000, -4.000000000000000900 ) ) ;
#191 = DIRECTION ( 'NONE',  ( -0.0000000000000000000, -1.000000000000000000, -0.0000000000000000000 ) ) ;
#192 = DIRECTION ( 'NONE',  ( 0.0000000000000000000, 1.000000000000000000, 0.0000000000000000000 ) ) ;
#193 = CARTESIAN_POINT ( 'NONE',  ( 1.959434878635765100E-015, 12.69999999999999900, 16.00000000000000000 ) ) ;
#194 = CARTESIAN_POINT ( 'NONE',  ( -45.00000000000000000, 12.69999999999999900, 5.510910596163089600E-015 ) ) ;
#195 = DIRECTION ( 'NONE',  ( 0.0000000000000000000, 0.0000000000000000000, 1.000000000000000000 ) ) ;
#196 = CARTESIAN_POINT ( 'NONE',  ( -45.00000000000000000, 12.69999999999999900, -4.000000000000000900 ) ) ;
#197 = CARTESIAN_POINT ( 'NONE',  ( -45.00000000000000000, 0.0000000000000000000, 5.510910596163089600E-015 ) ) ;
#198 = CARTESIAN_POINT ( 'NONE',  ( 45.00000000000000000, 0.0000000000000000000, 0.0000000000000000000 ) ) ;
#199 = CARTESIAN_POINT ( 'NONE',  ( 45.00000000000000000, 12.69999999999999900, 4.000000000000006200 ) ) ;
#200 = DIRECTION ( 'NONE',  ( 0.0000000000000000000, 0.0000000000000000000, 1.000000000000000000 ) ) ;
#201 = CARTESIAN_POINT ( 'NONE',  ( 0.0000000000000000000, 0.0000000000000000000, 0.0000000000000000000 ) ) ;
#202 = DIRECTION ( 'NONE',  ( 0.0000000000000000000, 0.0000000000000000000, 1.000000000000000000 ) ) ;
#203 = CARTESIAN_POINT ( 'NONE',  ( 45.00000000000000000, 0.0000000000000000000, -4.000000000000006200 ) ) ;
#204 = CARTESIAN_POINT ( 'NONE',  ( -45.00000000000000000, 0.0000000000000000000, 4.000000000000011500 ) ) ;
#205 = CARTESIAN_POINT ( 'NONE',  ( 7.776507174585693000E-015, 0.0000000000000000000, 63.50000000000000000 ) ) ;
#206 = CARTESIAN_POINT ( 'NONE',  ( 0.0000000000000000000, 12.69999999999999900, -16.00000000000000000 ) ) ;
#207 = DIRECTION ( 'NONE',  ( 0.0000000000000000000, 0.0000000000000000000, 1.000000000000000000 ) ) ;
#208 = CARTESIAN_POINT ( 'NONE',  ( 45.00000000000000000, 0.0000000000000000000, 4.000000000000006200 ) ) ;
#209 = DIRECTION ( 'NONE',  ( 0.0000000000000000000, 1.000000000000000000, 0.0000000000000000000 ) ) ;
#210 = VERTEX_POINT ( 'NONE', #199 ) ;
#211 = VERTEX_POINT ( 'NONE', #203 ) ;
#212 = CARTESIAN_POINT ( 'NONE',  ( -45.00000000000000000, 12.69999999999999900, 5.510910596163089600E-015 ) ) ;
#213 = CARTESIAN_POINT ( 'NONE',  ( 7.776507174585693000E-015, 12.69999999999999900, 63.50000000000000000 ) ) ;
#214 = VERTEX_POINT ( 'NONE', #167 ) ;
#215 = DIRECTION ( 'NONE',  ( 0.0000000000000000000, 0.0000000000000000000, 1.000000000000000000 ) ) ;
#216 = VERTEX_POINT ( 'NONE', #235 ) ;
#217 = VERTEX_POINT ( 'NONE', #171 ) ;
#218 = CARTESIAN_POINT ( 'NONE',  ( 45.00000000000000000, 12.69999999999999900, 0.0000000000000000000 ) ) ;
#219 = CARTESIAN_POINT ( 'NONE',  ( 0.0000000000000000000, 0.0000000000000000000, 0.0000000000000000000 ) ) ;
#220 = DIRECTION ( 'NONE',  ( 0.0000000000000000000, 0.0000000000000000000, 1.000000000000000000 ) ) ;
#221 = DIRECTION ( 'NONE',  ( 0.0000000000000000000, 0.0000000000000000000, 1.000000000000000000 ) ) ;
#222 = DIRECTION ( 'NONE',  ( 0.0000000000000000000, 1.000000000000000000, 0.0000000000000000000 ) ) ;
#223 = VERTEX_POINT ( 'NONE', #177 ) ;
#224 = DIRECTION ( 'NONE',  ( 0.0000000000000000000, 1.000000000000000000, -0.0000000000000000000 ) ) ;
#225 = CARTESIAN_POINT ( 'NONE',  ( 0.0000000000000000000, 0.0000000000000000000, -16.00000000000000000 ) ) ;
#226 = DIRECTION ( 'NONE',  ( 0.0000000000000000000, 0.0000000000000000000, 1.000000000000000000 ) ) ;
#227 = VERTEX_POINT ( 'NONE', #213 ) ;
#228 = DIRECTION ( 'NONE',  ( 0.0000000000000000000, 1.000000000000000000, -0.0000000000000000000 ) ) ;
#229 = DIRECTION ( 'NONE',  ( 0.0000000000000000000, 1.000000000000000000, -0.0000000000000000000 ) ) ;
#230 = VERTEX_POINT ( 'NONE', #196 ) ;
#231 = CARTESIAN_POINT ( 'NONE',  ( 0.0000000000000000000, 12.69999999999999900, 0.0000000000000000000 ) ) ;
#232 = DIRECTION ( 'NONE',  ( 0.0000000000000000000, 1.000000000000000000, 0.0000000000000000000 ) ) ;
#233 = CARTESIAN_POINT ( 'NONE',  ( 0.0000000000000000000, 12.69999999999999900, -63.50000000000000000 ) ) ;
#234 = CARTESIAN_POINT ( 'NONE',  ( 45.00000000000000000, 12.69999999999999900, 0.0000000000000000000 ) ) ;
#235 = CARTESIAN_POINT ( 'NONE',  ( -45.00000000000000000, 12.69999999999999900, 4.000000000000011500 ) ) ;
#236 = VERTEX_POINT ( 'NONE', #205 ) ;
#237 = CARTESIAN_POINT ( 'NONE',  ( 45.00000000000000000, 0.0000000000000000000, 0.0000000000000000000 ) ) ;
#238 = VERTEX_POINT ( 'NONE', #208 ) ;
#239 = AXIS2_PLACEMENT_3D ( 'NONE', #218, #178, #189 ) ;
#240 = AXIS2_PLACEMENT_3D ( 'NONE', #194, #321, #315 ) ;
#241 = EDGE_CURVE ( 'NONE', #217, #236, #69, .T. ) ;
#242 = EDGE_CURVE ( 'NONE', #188, #172, #90, .T. ) ;
#243 = EDGE_CURVE ( 'NONE', #223, #188, #72, .T. ) ;
#244 = EDGE_CURVE ( 'NONE', #216, #230, #64, .T. ) ;
#245 = AXIS2_PLACEMENT_3D ( 'NONE', #198, #229, #179 ) ;
#246 = EDGE_CURVE ( 'NONE', #227, #236, #91, .T. ) ;
#247 = EDGE_CURVE ( 'NONE', #236, #217, #35, .T. ) ;
#248 = EDGE_CURVE ( 'NONE', #227, #168, #63, .T. ) ;
#249 = AXIS2_PLACEMENT_3D ( 'NONE', #219, #209, #220 ) ;
#250 = EDGE_CURVE ( 'NONE', #211, #238, #50, .T. ) ;
#251 = AXIS2_PLACEMENT_3D ( 'NONE', #212, #228, #226 ) ;
#252 = AXIS2_PLACEMENT_3D ( 'NONE', #183, #222, #215 ) ;
#253 = EDGE_CURVE ( 'NONE', #174, #230, #66, .T. ) ;
#254 = AXIS2_PLACEMENT_3D ( 'NONE', #234, #224, #221 ) ;
#255 = EDGE_CURVE ( 'NONE', #238, #211, #10, .T. ) ;
#256 = EDGE_CURVE ( 'NONE', #210, #214, #122, .T. ) ;
#257 = EDGE_CURVE ( 'NONE', #168, #217, #59, .T. ) ;
#258 = AXIS2_PLACEMENT_3D ( 'NONE', #201, #192, #207 ) ;
#259 = EDGE_CURVE ( 'NONE', #173, #223, #52, .T. ) ;
#260 = EDGE_CURVE ( 'NONE', #214, #210, #37, .T. ) ;
#261 = EDGE_CURVE ( 'NONE', #180, #174, #49, .T. ) ;
#262 = EDGE_CURVE ( 'NONE', #174, #180, #46, .T. ) ;
#263 = AXIS2_PLACEMENT_3D ( 'NONE', #349, #362, #320 ) ;
#264 = EDGE_CURVE ( 'NONE', #180, #216, #67, .T. ) ;
#265 = AXIS2_PLACEMENT_3D ( 'NONE', #237, #184, #195 ) ;
#266 = EDGE_CURVE ( 'NONE', #230, #216, #53, .T. ) ;
#267 = EDGE_CURVE ( 'NONE', #168, #227, #32, .T. ) ;
#268 = AXIS2_PLACEMENT_3D ( 'NONE', #197, #358, #314 ) ;
#269 = EDGE_CURVE ( 'NONE', #223, #173, #55, .T. ) ;
#270 = EDGE_CURVE ( 'NONE', #238, #210, #56, .T. ) ;
#271 = EDGE_CURVE ( 'NONE', #172, #188, #48, .T. ) ;
#272 = EDGE_CURVE ( 'NONE', #211, #214, #58, .T. ) ;
#273 = AXIS2_PLACEMENT_3D ( 'NONE', #231, #169, #202 ) ;
#274 = EDGE_CURVE ( 'NONE', #173, #172, #38, .T. ) ;
#275 = ADVANCED_FACE ( 'NONE', ( #40 ), #29, .F. ) ;
#276 = ADVANCED_FACE ( 'NONE', ( #34, #36, #25, #9 ), #310, .T. ) ;
#277 = ADVANCED_FACE ( 'NONE', ( #61 ), #57, .F. ) ;
#278 = ADVANCED_FACE ( 'NONE', ( #24 ), #42, .F. ) ;
#279 = ADVANCED_FACE ( 'NONE', ( #45 ), #41, .F. ) ;
#280 = ADVANCED_FACE ( 'NONE', ( #60, #21, #22, #19 ), #361, .F. ) ;
#281 = ADVANCED_FACE ( 'NONE', ( #28 ), #39, .T. ) ;
#282 = ADVANCED_FACE ( 'NONE', ( #44 ), #43, .T. ) ;
#283 = ADVANCED_FACE ( 'NONE', ( #51 ), #20, .F. ) ;
#284 = ADVANCED_FACE ( 'NONE', ( #30 ), #26, .F. ) ;
#285 = AXIS2_PLACEMENT_3D ( 'NONE', #355, #316, #352 ) ;
#286 = CC_DESIGN_PERSON_AND_ORGANIZATION_ASSIGNMENT ( #154, #356, ( #295 ) ) ;
#287 = CC_DESIGN_APPROVAL ( #288, ( #295 ) ) ;
#288 = APPROVAL ( #372, 'UNSPECIFIED' ) ;
#289 = APPROVAL ( #364, 'UNSPECIFIED' ) ;
#290 = CC_DESIGN_PERSON_AND_ORGANIZATION_ASSIGNMENT ( #140, #336, ( #291 ) ) ;
#291 = SECURITY_CLASSIFICATION ( '', '', #339 ) ;
#292 = CC_DESIGN_DATE_AND_TIME_ASSIGNMENT ( #136, #374, ( #291 ) ) ;
#293 = AXIS2_PLACEMENT_3D ( 'NONE', #363, #385, #334 ) ;
#294 = CC_DESIGN_APPROVAL ( #305, ( #291 ) ) ;
#295 = PRODUCT_DEFINITION ( 'UNKNOWN', '', #301, #396 ) ;
#296 = CC_DESIGN_APPROVAL ( #289, ( #301 ) ) ;
#297 = CC_DESIGN_SECURITY_CLASSIFICATION ( #291, ( #301 ) ) ;
#298 = CC_DESIGN_PERSON_AND_ORGANIZATION_ASSIGNMENT ( #141, #367, ( #301 ) ) ;
#299 = AXIS2_PLACEMENT_3D ( 'NONE', #345, #341, #348 ) ;
#300 = CC_DESIGN_PERSON_AND_ORGANIZATION_ASSIGNMENT ( #142, #324, ( #301 ) ) ;
#301 = PRODUCT_DEFINITION_FORMATION_WITH_SPECIFIED_SOURCE ( 'ANY', '', #4, .NOT_KNOWN. ) ;
#302 = CC_DESIGN_PERSON_AND_ORGANIZATION_ASSIGNMENT ( #162, #378, ( #4 ) ) ;
#303 = PRODUCT_RELATED_PRODUCT_CATEGORY ( 'detail', '', ( #4 ) ) ;
#304 = AXIS2_PLACEMENT_3D ( 'NONE', #330, #383, #335 ) ;
#305 = APPROVAL ( #359, 'UNSPECIFIED' ) ;
#306 = CC_DESIGN_DATE_AND_TIME_ASSIGNMENT ( #150, #307, ( #295 ) ) ;
#307 = DATE_TIME_ROLE ( 'creation_date' ) ;
#308 = DIRECTION ( 'NONE',  ( 0.0000000000000000000, 1.000000000000000000, 0.0000000000000000000 ) ) ;
#309 = CARTESIAN_POINT ( 'NONE',  ( 0.0000000000000000000, 12.69999999999999900, 0.0000000000000000000 ) ) ;
#310 = PLANE ( 'NONE',  #391 ) ;
#311 = CARTESIAN_POINT ( 'NONE',  ( -45.00000000000000000, 0.0000000000000000000, 4.000000000000011500 ) ) ;
#312 = DIRECTION ( 'NONE',  ( 0.0000000000000000000, 1.000000000000000000, 0.0000000000000000000 ) ) ;
#313 = DIRECTION ( 'NONE',  ( 0.0000000000000000000, 0.0000000000000000000, 1.000000000000000000 ) ) ;
#314 = DIRECTION ( 'NONE',  ( 0.0000000000000000000, 0.0000000000000000000, 1.000000000000000000 ) ) ;
#315 = DIRECTION ( 'NONE',  ( 0.0000000000000000000, 0.0000000000000000000, 1.000000000000000000 ) ) ;
#316 = DIRECTION ( 'NONE',  ( -0.0000000000000000000, -1.000000000000000000, -0.0000000000000000000 ) ) ;
#317 = DIRECTION ( 'NONE',  ( 0.0000000000000000000, 1.000000000000000000, 0.0000000000000000000 ) ) ;
#318 = CARTESIAN_POINT ( 'NONE',  ( 0.0000000000000000000, 12.69999999999999900, 0.0000000000000000000 ) ) ;
#319 = DIRECTION ( 'NONE',  ( 0.0000000000000000000, 0.0000000000000000000, 1.000000000000000000 ) ) ;
#320 = DIRECTION ( 'NONE',  ( 0.0000000000000000000, -0.0000000000000000000, 1.000000000000000000 ) ) ;
#321 = DIRECTION ( 'NONE',  ( 0.0000000000000000000, 1.000000000000000000, -0.0000000000000000000 ) ) ;
#322 = DIRECTION ( 'NONE',  ( 0.0000000000000000000, 0.0000000000000000000, 1.000000000000000000 ) ) ;
#323 = CARTESIAN_POINT ( 'NONE',  ( -45.00000000000000000, 0.0000000000000000000, 5.510910596163089600E-015 ) ) ;
#324 = PERSON_AND_ORGANIZATION_ROLE ( 'creator' ) ;
#325 = DIRECTION ( 'NONE',  ( -0.0000000000000000000, 1.000000000000000000, -0.0000000000000000000 ) ) ;
#326 = CARTESIAN_POINT ( 'NONE',  ( 45.00000000000000000, 0.0000000000000000000, 0.0000000000000000000 ) ) ;
#327 = DIRECTION ( 'NONE',  ( 0.0000000000000000000, 1.000000000000000000, 0.0000000000000000000 ) ) ;
#328 = DIRECTION ( 'NONE',  ( 0.0000000000000000000, 1.000000000000000000, -0.0000000000000000000 ) ) ;
#329 = DIRECTION ( 'NONE',  ( 0.0000000000000000000, 0.0000000000000000000, 1.000000000000000000 ) ) ;
#330 = CARTESIAN_POINT ( 'NONE',  ( -45.00000000000000000, 0.0000000000000000000, 5.510910596163089600E-015 ) ) ;
#331 =( NAMED_UNIT ( * ) SI_UNIT ( $, .STERADIAN. ) SOLID_ANGLE_UNIT ( ) );
#332 = CARTESIAN_POINT ( 'NONE',  ( 45.00000000000000000, 0.0000000000000000000, -4.000000000000006200 ) ) ;
#333 = DIRECTION ( 'NONE',  ( -0.0000000000000000000, 1.000000000000000000, -0.0000000000000000000 ) ) ;
#334 = DIRECTION ( 'NONE',  ( 0.0000000000000000000, 0.0000000000000000000, -1.000000000000000000 ) ) ;
#335 = DIRECTION ( 'NONE',  ( 0.0000000000000000000, 0.0000000000000000000, 1.000000000000000000 ) ) ;
#336 = PERSON_AND_ORGANIZATION_ROLE ( 'classification_officer' ) ;
#337 = CARTESIAN_POINT ( 'NONE',  ( 45.00000000000000000, 0.0000000000000000000, 0.0000000000000000000 ) ) ;
#338 = DIRECTION ( 'NONE',  ( 0.0000000000000000000, 0.0000000000000000000, 1.000000000000000000 ) ) ;
#339 = SECURITY_CLASSIFICATION_LEVEL ( 'unclassified' ) ;
#340 = APPLICATION_PROTOCOL_DEFINITION ( 'international standard', 'config_control_design', 1994, #382 ) ;
#341 = DIRECTION ( 'NONE',  ( -0.0000000000000000000, -1.000000000000000000, -0.0000000000000000000 ) ) ;
#342 = DIRECTION ( 'NONE',  ( 0.0000000000000000000, 0.0000000000000000000, 1.000000000000000000 ) ) ;
#343 = DIRECTION ( 'NONE',  ( -0.0000000000000000000, 1.000000000000000000, -0.0000000000000000000 ) ) ;
#344 =( LENGTH_UNIT ( ) NAMED_UNIT ( * ) SI_UNIT ( .MILLI., .METRE. ) );
#345 = CARTESIAN_POINT ( 'NONE',  ( 0.0000000000000000000, 12.69999999999999900, 0.0000000000000000000 ) ) ;
#346 = DIRECTION ( 'NONE',  ( -0.0000000000000000000, 1.000000000000000000, -0.0000000000000000000 ) ) ;
#347 = CARTESIAN_POINT ( 'NONE',  ( 0.0000000000000000000, 12.69999999999999900, 0.0000000000000000000 ) ) ;
#348 = DIRECTION ( 'NONE',  ( 0.0000000000000000000, 0.0000000000000000000, -1.000000000000000000 ) ) ;
#349 = CARTESIAN_POINT ( 'NONE',  ( 0.0000000000000000000, 0.0000000000000000000, 0.0000000000000000000 ) ) ;
#350 = DIRECTION ( 'NONE',  ( 0.0000000000000000000, 0.0000000000000000000, 1.000000000000000000 ) ) ;
#351 = CARTESIAN_POINT ( 'NONE',  ( 0.0000000000000000000, 0.0000000000000000000, 0.0000000000000000000 ) ) ;
#352 = DIRECTION ( 'NONE',  ( 0.0000000000000000000, 0.0000000000000000000, -1.000000000000000000 ) ) ;
#353 = DIRECTION ( 'NONE',  ( 0.0000000000000000000, 0.0000000000000000000, -1.000000000000000000 ) ) ;
#354 = DIRECTION ( 'NONE',  ( -0.0000000000000000000, 1.000000000000000000, -0.0000000000000000000 ) ) ;
#355 = CARTESIAN_POINT ( 'NONE',  ( 0.0000000000000000000, 12.69999999999999900, 0.0000000000000000000 ) ) ;
#356 = PERSON_AND_ORGANIZATION_ROLE ( 'creator' ) ;
#357 = DIRECTION ( 'NONE',  ( 0.0000000000000000000, 0.0000000000000000000, 1.000000000000000000 ) ) ;
#358 = DIRECTION ( 'NONE',  ( 0.0000000000000000000, 1.000000000000000000, -0.0000000000000000000 ) ) ;
#359 = APPROVAL_STATUS ( 'not_yet_approved' ) ;
#360 = MECHANICAL_CONTEXT ( 'NONE', #377, 'mechanical' ) ;
#361 = PLANE ( 'NONE',  #263 ) ;
#362 = DIRECTION ( 'NONE',  ( 0.0000000000000000000, 1.000000000000000000, 0.0000000000000000000 ) ) ;
#363 = CARTESIAN_POINT ( 'NONE',  ( 0.0000000000000000000, 12.69999999999999900, 0.0000000000000000000 ) ) ;
#364 = APPROVAL_STATUS ( 'not_yet_approved' ) ;
#365 = CARTESIAN_POINT ( 'NONE',  ( 0.0000000000000000000, 12.69999999999999900, -16.00000000000000000 ) ) ;
#366 = DIRECTION ( 'NONE',  ( -0.0000000000000000000, 1.000000000000000000, -0.0000000000000000000 ) ) ;
#367 = PERSON_AND_ORGANIZATION_ROLE ( 'design_supplier' ) ;
#368 = CARTESIAN_POINT ( 'NONE',  ( 0.0000000000000000000, 12.69999999999999900, 0.0000000000000000000 ) ) ;
#369 = APPROVAL_ROLE ( '' ) ;
#370 = DIRECTION ( 'NONE',  ( -0.0000000000000000000, -1.000000000000000000, -0.0000000000000000000 ) ) ;
#371 = DIRECTION ( 'NONE',  ( -0.0000000000000000000, -1.000000000000000000, -0.0000000000000000000 ) ) ;
#372 = APPROVAL_STATUS ( 'not_yet_approved' ) ;
#373 = CARTESIAN_POINT ( 'NONE',  ( 45.00000000000000000, 0.0000000000000000000, 4.000000000000006200 ) ) ;
#374 = DATE_TIME_ROLE ( 'classification_date' ) ;
#375 = CARTESIAN_POINT ( 'NONE',  ( -45.00000000000000000, 0.0000000000000000000, 5.510910596163089600E-015 ) ) ;
#376 = APPROVAL_ROLE ( '' ) ;
#377 = APPLICATION_CONTEXT ( 'configuration controlled 3d designs of mechanical parts and assemblies' ) ;
#378 = PERSON_AND_ORGANIZATION_ROLE ( 'design_owner' ) ;
#379 = DIRECTION ( 'NONE',  ( 1.000000000000000000, 0.0000000000000000000, 0.0000000000000000000 ) ) ;
#380 = APPROVAL_ROLE ( '' ) ;
#381 =( NAMED_UNIT ( * ) PLANE_ANGLE_UNIT ( ) SI_UNIT ( $, .RADIAN. ) );
#382 = APPLICATION_CONTEXT ( 'configuration controlled 3d designs of mechanical parts and assemblies' ) ;
#383 = DIRECTION ( 'NONE',  ( -0.0000000000000000000, 1.000000000000000000, -0.0000000000000000000 ) ) ;
#384 = CARTESIAN_POINT ( 'NONE',  ( 0.0000000000000000000, 0.0000000000000000000, 0.0000000000000000000 ) ) ;
#385 = DIRECTION ( 'NONE',  ( -0.0000000000000000000, -1.000000000000000000, -0.0000000000000000000 ) ) ;
#386 = DIRECTION ( 'NONE',  ( 0.0000000000000000000, -0.0000000000000000000, 1.000000000000000000 ) ) ;
#387 = APPLICATION_PROTOCOL_DEFINITION ( 'international standard', 'config_control_design', 1994, #377 ) ;
#388 = AXIS2_PLACEMENT_3D ( 'NONE', #347, #308, #342 ) ;
#389 = AXIS2_PLACEMENT_3D ( 'NONE', #375, #328, #322 ) ;
#390 = AXIS2_PLACEMENT_3D ( 'NONE', #323, #343, #319 ) ;
#391 = AXIS2_PLACEMENT_3D ( 'NONE', #318, #312, #386 ) ;
#392 = AXIS2_PLACEMENT_3D ( 'NONE', #384, #327, #313 ) ;
#393 = AXIS2_PLACEMENT_3D ( 'NONE', #326, #333, #357 ) ;
#394 = AXIS2_PLACEMENT_3D ( 'NONE', #351, #338, #379 ) ;
#395 = AXIS2_PLACEMENT_3D ( 'NONE', #368, #370, #353 ) ;
#396 = DESIGN_CONTEXT ( 'detailed design', #382, 'design' ) ;
#397 = PRODUCT_DEFINITION_SHAPE ( 'NONE', 'NONE',  #295 ) ;
ENDSEC;
END-ISO-10303-21;
