ISO-10303-21;
HEADER;
FILE_DESCRIPTION (( 'STEP AP203' ),
    '1' );
FILE_NAME ('SupportThrustWasher.STEP',
    '2012-05-21T23:11:21',
    ( '' ),
    ( '' ),
    'SwSTEP 2.0',
    'SolidWorks 2010',
    '' );
FILE_SCHEMA (( 'CONFIG_CONTROL_DESIGN' ));
ENDSEC;

DATA;
#1 = CARTESIAN_POINT ( 'NONE',  ( 30.00000000000000000, 3.673940397442059200E-015, 4.000000000000000000 ) ) ;
#2 = DIRECTION ( 'NONE',  ( 0.0000000000000000000, 0.0000000000000000000, 1.000000000000000000 ) ) ;
#3 = CARTESIAN_POINT ( 'NONE',  ( 0.0000000000000000000, 0.0000000000000000000, 4.000000000000000000 ) ) ;
#4 = DIRECTION ( 'NONE',  ( 1.000000000000000000, 0.0000000000000000000, 0.0000000000000000000 ) ) ;
#5 = CARTESIAN_POINT ( 'NONE',  ( 0.0000000000000000000, 0.0000000000000000000, 0.0000000000000000000 ) ) ;
#6 = PLANE ( 'NONE',  #244 ) ;
#7 = DIRECTION ( 'NONE',  ( -1.000000000000000000, 0.0000000000000000000, 0.0000000000000000000 ) ) ;
#8 = CARTESIAN_POINT ( 'NONE',  ( 0.0000000000000000000, 0.0000000000000000000, 0.0000000000000000000 ) ) ;
#9 = DIRECTION ( 'NONE',  ( -0.0000000000000000000, -0.0000000000000000000, -1.000000000000000000 ) ) ;
#10 = DIRECTION ( 'NONE',  ( -0.0000000000000000000, -0.0000000000000000000, -1.000000000000000000 ) ) ;
#11 = DIRECTION ( 'NONE',  ( 1.000000000000000000, 0.0000000000000000000, 0.0000000000000000000 ) ) ;
#12 = CARTESIAN_POINT ( 'NONE',  ( 30.00000000000000000, 3.673940397442059200E-015, 4.000000000000000000 ) ) ;
#13 = DIRECTION ( 'NONE',  ( 1.000000000000000000, 0.0000000000000000000, 0.0000000000000000000 ) ) ;
#14 = CARTESIAN_POINT ( 'NONE',  ( 0.0000000000000000000, 0.0000000000000000000, 4.000000000000000000 ) ) ;
#15 = VERTEX_POINT ( 'NONE', #35 ) ;
#16 = VERTEX_POINT ( 'NONE', #31 ) ;
#17 = DIRECTION ( 'NONE',  ( 1.000000000000000000, 0.0000000000000000000, 0.0000000000000000000 ) ) ;
#18 = VERTEX_POINT ( 'NONE', #68 ) ;
#19 = CARTESIAN_POINT ( 'NONE',  ( 0.0000000000000000000, 0.0000000000000000000, 4.000000000000000000 ) ) ;
#20 = DIRECTION ( 'NONE',  ( 1.000000000000000000, 0.0000000000000000000, -0.0000000000000000000 ) ) ;
#21 = CARTESIAN_POINT ( 'NONE',  ( 0.0000000000000000000, 0.0000000000000000000, 4.000000000000000000 ) ) ;
#22 = DIRECTION ( 'NONE',  ( 0.0000000000000000000, 0.0000000000000000000, 1.000000000000000000 ) ) ;
#23 = VERTEX_POINT ( 'NONE', #54 ) ;
#24 = DIRECTION ( 'NONE',  ( -0.0000000000000000000, -0.0000000000000000000, -1.000000000000000000 ) ) ;
#25 = DIRECTION ( 'NONE',  ( 1.000000000000000000, 0.0000000000000000000, 0.0000000000000000000 ) ) ;
#26 = DIRECTION ( 'NONE',  ( 1.000000000000000000, 0.0000000000000000000, 0.0000000000000000000 ) ) ;
#27 = CARTESIAN_POINT ( 'NONE',  ( -30.00000000000000000, 0.0000000000000000000, 0.0000000000000000000 ) ) ;
#28 = DIRECTION ( 'NONE',  ( -1.000000000000000000, 0.0000000000000000000, 0.0000000000000000000 ) ) ;
#29 = PLANE ( 'NONE',  #216 ) ;
#30 = DIRECTION ( 'NONE',  ( -1.000000000000000000, 0.0000000000000000000, 0.0000000000000000000 ) ) ;
#31 = CARTESIAN_POINT ( 'NONE',  ( -17.50000000000001400, 0.0000000000000000000, 0.0000000000000000000 ) ) ;
#32 = CARTESIAN_POINT ( 'NONE',  ( 17.50000000000001400, 2.143131898507869800E-015, 4.000000000000000000 ) ) ;
#33 = CARTESIAN_POINT ( 'NONE',  ( -17.50000000000001400, 0.0000000000000000000, 4.000000000000000000 ) ) ;
#34 = VERTEX_POINT ( 'NONE', #33 ) ;
#35 = CARTESIAN_POINT ( 'NONE',  ( 30.00000000000000000, 3.673940397442059200E-015, 0.0000000000000000000 ) ) ;
#36 = DIRECTION ( 'NONE',  ( 0.0000000000000000000, 0.0000000000000000000, 1.000000000000000000 ) ) ;
#37 = CARTESIAN_POINT ( 'NONE',  ( -30.00000000000000000, 0.0000000000000000000, 4.000000000000000000 ) ) ;
#38 = CARTESIAN_POINT ( 'NONE',  ( 0.0000000000000000000, 0.0000000000000000000, 4.000000000000000000 ) ) ;
#39 = CARTESIAN_POINT ( 'NONE',  ( 0.0000000000000000000, 0.0000000000000000000, 0.0000000000000000000 ) ) ;
#40 =( NAMED_UNIT ( * ) SI_UNIT ( $, .STERADIAN. ) SOLID_ANGLE_UNIT ( ) );
#41 = CARTESIAN_POINT ( 'NONE',  ( 0.0000000000000000000, 0.0000000000000000000, 4.000000000000000000 ) ) ;
#42 = CARTESIAN_POINT ( 'NONE',  ( 0.0000000000000000000, 0.0000000000000000000, 4.000000000000000000 ) ) ;
#43 = DIRECTION ( 'NONE',  ( -0.0000000000000000000, -0.0000000000000000000, -1.000000000000000000 ) ) ;
#44 = VERTEX_POINT ( 'NONE', #32 ) ;
#45 = DIRECTION ( 'NONE',  ( 0.0000000000000000000, 0.0000000000000000000, 1.000000000000000000 ) ) ;
#46 = CARTESIAN_POINT ( 'NONE',  ( 0.0000000000000000000, 0.0000000000000000000, 0.0000000000000000000 ) ) ;
#47 = DIRECTION ( 'NONE',  ( -0.0000000000000000000, -0.0000000000000000000, -1.000000000000000000 ) ) ;
#48 = CARTESIAN_POINT ( 'NONE',  ( 17.50000000000001400, 2.143131898507869800E-015, 4.000000000000000000 ) ) ;
#49 = CARTESIAN_POINT ( 'NONE',  ( 0.0000000000000000000, 0.0000000000000000000, 4.000000000000000000 ) ) ;
#50 = DIRECTION ( 'NONE',  ( 1.000000000000000000, 0.0000000000000000000, -0.0000000000000000000 ) ) ;
#51 = DIRECTION ( 'NONE',  ( 0.0000000000000000000, 0.0000000000000000000, 1.000000000000000000 ) ) ;
#52 = DIRECTION ( 'NONE',  ( -1.000000000000000000, 0.0000000000000000000, 0.0000000000000000000 ) ) ;
#53 = CARTESIAN_POINT ( 'NONE',  ( 0.0000000000000000000, 0.0000000000000000000, 4.000000000000000000 ) ) ;
#54 = CARTESIAN_POINT ( 'NONE',  ( -30.00000000000000000, 0.0000000000000000000, 4.000000000000000000 ) ) ;
#55 = VERTEX_POINT ( 'NONE', #27 ) ;
#56 = DIRECTION ( 'NONE',  ( -0.0000000000000000000, -0.0000000000000000000, -1.000000000000000000 ) ) ;
#57 = DIRECTION ( 'NONE',  ( -0.0000000000000000000, -0.0000000000000000000, -1.000000000000000000 ) ) ;
#58 = DIRECTION ( 'NONE',  ( 0.0000000000000000000, 0.0000000000000000000, 1.000000000000000000 ) ) ;
#59 = DIRECTION ( 'NONE',  ( 1.000000000000000000, 0.0000000000000000000, 0.0000000000000000000 ) ) ;
#60 = CARTESIAN_POINT ( 'NONE',  ( 0.0000000000000000000, 0.0000000000000000000, 0.0000000000000000000 ) ) ;
#61 = DIRECTION ( 'NONE',  ( 0.0000000000000000000, 0.0000000000000000000, 1.000000000000000000 ) ) ;
#62 =( NAMED_UNIT ( * ) PLANE_ANGLE_UNIT ( ) SI_UNIT ( $, .RADIAN. ) );
#63 = VERTEX_POINT ( 'NONE', #12 ) ;
#64 = DIRECTION ( 'NONE',  ( 0.0000000000000000000, 0.0000000000000000000, 1.000000000000000000 ) ) ;
#65 = DIRECTION ( 'NONE',  ( -0.0000000000000000000, -0.0000000000000000000, -1.000000000000000000 ) ) ;
#66 = CARTESIAN_POINT ( 'NONE',  ( -17.50000000000001400, 0.0000000000000000000, 4.000000000000000000 ) ) ;
#67 = DIRECTION ( 'NONE',  ( 0.0000000000000000000, 0.0000000000000000000, 1.000000000000000000 ) ) ;
#68 = CARTESIAN_POINT ( 'NONE',  ( 17.50000000000001400, 2.143131898507869800E-015, 0.0000000000000000000 ) ) ;
#69 = DIRECTION ( 'NONE',  ( 0.0000000000000000000, 0.0000000000000000000, 1.000000000000000000 ) ) ;
#70 = DIRECTION ( 'NONE',  ( 1.000000000000000000, 0.0000000000000000000, 0.0000000000000000000 ) ) ;
#71 =( LENGTH_UNIT ( ) NAMED_UNIT ( * ) SI_UNIT ( .MILLI., .METRE. ) );
#72 = CARTESIAN_POINT ( 'NONE',  ( 0.0000000000000000000, 0.0000000000000000000, 0.0000000000000000000 ) ) ;
#73 = DIRECTION ( 'NONE',  ( 0.0000000000000000000, 0.0000000000000000000, 1.000000000000000000 ) ) ;
#74 = DIRECTION ( 'NONE',  ( 1.000000000000000000, 0.0000000000000000000, 0.0000000000000000000 ) ) ;
#75 = PERSON ( 'UNSPECIFIED', 'UNSPECIFIED', 'UNSPECIFIED', ('UNSPECIFIED'), ('UNSPECIFIED'), ('UNSPECIFIED') ) ;
#76 = PRODUCT ( 'SupportThrustWasher', 'SupportThrustWasher', '', ( #99 ) ) ;
#77 = DESIGN_CONTEXT ( 'detailed design', #91, 'design' ) ;
#78 = PRODUCT_DEFINITION_SHAPE ( 'NONE', 'NONE',  #209 ) ;
#79 = ADVANCED_BREP_SHAPE_REPRESENTATION ( 'SupportThrustWasher', ( #80, #207 ), #155 ) ;
#80 = MANIFOLD_SOLID_BREP ( 'Boss-Extrude1', #171 ) ;
#81 = UNCERTAINTY_MEASURE_WITH_UNIT (LENGTH_MEASURE( 1.000000000000000100E-005 ), #71, 'distance_accuracy_value', 'NONE');
#82 = APPROVAL_STATUS ( 'not_yet_approved' ) ;
#83 = APPROVAL_ROLE ( '' ) ;
#84 = PERSON_AND_ORGANIZATION_ROLE ( 'design_supplier' ) ;
#85 = APPROVAL_ROLE ( '' ) ;
#86 = APPROVAL_STATUS ( 'not_yet_approved' ) ;
#87 = DATE_TIME_ROLE ( 'classification_date' ) ;
#88 = PERSON_AND_ORGANIZATION_ROLE ( 'creator' ) ;
#89 = PERSON_AND_ORGANIZATION_ROLE ( 'design_owner' ) ;
#90 = APPROVAL_ROLE ( '' ) ;
#91 = APPLICATION_CONTEXT ( 'configuration controlled 3d designs of mechanical parts and assemblies' ) ;
#92 = SECURITY_CLASSIFICATION_LEVEL ( 'unclassified' ) ;
#93 = PERSON_AND_ORGANIZATION_ROLE ( 'creator' ) ;
#94 = APPLICATION_PROTOCOL_DEFINITION ( 'international standard', 'config_control_design', 1994, #91 ) ;
#95 = APPROVAL_STATUS ( 'not_yet_approved' ) ;
#96 = PERSON_AND_ORGANIZATION_ROLE ( 'classification_officer' ) ;
#97 = APPLICATION_PROTOCOL_DEFINITION ( 'international standard', 'config_control_design', 1994, #100 ) ;
#98 = DATE_TIME_ROLE ( 'creation_date' ) ;
#99 = MECHANICAL_CONTEXT ( 'NONE', #100, 'mechanical' ) ;
#100 = APPLICATION_CONTEXT ( 'configuration controlled 3d designs of mechanical parts and assemblies' ) ;
#101 = LINE ( 'NONE', #48, #116 ) ;
#102 = VECTOR ( 'NONE', #65, 1000.000000000000000 ) ;
#103 = CIRCLE ( 'NONE', #248, 17.50000000000001400 ) ;
#104 = FACE_BOUND ( 'NONE', #172, .T. ) ;
#105 = CIRCLE ( 'NONE', #242, 30.00000000000000000 ) ;
#106 = LINE ( 'NONE', #37, #114 ) ;
#107 = CIRCLE ( 'NONE', #212, 17.50000000000001400 ) ;
#108 = CIRCLE ( 'NONE', #213, 30.00000000000000000 ) ;
#109 = LINE ( 'NONE', #66, #102 ) ;
#110 = VECTOR ( 'NONE', #10, 1000.000000000000000 ) ;
#111 = CIRCLE ( 'NONE', #247, 30.00000000000000000 ) ;
#112 = CYLINDRICAL_SURFACE ( 'NONE', #214, 17.50000000000001400 ) ;
#113 = LINE ( 'NONE', #1, #110 ) ;
#114 = VECTOR ( 'NONE', #47, 1000.000000000000000 ) ;
#115 = CIRCLE ( 'NONE', #233, 17.50000000000001400 ) ;
#116 = VECTOR ( 'NONE', #9, 1000.000000000000000 ) ;
#117 = FACE_OUTER_BOUND ( 'NONE', #164, .T. ) ;
#118 = CIRCLE ( 'NONE', #245, 17.50000000000001400 ) ;
#119 = COORDINATED_UNIVERSAL_TIME_OFFSET ( 6, 0, .BEHIND. ) ;
#120 = DATE_AND_TIME ( #142, #143 ) ;
#121 = PERSON_AND_ORGANIZATION ( #75, #153 ) ;
#122 = APPROVAL_DATE_TIME ( #123, #243 ) ;
#123 = DATE_AND_TIME ( #124, #125 ) ;
#124 = CALENDAR_DATE ( 2012, 21, 5 ) ;
#125 = LOCAL_TIME ( 18, 11, 21.00000000000000000, #126 ) ;
#126 = COORDINATED_UNIVERSAL_TIME_OFFSET ( 6, 0, .BEHIND. ) ;
#127 = APPROVAL_PERSON_ORGANIZATION ( #128, #243, #83 ) ;
#128 = PERSON_AND_ORGANIZATION ( #75, #153 ) ;
#129 = DATE_AND_TIME ( #130, #131 ) ;
#130 = CALENDAR_DATE ( 2012, 21, 5 ) ;
#131 = LOCAL_TIME ( 18, 11, 21.00000000000000000, #119 ) ;
#132 = PERSON_AND_ORGANIZATION ( #75, #153 ) ;
#133 = PERSON_AND_ORGANIZATION ( #75, #153 ) ;
#134 = PERSON_AND_ORGANIZATION ( #75, #153 ) ;
#135 = APPROVAL_DATE_TIME ( #136, #230 ) ;
#136 = DATE_AND_TIME ( #137, #138 ) ;
#137 = CALENDAR_DATE ( 2012, 21, 5 ) ;
#138 = LOCAL_TIME ( 18, 11, 21.00000000000000000, #139 ) ;
#139 = COORDINATED_UNIVERSAL_TIME_OFFSET ( 6, 0, .BEHIND. ) ;
#140 = APPROVAL_PERSON_ORGANIZATION ( #141, #230, #90 ) ;
#141 = PERSON_AND_ORGANIZATION ( #75, #153 ) ;
#142 = CALENDAR_DATE ( 2012, 21, 5 ) ;
#143 = LOCAL_TIME ( 18, 11, 21.00000000000000000, #144 ) ;
#144 = COORDINATED_UNIVERSAL_TIME_OFFSET ( 6, 0, .BEHIND. ) ;
#145 = PERSON_AND_ORGANIZATION ( #75, #153 ) ;
#146 = APPROVAL_DATE_TIME ( #147, #208 ) ;
#147 = DATE_AND_TIME ( #148, #149 ) ;
#148 = CALENDAR_DATE ( 2012, 21, 5 ) ;
#149 = LOCAL_TIME ( 18, 11, 21.00000000000000000, #150 ) ;
#150 = COORDINATED_UNIVERSAL_TIME_OFFSET ( 6, 0, .BEHIND. ) ;
#151 = APPROVAL_PERSON_ORGANIZATION ( #121, #208, #85 ) ;
#152 = PERSON_AND_ORGANIZATION ( #75, #153 ) ;
#153 = ORGANIZATION ( 'UNSPECIFIED', 'UNSPECIFIED', '' ) ;
#154 = SHAPE_DEFINITION_REPRESENTATION ( #78, #79 ) ;
#155 =( GEOMETRIC_REPRESENTATION_CONTEXT ( 3 ) GLOBAL_UNCERTAINTY_ASSIGNED_CONTEXT ( ( #81 ) ) GLOBAL_UNIT_ASSIGNED_CONTEXT ( ( #71, #62, #40 ) ) REPRESENTATION_CONTEXT ( 'NONE', 'WORKASPACE' ) );
#156 = CIRCLE ( 'NONE', #205, 30.00000000000000000 ) ;
#157 = ADVANCED_FACE ( 'NONE', ( #184 ), #165, .T. ) ;
#158 = ADVANCED_FACE ( 'NONE', ( #163 ), #202, .F. ) ;
#159 = ADVANCED_FACE ( 'NONE', ( #169, #181 ), #29, .F. ) ;
#160 = ADVANCED_FACE ( 'NONE', ( #198 ), #182, .T. ) ;
#161 = ADVANCED_FACE ( 'NONE', ( #203 ), #112, .F. ) ;
#162 = ADVANCED_FACE ( 'NONE', ( #117, #104 ), #6, .T. ) ;
#163 = FACE_OUTER_BOUND ( 'NONE', #176, .T. ) ;
#164 = EDGE_LOOP ( 'NONE', ( #178, #168 ) ) ;
#165 = CYLINDRICAL_SURFACE ( 'NONE', #226, 30.00000000000000000 ) ;
#166 = ORIENTED_EDGE ( 'NONE', *, *, #222, .F. ) ;
#167 = ORIENTED_EDGE ( 'NONE', *, *, #239, .T. ) ;
#168 = ORIENTED_EDGE ( 'NONE', *, *, #231, .T. ) ;
#169 = FACE_OUTER_BOUND ( 'NONE', #192, .T. ) ;
#170 = ORIENTED_EDGE ( 'NONE', *, *, #221, .F. ) ;
#171 = CLOSED_SHELL ( 'NONE', ( #158, #157, #162, #159, #160, #161 ) ) ;
#172 = EDGE_LOOP ( 'NONE', ( #188, #175 ) ) ;
#173 = ORIENTED_EDGE ( 'NONE', *, *, #218, .T. ) ;
#174 = ORIENTED_EDGE ( 'NONE', *, *, #217, .T. ) ;
#175 = ORIENTED_EDGE ( 'NONE', *, *, #217, .F. ) ;
#176 = EDGE_LOOP ( 'NONE', ( #193, #199, #187, #186 ) ) ;
#177 = ORIENTED_EDGE ( 'NONE', *, *, #219, .T. ) ;
#178 = ORIENTED_EDGE ( 'NONE', *, *, #215, .T. ) ;
#179 = EDGE_LOOP ( 'NONE', ( #195, #174, #167, #196 ) ) ;
#180 = ORIENTED_EDGE ( 'NONE', *, *, #218, .F. ) ;
#181 = FACE_BOUND ( 'NONE', #191, .T. ) ;
#182 = CYLINDRICAL_SURFACE ( 'NONE', #211, 30.00000000000000000 ) ;
#183 = EDGE_LOOP ( 'NONE', ( #200, #185, #197, #180 ) ) ;
#184 = FACE_OUTER_BOUND ( 'NONE', #183, .T. ) ;
#185 = ORIENTED_EDGE ( 'NONE', *, *, #221, .T. ) ;
#186 = ORIENTED_EDGE ( 'NONE', *, *, #239, .F. ) ;
#187 = ORIENTED_EDGE ( 'NONE', *, *, #228, .F. ) ;
#188 = ORIENTED_EDGE ( 'NONE', *, *, #234, .F. ) ;
#189 = EDGE_LOOP ( 'NONE', ( #170, #201, #173, #204 ) ) ;
#190 = ORIENTED_EDGE ( 'NONE', *, *, #246, .F. ) ;
#191 = EDGE_LOOP ( 'NONE', ( #194, #177 ) ) ;
#192 = EDGE_LOOP ( 'NONE', ( #190, #166 ) ) ;
#193 = ORIENTED_EDGE ( 'NONE', *, *, #234, .T. ) ;
#194 = ORIENTED_EDGE ( 'NONE', *, *, #228, .T. ) ;
#195 = ORIENTED_EDGE ( 'NONE', *, *, #220, .F. ) ;
#196 = ORIENTED_EDGE ( 'NONE', *, *, #219, .F. ) ;
#197 = ORIENTED_EDGE ( 'NONE', *, *, #222, .T. ) ;
#198 = FACE_OUTER_BOUND ( 'NONE', #189, .T. ) ;
#199 = ORIENTED_EDGE ( 'NONE', *, *, #220, .T. ) ;
#200 = ORIENTED_EDGE ( 'NONE', *, *, #231, .F. ) ;
#201 = ORIENTED_EDGE ( 'NONE', *, *, #215, .F. ) ;
#202 = CYLINDRICAL_SURFACE ( 'NONE', #229, 17.50000000000001400 ) ;
#203 = FACE_OUTER_BOUND ( 'NONE', #179, .T. ) ;
#204 = ORIENTED_EDGE ( 'NONE', *, *, #246, .T. ) ;
#205 = AXIS2_PLACEMENT_3D ( 'NONE', #60, #73, #70 ) ;
#206 = CC_DESIGN_APPROVAL ( #208, ( #209 ) ) ;
#207 = AXIS2_PLACEMENT_3D ( 'NONE', #72, #69, #74 ) ;
#208 = APPROVAL ( #82, 'UNSPECIFIED' ) ;
#209 = PRODUCT_DEFINITION ( 'UNKNOWN', '', #225, #77 ) ;
#210 = CC_DESIGN_PERSON_AND_ORGANIZATION_ASSIGNMENT ( #152, #89, ( #76 ) ) ;
#211 = AXIS2_PLACEMENT_3D ( 'NONE', #21, #57, #28 ) ;
#212 = AXIS2_PLACEMENT_3D ( 'NONE', #3, #67, #4 ) ;
#213 = AXIS2_PLACEMENT_3D ( 'NONE', #14, #61, #25 ) ;
#214 = AXIS2_PLACEMENT_3D ( 'NONE', #38, #24, #7 ) ;
#215 = EDGE_CURVE ( 'NONE', #23, #63, #105, .T. ) ;
#216 = AXIS2_PLACEMENT_3D ( 'NONE', #39, #64, #20 ) ;
#217 = EDGE_CURVE ( 'NONE', #44, #34, #103, .T. ) ;
#218 = EDGE_CURVE ( 'NONE', #23, #55, #106, .T. ) ;
#219 = EDGE_CURVE ( 'NONE', #18, #16, #118, .T. ) ;
#220 = EDGE_CURVE ( 'NONE', #44, #18, #101, .T. ) ;
#221 = EDGE_CURVE ( 'NONE', #63, #15, #113, .T. ) ;
#222 = EDGE_CURVE ( 'NONE', #15, #55, #111, .T. ) ;
#223 = CC_DESIGN_PERSON_AND_ORGANIZATION_ASSIGNMENT ( #145, #93, ( #209 ) ) ;
#224 = CC_DESIGN_DATE_AND_TIME_ASSIGNMENT ( #120, #98, ( #209 ) ) ;
#225 = PRODUCT_DEFINITION_FORMATION_WITH_SPECIFIED_SOURCE ( 'ANY', '', #76, .NOT_KNOWN. ) ;
#226 = AXIS2_PLACEMENT_3D ( 'NONE', #42, #43, #30 ) ;
#227 = CC_DESIGN_PERSON_AND_ORGANIZATION_ASSIGNMENT ( #134, #88, ( #225 ) ) ;
#228 = EDGE_CURVE ( 'NONE', #16, #18, #115, .T. ) ;
#229 = AXIS2_PLACEMENT_3D ( 'NONE', #53, #56, #52 ) ;
#230 = APPROVAL ( #86, 'UNSPECIFIED' ) ;
#231 = EDGE_CURVE ( 'NONE', #63, #23, #108, .T. ) ;
#232 = CC_DESIGN_APPROVAL ( #230, ( #225 ) ) ;
#233 = AXIS2_PLACEMENT_3D ( 'NONE', #8, #58, #59 ) ;
#234 = EDGE_CURVE ( 'NONE', #34, #44, #107, .T. ) ;
#235 = CC_DESIGN_SECURITY_CLASSIFICATION ( #237, ( #225 ) ) ;
#236 = CC_DESIGN_PERSON_AND_ORGANIZATION_ASSIGNMENT ( #133, #84, ( #225 ) ) ;
#237 = SECURITY_CLASSIFICATION ( '', '', #92 ) ;
#238 = CC_DESIGN_DATE_AND_TIME_ASSIGNMENT ( #129, #87, ( #237 ) ) ;
#239 = EDGE_CURVE ( 'NONE', #34, #16, #109, .T. ) ;
#240 = PRODUCT_RELATED_PRODUCT_CATEGORY ( 'detail', '', ( #76 ) ) ;
#241 = CC_DESIGN_APPROVAL ( #243, ( #237 ) ) ;
#242 = AXIS2_PLACEMENT_3D ( 'NONE', #19, #51, #17 ) ;
#243 = APPROVAL ( #95, 'UNSPECIFIED' ) ;
#244 = AXIS2_PLACEMENT_3D ( 'NONE', #41, #36, #50 ) ;
#245 = AXIS2_PLACEMENT_3D ( 'NONE', #46, #45, #13 ) ;
#246 = EDGE_CURVE ( 'NONE', #55, #15, #156, .T. ) ;
#247 = AXIS2_PLACEMENT_3D ( 'NONE', #5, #2, #11 ) ;
#248 = AXIS2_PLACEMENT_3D ( 'NONE', #49, #22, #26 ) ;
#249 = CC_DESIGN_PERSON_AND_ORGANIZATION_ASSIGNMENT ( #132, #96, ( #237 ) ) ;
ENDSEC;
END-ISO-10303-21;
