ISO-10303-21;
HEADER;
FILE_DESCRIPTION (( 'STEP AP203' ),
    '1' );
FILE_NAME ('SupportThrustWasher.STEP',
    '2012-05-26T01:03:38',
    ( '' ),
    ( '' ),
    'SwSTEP 2.0',
    'SolidWorks 2010',
    '' );
FILE_SCHEMA (( 'CONFIG_CONTROL_DESIGN' ));
ENDSEC;

DATA;
#1 = MANIFOLD_SOLID_BREP ( 'Boss-Extrude1', #60 ) ;
#2 = ADVANCED_BREP_SHAPE_REPRESENTATION ( 'SupportThrustWasher', ( #1, #233 ), #57 ) ;
#3 = UNCERTAINTY_MEASURE_WITH_UNIT (LENGTH_MEASURE( 1.000000000000000100E-005 ), #125, 'distance_accuracy_value', 'NONE');
#4 = EDGE_LOOP ( 'NONE', ( #68, #69 ) ) ;
#5 = ORIENTED_EDGE ( 'NONE', *, *, #211, .F. ) ;
#6 = ORIENTED_EDGE ( 'NONE', *, *, #213, .F. ) ;
#7 = DATE_AND_TIME ( #8, #9 ) ;
#8 = CALENDAR_DATE ( 2012, 25, 5 ) ;
#9 = LOCAL_TIME ( 20, 3, 38.00000000000000000, #10 ) ;
#10 = COORDINATED_UNIVERSAL_TIME_OFFSET ( 6, 0, .BEHIND. ) ;
#11 = APPROVAL_PERSON_ORGANIZATION ( #12, #225, #148 ) ;
#12 = PERSON_AND_ORGANIZATION ( #198, #58 ) ;
#13 = DATE_AND_TIME ( #14, #17 ) ;
#14 = CALENDAR_DATE ( 2012, 25, 5 ) ;
#15 = LOCAL_TIME ( 20, 3, 38.00000000000000000, #39 ) ;
#16 = ORIENTED_EDGE ( 'NONE', *, *, #242, .T. ) ;
#17 = LOCAL_TIME ( 20, 3, 38.00000000000000000, #18 ) ;
#18 = COORDINATED_UNIVERSAL_TIME_OFFSET ( 6, 0, .BEHIND. ) ;
#19 = PERSON_AND_ORGANIZATION ( #198, #58 ) ;
#20 = PERSON_AND_ORGANIZATION ( #198, #58 ) ;
#21 = PERSON_AND_ORGANIZATION ( #198, #58 ) ;
#22 = DATE_AND_TIME ( #24, #25 ) ;
#23 = APPROVAL_DATE_TIME ( #22, #212 ) ;
#24 = CALENDAR_DATE ( 2012, 25, 5 ) ;
#25 = LOCAL_TIME ( 20, 3, 38.00000000000000000, #26 ) ;
#26 = COORDINATED_UNIVERSAL_TIME_OFFSET ( 6, 0, .BEHIND. ) ;
#27 = APPROVAL_PERSON_ORGANIZATION ( #21, #212, #142 ) ;
#28 = DATE_AND_TIME ( #48, #29 ) ;
#29 = LOCAL_TIME ( 20, 3, 38.00000000000000000, #30 ) ;
#30 = COORDINATED_UNIVERSAL_TIME_OFFSET ( 6, 0, .BEHIND. ) ;
#31 = PERSON_AND_ORGANIZATION ( #198, #58 ) ;
#32 = APPROVAL_DATE_TIME ( #33, #202 ) ;
#33 = DATE_AND_TIME ( #34, #15 ) ;
#34 = CALENDAR_DATE ( 2012, 25, 5 ) ;
#35 = ORIENTED_EDGE ( 'NONE', *, *, #199, .T. ) ;
#36 = ORIENTED_EDGE ( 'NONE', *, *, #242, .F. ) ;
#37 = ORIENTED_EDGE ( 'NONE', *, *, #204, .T. ) ;
#38 = ORIENTED_EDGE ( 'NONE', *, *, #235, .F. ) ;
#39 = COORDINATED_UNIVERSAL_TIME_OFFSET ( 6, 0, .BEHIND. ) ;
#40 = EDGE_LOOP ( 'NONE', ( #52, #66, #44, #5 ) ) ;
#41 = EDGE_LOOP ( 'NONE', ( #49, #53, #36, #101 ) ) ;
#42 = ORIENTED_EDGE ( 'NONE', *, *, #232, .F. ) ;
#43 = EDGE_LOOP ( 'NONE', ( #6, #42, #98, #35 ) ) ;
#44 = ORIENTED_EDGE ( 'NONE', *, *, #216, .T. ) ;
#45 = ORIENTED_EDGE ( 'NONE', *, *, #204, .F. ) ;
#46 = APPROVAL_DATE_TIME ( #7, #225 ) ;
#47 = PERSON_AND_ORGANIZATION ( #198, #58 ) ;
#48 = CALENDAR_DATE ( 2012, 25, 5 ) ;
#49 = ORIENTED_EDGE ( 'NONE', *, *, #220, .T. ) ;
#50 = EDGE_LOOP ( 'NONE', ( #16, #65 ) ) ;
#51 = EDGE_LOOP ( 'NONE', ( #62, #45 ) ) ;
#52 = ORIENTED_EDGE ( 'NONE', *, *, #217, .F. ) ;
#53 = ORIENTED_EDGE ( 'NONE', *, *, #217, .T. ) ;
#54 = APPROVAL_PERSON_ORGANIZATION ( #55, #202, #140 ) ;
#55 = PERSON_AND_ORGANIZATION ( #198, #58 ) ;
#56 = PERSON_AND_ORGANIZATION ( #198, #58 ) ;
#57 =( GEOMETRIC_REPRESENTATION_CONTEXT ( 3 ) GLOBAL_UNCERTAINTY_ASSIGNED_CONTEXT ( ( #3 ) ) GLOBAL_UNIT_ASSIGNED_CONTEXT ( ( #125, #127, #110 ) ) REPRESENTATION_CONTEXT ( 'NONE', 'WORKASPACE' ) );
#58 = ORGANIZATION ( 'UNSPECIFIED', 'UNSPECIFIED', '' ) ;
#59 = SHAPE_DEFINITION_REPRESENTATION ( #196, #2 ) ;
#60 = CLOSED_SHELL ( 'NONE', ( #244, #249, #245, #248, #247, #246 ) ) ;
#61 = ORIENTED_EDGE ( 'NONE', *, *, #213, .T. ) ;
#62 = ORIENTED_EDGE ( 'NONE', *, *, #199, .F. ) ;
#63 = VECTOR ( 'NONE', #156, 1000.000000000000000 ) ;
#64 = CIRCLE ( 'NONE', #209, 16.00000000000000000 ) ;
#65 = ORIENTED_EDGE ( 'NONE', *, *, #211, .T. ) ;
#66 = ORIENTED_EDGE ( 'NONE', *, *, #243, .T. ) ;
#67 = ORIENTED_EDGE ( 'NONE', *, *, #214, .F. ) ;
#68 = ORIENTED_EDGE ( 'NONE', *, *, #232, .T. ) ;
#69 = ORIENTED_EDGE ( 'NONE', *, *, #235, .T. ) ;
#70 = CIRCLE ( 'NONE', #224, 16.00000000000000000 ) ;
#71 = LINE ( 'NONE', #177, #72 ) ;
#72 = VECTOR ( 'NONE', #152, 1000.000000000000000 ) ;
#73 = LINE ( 'NONE', #185, #74 ) ;
#74 = VECTOR ( 'NONE', #153, 1000.000000000000000 ) ;
#75 = ORIENTED_EDGE ( 'NONE', *, *, #220, .F. ) ;
#76 = ORIENTED_EDGE ( 'NONE', *, *, #243, .F. ) ;
#77 = LINE ( 'NONE', #162, #63 ) ;
#78 = CIRCLE ( 'NONE', #238, 38.10000000000000100 ) ;
#79 = CIRCLE ( 'NONE', #203, 38.10000000000000100 ) ;
#80 = LINE ( 'NONE', #176, #99 ) ;
#81 = FACE_OUTER_BOUND ( 'NONE', #41, .T. ) ;
#82 = CYLINDRICAL_SURFACE ( 'NONE', #236, 16.00000000000000000 ) ;
#83 = CIRCLE ( 'NONE', #219, 16.00000000000000000 ) ;
#84 = FACE_OUTER_BOUND ( 'NONE', #51, .T. ) ;
#85 = CIRCLE ( 'NONE', #221, 38.10000000000000100 ) ;
#86 = CIRCLE ( 'NONE', #223, 38.10000000000000100 ) ;
#87 = FACE_OUTER_BOUND ( 'NONE', #40, .T. ) ;
#88 = FACE_OUTER_BOUND ( 'NONE', #43, .T. ) ;
#89 = FACE_OUTER_BOUND ( 'NONE', #4, .T. ) ;
#90 = CIRCLE ( 'NONE', #215, 16.00000000000000000 ) ;
#91 = FACE_OUTER_BOUND ( 'NONE', #100, .T. ) ;
#92 = FACE_BOUND ( 'NONE', #97, .T. ) ;
#93 = CYLINDRICAL_SURFACE ( 'NONE', #234, 16.00000000000000000 ) ;
#94 = CYLINDRICAL_SURFACE ( 'NONE', #208, 38.10000000000000100 ) ;
#95 = CYLINDRICAL_SURFACE ( 'NONE', #205, 38.10000000000000100 ) ;
#96 = FACE_BOUND ( 'NONE', #50, .T. ) ;
#97 = EDGE_LOOP ( 'NONE', ( #75, #76 ) ) ;
#98 = ORIENTED_EDGE ( 'NONE', *, *, #214, .T. ) ;
#99 = VECTOR ( 'NONE', #150, 1000.000000000000000 ) ;
#100 = EDGE_LOOP ( 'NONE', ( #38, #61, #37, #67 ) ) ;
#101 = ORIENTED_EDGE ( 'NONE', *, *, #216, .F. ) ;
#102 = PERSON_AND_ORGANIZATION_ROLE ( 'creator' ) ;
#103 = APPLICATION_CONTEXT ( 'configuration controlled 3d designs of mechanical parts and assemblies' ) ;
#104 = PERSON_AND_ORGANIZATION_ROLE ( 'design_supplier' ) ;
#105 = APPROVAL_STATUS ( 'not_yet_approved' ) ;
#106 = SECURITY_CLASSIFICATION_LEVEL ( 'unclassified' ) ;
#107 = CARTESIAN_POINT ( 'NONE',  ( 0.0000000000000000000, 0.0000000000000000000, 5.000000000000000000 ) ) ;
#108 = PLANE ( 'NONE',  #241 ) ;
#109 = DIRECTION ( 'NONE',  ( -1.000000000000000000, 0.0000000000000000000, 0.0000000000000000000 ) ) ;
#110 =( NAMED_UNIT ( * ) SI_UNIT ( $, .STERADIAN. ) SOLID_ANGLE_UNIT ( ) );
#111 = CARTESIAN_POINT ( 'NONE',  ( 0.0000000000000000000, 0.0000000000000000000, 0.0000000000000000000 ) ) ;
#112 = DIRECTION ( 'NONE',  ( 0.0000000000000000000, 0.0000000000000000000, 1.000000000000000000 ) ) ;
#113 = DIRECTION ( 'NONE',  ( 1.000000000000000000, 0.0000000000000000000, 0.0000000000000000000 ) ) ;
#114 = DIRECTION ( 'NONE',  ( 1.000000000000000000, 0.0000000000000000000, 0.0000000000000000000 ) ) ;
#115 = DIRECTION ( 'NONE',  ( -0.0000000000000000000, -0.0000000000000000000, -1.000000000000000000 ) ) ;
#116 = DIRECTION ( 'NONE',  ( 0.0000000000000000000, 0.0000000000000000000, 1.000000000000000000 ) ) ;
#117 = DIRECTION ( 'NONE',  ( -1.000000000000000000, 0.0000000000000000000, 0.0000000000000000000 ) ) ;
#118 = CARTESIAN_POINT ( 'NONE',  ( 0.0000000000000000000, 0.0000000000000000000, 5.000000000000000000 ) ) ;
#119 = DIRECTION ( 'NONE',  ( 0.0000000000000000000, 0.0000000000000000000, 1.000000000000000000 ) ) ;
#120 = DIRECTION ( 'NONE',  ( 1.000000000000000000, 0.0000000000000000000, 0.0000000000000000000 ) ) ;
#121 = DIRECTION ( 'NONE',  ( 1.000000000000000000, 0.0000000000000000000, -0.0000000000000000000 ) ) ;
#122 = DIRECTION ( 'NONE',  ( 0.0000000000000000000, 0.0000000000000000000, 1.000000000000000000 ) ) ;
#123 = CARTESIAN_POINT ( 'NONE',  ( 0.0000000000000000000, 0.0000000000000000000, 5.000000000000000000 ) ) ;
#124 = DIRECTION ( 'NONE',  ( -0.0000000000000000000, -0.0000000000000000000, -1.000000000000000000 ) ) ;
#125 =( LENGTH_UNIT ( ) NAMED_UNIT ( * ) SI_UNIT ( .MILLI., .METRE. ) );
#126 = DIRECTION ( 'NONE',  ( 1.000000000000000000, 0.0000000000000000000, -0.0000000000000000000 ) ) ;
#127 =( NAMED_UNIT ( * ) PLANE_ANGLE_UNIT ( ) SI_UNIT ( $, .RADIAN. ) );
#128 = DIRECTION ( 'NONE',  ( 0.0000000000000000000, 0.0000000000000000000, 1.000000000000000000 ) ) ;
#129 = DIRECTION ( 'NONE',  ( -1.000000000000000000, 0.0000000000000000000, 0.0000000000000000000 ) ) ;
#130 = CARTESIAN_POINT ( 'NONE',  ( 0.0000000000000000000, 0.0000000000000000000, 5.000000000000000000 ) ) ;
#131 = DIRECTION ( 'NONE',  ( -0.0000000000000000000, -0.0000000000000000000, -1.000000000000000000 ) ) ;
#132 = DIRECTION ( 'NONE',  ( -1.000000000000000000, 0.0000000000000000000, 0.0000000000000000000 ) ) ;
#133 = DIRECTION ( 'NONE',  ( -0.0000000000000000000, -0.0000000000000000000, -1.000000000000000000 ) ) ;
#134 = CARTESIAN_POINT ( 'NONE',  ( 0.0000000000000000000, 0.0000000000000000000, 0.0000000000000000000 ) ) ;
#135 = CARTESIAN_POINT ( 'NONE',  ( 0.0000000000000000000, 0.0000000000000000000, 5.000000000000000000 ) ) ;
#136 = PLANE ( 'NONE',  #201 ) ;
#137 = APPLICATION_PROTOCOL_DEFINITION ( 'international standard', 'config_control_design', 1994, #103 ) ;
#138 = MECHANICAL_CONTEXT ( 'NONE', #103, 'mechanical' ) ;
#139 = PERSON_AND_ORGANIZATION_ROLE ( 'design_owner' ) ;
#140 = APPROVAL_ROLE ( '' ) ;
#141 = DATE_TIME_ROLE ( 'classification_date' ) ;
#142 = APPROVAL_ROLE ( '' ) ;
#143 = APPROVAL_STATUS ( 'not_yet_approved' ) ;
#144 = DATE_TIME_ROLE ( 'creation_date' ) ;
#145 = PERSON_AND_ORGANIZATION_ROLE ( 'creator' ) ;
#146 = APPROVAL_STATUS ( 'not_yet_approved' ) ;
#147 = PERSON_AND_ORGANIZATION_ROLE ( 'classification_officer' ) ;
#148 = APPROVAL_ROLE ( '' ) ;
#149 = APPLICATION_PROTOCOL_DEFINITION ( 'international standard', 'config_control_design', 1994, #151 ) ;
#150 = DIRECTION ( 'NONE',  ( -0.0000000000000000000, -0.0000000000000000000, -1.000000000000000000 ) ) ;
#151 = APPLICATION_CONTEXT ( 'configuration controlled 3d designs of mechanical parts and assemblies' ) ;
#152 = DIRECTION ( 'NONE',  ( -0.0000000000000000000, -0.0000000000000000000, -1.000000000000000000 ) ) ;
#153 = DIRECTION ( 'NONE',  ( -0.0000000000000000000, -0.0000000000000000000, -1.000000000000000000 ) ) ;
#154 = CARTESIAN_POINT ( 'NONE',  ( 0.0000000000000000000, 0.0000000000000000000, 5.000000000000000000 ) ) ;
#155 = VERTEX_POINT ( 'NONE', #174 ) ;
#156 = DIRECTION ( 'NONE',  ( -0.0000000000000000000, -0.0000000000000000000, -1.000000000000000000 ) ) ;
#157 = CARTESIAN_POINT ( 'NONE',  ( -38.10000000000000100, 0.0000000000000000000, 0.0000000000000000000 ) ) ;
#158 = CARTESIAN_POINT ( 'NONE',  ( 38.10000000000000100, 4.665904304751416100E-015, 5.000000000000000000 ) ) ;
#159 = VERTEX_POINT ( 'NONE', #178 ) ;
#160 = DIRECTION ( 'NONE',  ( 1.000000000000000000, 0.0000000000000000000, 0.0000000000000000000 ) ) ;
#161 = VERTEX_POINT ( 'NONE', #157 ) ;
#162 = CARTESIAN_POINT ( 'NONE',  ( 16.00000000000000000, 1.959434878635765100E-015, 5.000000000000000000 ) ) ;
#163 = CARTESIAN_POINT ( 'NONE',  ( 0.0000000000000000000, 0.0000000000000000000, 0.0000000000000000000 ) ) ;
#164 = VERTEX_POINT ( 'NONE', #184 ) ;
#165 = DIRECTION ( 'NONE',  ( 1.000000000000000000, 0.0000000000000000000, 0.0000000000000000000 ) ) ;
#166 = CARTESIAN_POINT ( 'NONE',  ( 0.0000000000000000000, 0.0000000000000000000, 0.0000000000000000000 ) ) ;
#167 = DIRECTION ( 'NONE',  ( 0.0000000000000000000, 0.0000000000000000000, 1.000000000000000000 ) ) ;
#168 = VERTEX_POINT ( 'NONE', #173 ) ;
#169 = CARTESIAN_POINT ( 'NONE',  ( 0.0000000000000000000, 0.0000000000000000000, 5.000000000000000000 ) ) ;
#170 = CARTESIAN_POINT ( 'NONE',  ( 16.00000000000000000, 1.959434878635765100E-015, 5.000000000000000000 ) ) ;
#171 = DIRECTION ( 'NONE',  ( 0.0000000000000000000, 0.0000000000000000000, 1.000000000000000000 ) ) ;
#172 = VERTEX_POINT ( 'NONE', #158 ) ;
#173 = CARTESIAN_POINT ( 'NONE',  ( -16.00000000000000000, 0.0000000000000000000, 0.0000000000000000000 ) ) ;
#174 = CARTESIAN_POINT ( 'NONE',  ( 16.00000000000000000, 1.959434878635765100E-015, 0.0000000000000000000 ) ) ;
#175 = DIRECTION ( 'NONE',  ( 1.000000000000000000, 0.0000000000000000000, 0.0000000000000000000 ) ) ;
#176 = CARTESIAN_POINT ( 'NONE',  ( 38.10000000000000100, 4.665904304751416100E-015, 5.000000000000000000 ) ) ;
#177 = CARTESIAN_POINT ( 'NONE',  ( -38.10000000000000100, 0.0000000000000000000, 5.000000000000000000 ) ) ;
#178 = CARTESIAN_POINT ( 'NONE',  ( 38.10000000000000100, 4.665904304751416100E-015, 0.0000000000000000000 ) ) ;
#179 = DIRECTION ( 'NONE',  ( 0.0000000000000000000, 0.0000000000000000000, 1.000000000000000000 ) ) ;
#180 = VERTEX_POINT ( 'NONE', #170 ) ;
#181 = DIRECTION ( 'NONE',  ( 0.0000000000000000000, 0.0000000000000000000, 1.000000000000000000 ) ) ;
#182 = DIRECTION ( 'NONE',  ( 1.000000000000000000, 0.0000000000000000000, 0.0000000000000000000 ) ) ;
#183 = VERTEX_POINT ( 'NONE', #193 ) ;
#184 = CARTESIAN_POINT ( 'NONE',  ( -16.00000000000000000, 0.0000000000000000000, 5.000000000000000000 ) ) ;
#185 = CARTESIAN_POINT ( 'NONE',  ( -16.00000000000000000, 0.0000000000000000000, 5.000000000000000000 ) ) ;
#186 = CARTESIAN_POINT ( 'NONE',  ( 0.0000000000000000000, 0.0000000000000000000, 0.0000000000000000000 ) ) ;
#187 = DIRECTION ( 'NONE',  ( 0.0000000000000000000, 0.0000000000000000000, 1.000000000000000000 ) ) ;
#188 = DIRECTION ( 'NONE',  ( 1.000000000000000000, 0.0000000000000000000, 0.0000000000000000000 ) ) ;
#189 = CARTESIAN_POINT ( 'NONE',  ( 0.0000000000000000000, 0.0000000000000000000, 5.000000000000000000 ) ) ;
#190 = CARTESIAN_POINT ( 'NONE',  ( 0.0000000000000000000, 0.0000000000000000000, 5.000000000000000000 ) ) ;
#191 = DIRECTION ( 'NONE',  ( 0.0000000000000000000, 0.0000000000000000000, 1.000000000000000000 ) ) ;
#192 = DIRECTION ( 'NONE',  ( 1.000000000000000000, 0.0000000000000000000, 0.0000000000000000000 ) ) ;
#193 = CARTESIAN_POINT ( 'NONE',  ( -38.10000000000000100, 0.0000000000000000000, 5.000000000000000000 ) ) ;
#194 = CARTESIAN_POINT ( 'NONE',  ( 0.0000000000000000000, 0.0000000000000000000, 0.0000000000000000000 ) ) ;
#195 = DESIGN_CONTEXT ( 'detailed design', #151, 'design' ) ;
#196 = PRODUCT_DEFINITION_SHAPE ( 'NONE', 'NONE',  #206 ) ;
#197 = PRODUCT ( 'SupportThrustWasher', 'SupportThrustWasher', '', ( #138 ) ) ;
#198 = PERSON ( 'UNSPECIFIED', 'UNSPECIFIED', 'UNSPECIFIED', ('UNSPECIFIED'), ('UNSPECIFIED'), ('UNSPECIFIED') ) ;
#199 = EDGE_CURVE ( 'NONE', #161, #159, #78, .T. ) ;
#200 = CC_DESIGN_APPROVAL ( #202, ( #206 ) ) ;
#201 = AXIS2_PLACEMENT_3D ( 'NONE', #134, #128, #126 ) ;
#202 = APPROVAL ( #143, 'UNSPECIFIED' ) ;
#203 = AXIS2_PLACEMENT_3D ( 'NONE', #166, #167, #165 ) ;
#204 = EDGE_CURVE ( 'NONE', #159, #161, #79, .T. ) ;
#205 = AXIS2_PLACEMENT_3D ( 'NONE', #135, #124, #132 ) ;
#206 = PRODUCT_DEFINITION ( 'UNKNOWN', '', #210, #195 ) ;
#207 = CC_DESIGN_PERSON_AND_ORGANIZATION_ASSIGNMENT ( #56, #139, ( #197 ) ) ;
#208 = AXIS2_PLACEMENT_3D ( 'NONE', #130, #131, #129 ) ;
#209 = AXIS2_PLACEMENT_3D ( 'NONE', #186, #116, #114 ) ;
#210 = PRODUCT_DEFINITION_FORMATION_WITH_SPECIFIED_SOURCE ( 'ANY', '', #197, .NOT_KNOWN. ) ;
#211 = EDGE_CURVE ( 'NONE', #155, #168, #70, .T. ) ;
#212 = APPROVAL ( #105, 'UNSPECIFIED' ) ;
#213 = EDGE_CURVE ( 'NONE', #172, #159, #80, .T. ) ;
#214 = EDGE_CURVE ( 'NONE', #183, #161, #71, .T. ) ;
#215 = AXIS2_PLACEMENT_3D ( 'NONE', #190, #119, #120 ) ;
#216 = EDGE_CURVE ( 'NONE', #164, #168, #73, .T. ) ;
#217 = EDGE_CURVE ( 'NONE', #180, #155, #77, .T. ) ;
#218 = CC_DESIGN_PERSON_AND_ORGANIZATION_ASSIGNMENT ( #31, #102, ( #206 ) ) ;
#219 = AXIS2_PLACEMENT_3D ( 'NONE', #169, #171, #160 ) ;
#220 = EDGE_CURVE ( 'NONE', #164, #180, #83, .T. ) ;
#221 = AXIS2_PLACEMENT_3D ( 'NONE', #154, #187, #188 ) ;
#222 = CC_DESIGN_APPROVAL ( #212, ( #210 ) ) ;
#223 = AXIS2_PLACEMENT_3D ( 'NONE', #189, #191, #192 ) ;
#224 = AXIS2_PLACEMENT_3D ( 'NONE', #163, #181, #175 ) ;
#225 = APPROVAL ( #146, 'UNSPECIFIED' ) ;
#226 = CC_DESIGN_SECURITY_CLASSIFICATION ( #239, ( #210 ) ) ;
#227 = CC_DESIGN_DATE_AND_TIME_ASSIGNMENT ( #13, #141, ( #239 ) ) ;
#228 = PRODUCT_RELATED_PRODUCT_CATEGORY ( 'detail', '', ( #197 ) ) ;
#229 = CC_DESIGN_PERSON_AND_ORGANIZATION_ASSIGNMENT ( #20, #145, ( #210 ) ) ;
#230 = CC_DESIGN_APPROVAL ( #225, ( #239 ) ) ;
#231 = CC_DESIGN_PERSON_AND_ORGANIZATION_ASSIGNMENT ( #19, #104, ( #210 ) ) ;
#232 = EDGE_CURVE ( 'NONE', #183, #172, #85, .T. ) ;
#233 = AXIS2_PLACEMENT_3D ( 'NONE', #111, #112, #113 ) ;
#234 = AXIS2_PLACEMENT_3D ( 'NONE', #123, #133, #109 ) ;
#235 = EDGE_CURVE ( 'NONE', #172, #183, #86, .T. ) ;
#236 = AXIS2_PLACEMENT_3D ( 'NONE', #118, #115, #117 ) ;
#237 = CC_DESIGN_DATE_AND_TIME_ASSIGNMENT ( #28, #144, ( #206 ) ) ;
#238 = AXIS2_PLACEMENT_3D ( 'NONE', #194, #179, #182 ) ;
#239 = SECURITY_CLASSIFICATION ( '', '', #106 ) ;
#240 = CC_DESIGN_PERSON_AND_ORGANIZATION_ASSIGNMENT ( #47, #147, ( #239 ) ) ;
#241 = AXIS2_PLACEMENT_3D ( 'NONE', #107, #122, #121 ) ;
#242 = EDGE_CURVE ( 'NONE', #168, #155, #64, .T. ) ;
#243 = EDGE_CURVE ( 'NONE', #180, #164, #90, .T. ) ;
#244 = ADVANCED_FACE ( 'NONE', ( #81 ), #82, .F. ) ;
#245 = ADVANCED_FACE ( 'NONE', ( #89, #92 ), #108, .T. ) ;
#246 = ADVANCED_FACE ( 'NONE', ( #87 ), #93, .F. ) ;
#247 = ADVANCED_FACE ( 'NONE', ( #88 ), #95, .T. ) ;
#248 = ADVANCED_FACE ( 'NONE', ( #84, #96 ), #136, .F. ) ;
#249 = ADVANCED_FACE ( 'NONE', ( #91 ), #94, .T. ) ;
ENDSEC;
END-ISO-10303-21;
